  0
SECTION
  2
HEADER
  9
$EXTMIN
 10
0
 20
0
  9
$EXTMAX
 10
6300
 20
4455
  0
ENDSEC
  0
SECTION
  2
TABLES
  0
TABLE
  2
LTYPE
 70
     9
  0
LTYPE
  2
CONTINUOUS
 70
    64
  3
実線
 72
    65
 73
     0
 40
0.0
  0
LTYPE
  2
DASHED1
 70
    64
  3
--  --  --  --  --  --  --  --  
 72
    65
 73
     2
 40
2.5
 49
1.25
 49
-1.25
  0
LTYPE
  2
DASHED2
 70
    64
  3
----    ----    ----    ----    
 72
    65
 73
     2
 40
5.0
 49
2.5
 49
-2.5
  0
LTYPE
  2
DASHED3
 70
    64
  3
------  ------  ------  ------  
 72
    65
 73
     2
 40
5.0
 49
3.75
 49
-1.25
  0
LTYPE
  2
CENTER1
 70
    64
  3
----- - ----- - ----- - ----- - 
 72
    65
 73
     4
 40
10.0
 49
6.25
 49
-1.25
 49
1.25
 49
-1.25
  0
LTYPE
  2
CENTER2
 70
    64
  3
----------  --  ----------  --  
 72
    65
 73
     4
 40
20.0
 49
12.5
 49
-2.5
 49
2.5
 49
-2.5
  0
LTYPE
  2
PHANTOM1
 70
    64
  3
--- - - --- - - --- - - --- - - 
 72
    65
 73
     6
 40
10.0
 49
3.25
 49
-1.25
 49
1.25
 49
-1.25
 49
1.25
 49
-1.25
  0
LTYPE
  2
PHANTOM2
 70
    64
  3
--------  -  -  --------  -  -  
 72
    65
 73
     6
 40
20.0
 49
10.0
 49
-2.5
 49
1.25
 49
-2.5
 49
1.25
 49
-2.5
  0
LTYPE
  2
DOT
 70
    64
  3
-   -   -   -   -   -   -   -   
 72
    65
 73
     2
 40
2.5
 49
0.625
 49
-1.875
  0
ENDTAB
  0
TABLE
  2
STYLE
 70
    1
  0
STYLE
  2
STANDARD
 70
    64
 40
0.0
 41
1.0
 42
0.0
 50
0.0
 71
     0
  3
TXT
  4
BIGFONT
  0
ENDTAB
  0
TABLE
  2
LAYER
 70
    8
  0
LAYER
  2
0-1
 70
   64
 62
    7
  6
CONTINUOUS
  0
LAYER
  2
0-2
 70
   64
 62
    7
  6
CONTINUOUS
  0
LAYER
  2
0-3
 70
   64
 62
    7
  6
CONTINUOUS
  0
LAYER
  2
0-8
 70
   64
 62
    7
  6
CONTINUOUS
  0
LAYER
  2
0-d
 70
   64
 62
    7
  6
CONTINUOUS
  0
LAYER
  2
1-2
 70
   64
 62
    7
  6
CONTINUOUS
  0
LAYER
  2
1-8
 70
   64
 62
    7
  6
CONTINUOUS
  0
LAYER
  2
ADD_LINE
 70
   64
 62
    7
  6
CONTINUOUS
  0
ENDTAB
  0
ENDSEC
  0
SECTION
  2
ENTITIES
  0
LINE
  8
0-8
  6
CONTINUOUS
 62
    7
 10
2574.9994
 20
3044.8611
 11
2574.9994
 21
3514.8599
  0
LINE
  8
0-8
  6
CONTINUOUS
 62
    7
 10
2139.9982
 20
3414.8606
 11
2574.9994
 21
3414.8606
  0
LINE
  8
0-8
  6
CONTINUOUS
 62
    7
 10
2139.9982
 20
3514.8599
 11
2574.9994
 21
3514.8599
  0
LINE
  8
0-2
  6
CONTINUOUS
 62
    3
 10
1124.9999
 20
1155
 11
1124.9999
 21
2055.0004
  0
LINE
  8
0-2
  6
CONTINUOUS
 62
    3
 10
1124.9999
 20
2055.0004
 11
2024.9999
 21
2055.0004
  0
LINE
  8
0-2
  6
CONTINUOUS
 62
    3
 10
2024.9999
 20
2055.0004
 11
2024.9999
 21
1155
  0
LINE
  8
0-2
  6
CONTINUOUS
 62
    3
 10
2024.9999
 20
1155
 11
1124.9999
 21
1155
  0
LINE
  8
0-2
  6
CONTINUOUS
 62
    3
 10
2264.9999
 20
915.00002
 11
2264.9999
 21
2295
  0
LINE
  8
0-2
  6
CONTINUOUS
 62
    3
 10
2264.9999
 20
2295
 11
884.99992
 21
2295
  0
LINE
  8
0-2
  6
CONTINUOUS
 62
    3
 10
884.99992
 20
2295
 11
884.99992
 21
915.00002
  0
LINE
  8
0-2
  6
CONTINUOUS
 62
    3
 10
884.99992
 20
915.00002
 11
2264.9999
 21
915.00002
  0
LINE
  8
0-8
  6
CONTINUOUS
 62
    7
 10
575.00027
 20
915.00002
 11
575.00027
 21
2295
  0
LINE
  8
0-8
  6
CONTINUOUS
 62
    7
 10
2575.0003
 20
1155
 11
2575.0003
 21
2055.0004
  0
LINE
  8
0-2
  6
CONTINUOUS
 62
    3
 10
1124.9999
 20
2055.0004
 11
1231.066
 21
1948.934
  0
LINE
  8
0-2
  6
CONTINUOUS
 62
    3
 10
2024.9999
 20
2055.0004
 11
1918.9338
 21
1948.934
  0
LINE
  8
0-2
  6
CONTINUOUS
 62
    3
 10
1124.9999
 20
1155
 11
1231.066
 21
1261.066
  0
LINE
  8
0-2
  6
CONTINUOUS
 62
    3
 10
2024.9999
 20
1155
 11
1918.9338
 21
1261.066
  0
LINE
  8
0-8
  6
CONTINUOUS
 62
    7
 10
1218.7235
 20
1480.2068
 11
1931.2767
 21
1729.7917
  0
LINE
  8
0-2
  6
CONTINUOUS
 62
    3
 10
1197.4998
 20
3414.8606
 11
1952.4998
 21
3414.8606
  0
LINE
  8
0-2
  6
CONTINUOUS
 62
    3
 10
1197.4998
 20
3514.8599
 11
1952.4998
 21
3514.8599
  0
LINE
  8
0-8
  6
CONTINUOUS
 62
    7
 10
1952.5
 20
3666.6227
 11
1197.5
 21
3666.6227
  0
LINE
  8
0-d
  6
CONTINUOUS
 62
    7
 10
375.00002
 20
4136.5517
 11
2774.9999
 21
4136.5517
  0
LINE
  8
0-d
  6
CONTINUOUS
 62
    7
 10
375.00002
 20
4151.5517
 11
2774.9999
 21
4151.5517
  0
LINE
  8
0-8
  6
CONTINUOUS
 62
    7
 10
2024.9992
 20
2965.2354
 11
2024.9992
 21
2796.1163
  0
LINE
  8
0-8
  6
CONTINUOUS
 62
    7
 10
1124.9999
 20
2965.2354
 11
1124.9999
 21
2796.1163
  0
LINE
  8
0-8
  6
CONTINUOUS
 62
    7
 10
778.30783
 20
2295
 11
575.00027
 21
2295
  0
LINE
  8
0-8
  6
CONTINUOUS
 62
    7
 10
778.30783
 20
915.00002
 11
575.00027
 21
915.00002
  0
LINE
  8
0-8
  6
CONTINUOUS
 62
    7
 10
2370.7842
 20
2055.0004
 11
2575.0003
 21
2055.0004
  0
LINE
  8
0-8
  6
CONTINUOUS
 62
    7
 10
2370.7842
 20
1155
 11
2575.0003
 21
1155
  0
LINE
  8
0-8
  6
CONTINUOUS
 62
    7
 10
1952.5
 20
3567.8645
 11
1952.5
 21
3666.6227
  0
LINE
  8
0-8
  6
CONTINUOUS
 62
    7
 10
1197.5
 20
3567.8645
 11
1197.5
 21
3666.6227
  0
LINE
  8
0-d
  6
CONTINUOUS
 62
    7
 10
580.32548
 20
2825.025
 11
719.92608
 21
2825.025
  0
LINE
  8
0-d
  6
CONTINUOUS
 62
    7
 10
580.32548
 20
2825.025
 11
719.92608
 21
2866.9034
  0
LINE
  8
0-d
  6
CONTINUOUS
 62
    7
 10
719.92608
 20
2825.025
 11
719.92608
 21
2866.9034
  0
LINE
  8
0-1
  6
CENTER2
 62
    7
 10
2264.9999
 20
1604.9998
 11
884.99992
 21
1604.9998
  0
LINE
  8
0-8
  6
CONTINUOUS
 62
    7
 10
2575.0003
 20
915.00002
 11
2575.0003
 21
1155
  0
LINE
  8
0-8
  6
CONTINUOUS
 62
    7
 10
2370.7842
 20
915.00002
 11
2575.0003
 21
915.00002
  0
LINE
  8
0-8
  6
CONTINUOUS
 62
    7
 10
2575.0003
 20
2055.0004
 11
2575.0003
 21
2295
  0
LINE
  8
0-8
  6
CONTINUOUS
 62
    7
 10
2370.7842
 20
2295
 11
2575.0003
 21
2295
  0
LINE
  8
0-2
  6
CONTINUOUS
 62
    3
 10
1197.4998
 20
3477.8601
 11
1197.4998
 21
3414.8606
  0
LINE
  8
0-2
  6
CONTINUOUS
 62
    3
 10
1197.4998
 20
3514.8599
 11
1197.4998
 21
3489.8601
  0
LINE
  8
0-2
  6
CONTINUOUS
 62
    3
 10
1197.4998
 20
3489.8601
 11
1952.5
 21
3489.8601
  0
LINE
  8
0-2
  6
CONTINUOUS
 62
    3
 10
1952.5
 20
3514.8599
 11
1952.5
 21
3489.8601
  0
LINE
  8
0-2
  6
CONTINUOUS
 62
    3
 10
1197.4998
 20
3477.8601
 11
1952.4998
 21
3477.8601
  0
LINE
  8
0-2
  6
CONTINUOUS
 62
    3
 10
1952.4998
 20
3477.8601
 11
1952.4998
 21
3414.8606
  0
LINE
  8
1-2
  6
CONTINUOUS
 62
    3
 10
559.45944
 20
3916.2161
 11
766.21619
 21
3916.2161
  0
LINE
  8
1-2
  6
CONTINUOUS
 62
    3
 10
559.45944
 20
3541.2159
 11
766.21619
 21
3541.2159
  0
LINE
  8
1-2
  6
CONTINUOUS
 62
    3
 10
559.45944
 20
3361.2161
 11
766.21619
 21
3361.2161
  0
LINE
  8
1-2
  6
CONTINUOUS
 62
    3
 10
559.45944
 20
3361.2161
 11
559.45944
 21
3186.4863
  0
LINE
  8
1-2
  6
CONTINUOUS
 62
    3
 10
559.45944
 20
3916.2161
 11
559.45944
 21
3541.2159
  0
LINE
  8
1-8
  6
CONTINUOUS
 62
    7
 10
364.86485
 20
3361.2161
 11
364.86485
 21
3541.2159
  0
LINE
  8
1-8
  6
CONTINUOUS
 62
    7
 10
486.48647
 20
3361.2161
 11
364.86485
 21
3361.2161
  0
LINE
  8
1-8
  6
CONTINUOUS
 62
    7
 10
486.48647
 20
3541.2159
 11
364.86485
 21
3541.2159
  0
LINE
  8
1-8
  6
CONTINUOUS
 62
    7
 10
364.86485
 20
3541.2159
 11
364.86485
 21
3916.2161
  0
LINE
  8
1-8
  6
CONTINUOUS
 62
    7
 10
486.48647
 20
3916.2161
 11
364.86485
 21
3916.2161
  0
LINE
  8
0-d
  6
CONTINUOUS
 62
    7
 10
374.99983
 20
395.00005
 11
2774.9997
 21
395.00005
  0
LINE
  8
0-d
  6
CONTINUOUS
 62
    7
 10
374.99983
 20
245.00002
 11
374.99983
 21
514.99998
  0
LINE
  8
0-d
  6
CONTINUOUS
 62
    7
 10
374.99983
 20
245.00002
 11
2774.9997
 21
245.00002
  0
LINE
  8
0-d
  6
CONTINUOUS
 62
    7
 10
2774.9997
 20
514.99998
 11
2774.9997
 21
245.00002
  0
LINE
  8
0-d
  6
CONTINUOUS
 62
    7
 10
374.99983
 20
514.99998
 11
2774.9997
 21
514.99998
  0
LINE
  8
0-d
  6
CONTINUOUS
 62
    7
 10
1574.9999
 20
514.99998
 11
1574.9999
 21
245.00002
  0
LINE
  8
0-d
  6
CONTINUOUS
 62
    7
 10
974.99994
 20
245.00002
 11
974.99994
 21
395.00005
  0
LINE
  8
0-d
  6
CONTINUOUS
 62
    7
 10
1574.9999
 20
395.00005
 11
1574.9999
 21
514.99998
  0
LINE
  8
0-d
  6
CONTINUOUS
 62
    7
 10
1274.9999
 20
245.00002
 11
1274.9999
 21
395.00005
  0
LINE
  8
0-d
  6
CONTINUOUS
 62
    7
 10
427.49972
 20
245.00002
 11
427.49972
 21
395.00005
  0
LINE
  8
0-d
  6
CONTINUOUS
 62
    7
 10
1027.4996
 20
245.00002
 11
1027.4996
 21
395.00005
  0
LINE
  8
0-d
  6
CONTINUOUS
 62
    7
 10
1327.4996
 20
245.00002
 11
1327.4996
 21
395.00005
  0
LINE
  8
0-d
  6
CONTINUOUS
 62
    7
 10
1522.4998
 20
395.00005
 11
1522.4998
 21
514.99998
  0
LINE
  8
0-d
  6
CONTINUOUS
 62
    7
 10
2324.9998
 20
395.00005
 11
2324.9998
 21
514.99998
  0
LINE
  8
0-d
  6
CONTINUOUS
 62
    7
 10
2377.4996
 20
395.00005
 11
2377.4996
 21
514.99998
  0
LINE
  8
0-1
  6
CENTER2
 62
    7
 10
1574.9999
 20
3849.8583
 11
1574.9999
 21
693.24322
  0
LINE
  8
0-2
  6
CONTINUOUS
 62
    3
 10
1952.4998
 20
3414.8606
 11
2024.9999
 21
3044.8611
  0
LINE
  8
0-2
  6
CONTINUOUS
 62
    3
 10
1124.9999
 20
3044.8611
 11
1197.4998
 21
3414.8606
  0
LINE
  8
0-8
  6
CONTINUOUS
 62
    7
 10
2139.9982
 20
3044.8611
 11
2574.9994
 21
3044.8611
  0
LINE
  8
0-8
  6
CONTINUOUS
 62
    7
 10
2024.9992
 20
2796.1163
 11
1124.9999
 21
2796.1163
  0
LINE
  8
0-2
  6
CONTINUOUS
 62
    3
 10
884.99992
 20
2971.4856
 11
1574.9999
 21
3182.44
  0
LINE
  8
0-2
  6
CONTINUOUS
 62
    3
 10
2264.9999
 20
2971.4856
 11
1574.9999
 21
3182.44
  0
CIRCLE
  8
0-2
  6
CONTINUOUS
 62
    3
 10
1574.9999
 20
1604.9998
 40
377.49996
  0
ARC
  8
0-2
  6
CONTINUOUS
 62
    3
 10
1197.4998
 20
3483.8603
 40
6.000168
 50
270
 51
90
  0
ARC
  8
0-2
  6
CONTINUOUS
 62
    3
 10
1952.5
 20
3483.8603
 40
6.000168
 50
90
 51
270
  0
ARC
  8
1-2
  6
CONTINUOUS
 62
    3
 10
559.45944
 20
3451.216
 40
89.999923
 50
270
 51
90
  0
CIRCLE
  8
0-3
  6
DASHED1
 62
    3
 10
1197.4998
 20
3489.8601
 40
49.999999
  0
TEXT
  8
0-d
 10
757.9989
 20
2850.4068
 40
45
 41
1
 50
0
  1
3
  0
TEXT
  8
0-d
 10
626.26759
 20
2766.5943
 40
45
 41
1
 50
0
  1
10
  0
TEXT
  8
0-8
 10
2641.7185
 20
1561.1794
 40
45
 41
1
 50
90
  1
900
  0
TEXT
  8
0-8
 10
1513.5255
 20
1631.1471
 40
45
 41
1
 50
19.303787
  1
755φ
  0
TEXT
  8
0-8
 10
1530.0335
 20
2841.1161
 40
45
 41
1
 50
0
  1
900
  0
TEXT
  8
0-8
 10
2674.9995
 20
3199.8607
 40
45
 41
1
 50
90
  1
370
  0
TEXT
  8
0-8
 10
2674.9995
 20
3434.8601
 40
45
 41
1
 50
90
  1
100
  0
TEXT
  8
0-8
 10
1500.6247
 20
3711.6228
 40
45
 41
1
 50
0
  1
755φ
  0
TEXT
  8
0-8
 10
2635.0003
 20
1003.1248
 40
45
 41
1
 50
90
  1
240
  0
TEXT
  8
0-8
 10
2635.0003
 20
2143.1252
 40
45
 41
1
 50
90
  1
240
  0
TEXT
  8
0-8
 10
530.00031
 20
1553.7499
 40
45
 41
1
 50
90
  1
≒　1,380
  0
TEXT
  8
0-1
 10
364.71066
 20
4179.051
 40
75
 41
1
 50
0
  1
ＳＴ－７５・ＳＦ－７５・ＤＳ－７５０　直付型　切妻　(1/15)
  0
TEXT
  8
1-8
 10
349.86485
 20
3430.591
 40
45
 41
1
 50
90
  1
12
  0
TEXT
  8
1-8
 10
349.86485
 20
3708.0908
 40
45
 41
1
 50
90
  1
25
  0
TEXT
  8
0-d
 10
382.49967
 20
346.24998
 40
37.5
 41
1
 50
0
  1
図
  0
TEXT
  8
0-d
 10
382.49967
 20
256.25004
 40
37.5
 41
1
 50
0
  1
番
  0
TEXT
  8
0-d
 10
982.49978
 20
346.24998
 40
37.5
 41
1
 50
0
  1
承
  0
TEXT
  8
0-d
 10
982.49978
 20
256.25004
 40
37.5
 41
1
 50
0
  1
認
  0
TEXT
  8
0-d
 10
1529.9997
 20
466.25005
 40
37.5
 41
1
 50
0
  1
尺
  0
TEXT
  8
0-d
 10
1529.9997
 20
406.25009
 40
37.5
 41
1
 50
359.99986
  1
度
  0
TEXT
  8
0-d
 10
1282.4997
 20
346.24998
 40
37.5
 41
1
 50
0
  1
製
  0
TEXT
  8
0-d
 10
1282.4997
 20
256.25004
 40
37.5
 41
1
 50
0
  1
図
  0
TEXT
  8
0-d
 10
2332.4998
 20
466.25005
 40
37.5
 41
1
 50
0
  1
日
  0
TEXT
  8
0-d
 10
2332.4998
 20
406.25009
 40
37.5
 41
1
 50
359.99986
  1
付
  0
TEXT
  8
0-d
 10
1667.1388
 20
355.22344
 40
30
 41
1
 50
0
  1
株式
  0
TEXT
  8
0-d
 10
1667.1388
 20
322.77777
 40
30
 41
1
 50
0.0000457
  1
会社
  0
TEXT
  8
0-d
 10
1761.3362
 20
324.87104
 40
60
 41
1
 50
0
  1
スズキベンチレーター
  0
TEXT
  8
0-d
 10
1856.8764
 20
251.03661
 40
30
 41
1
 50
0
  1
TEL(054)296-7000  FAX(054)296-7001
  0
TEXT
  8
0-d
 10
447.50644
 20
329.57869
 40
45
 41
1
 50
0
  1
75-E12
  0
TEXT
  8
0-d
 10
1626.5232
 20
425.15112
 40
60
 41
1
 50
0
  1
１／１５　　１／１
  0
TEXT
  8
0-d
 10
1853.5185
 20
287.96916
 40
30
 41
1
 50
0
  1
〒421-2114　静岡市葵区安倍口新田１５２番地
  0
POINT
  8
0-8
 62
    2
 10
2574.9994
 20
3044.8611
  0
POINT
  8
0-8
 62
    2
 10
2574.9994
 20
3414.8606
  0
POINT
  8
0-8
 62
    2
 10
2574.9994
 20
3514.8599
  0
POINT
  8
0-8
 62
    2
 10
575.00027
 20
915.00002
  0
POINT
  8
0-8
 62
    2
 10
575.00027
 20
2295
  0
POINT
  8
0-8
 62
    2
 10
2575.0003
 20
1155
  0
POINT
  8
0-8
 62
    2
 10
2575.0003
 20
2055.0004
  0
POINT
  8
0-8
 62
    2
 10
2024.9992
 20
2796.1163
  0
POINT
  8
0-8
 62
    2
 10
1124.9999
 20
2796.1163
  0
POINT
  8
0-8
 62
    2
 10
1218.7235
 20
1480.2068
  0
POINT
  8
0-8
 62
    2
 10
1931.2767
 20
1729.7917
  0
POINT
  8
0-8
 62
    2
 10
1952.5
 20
3666.6227
  0
POINT
  8
0-8
 62
    2
 10
1197.5
 20
3666.6227
  0
POINT
  8
0-8
 62
    2
 10
2575.0003
 20
915.00002
  0
POINT
  8
0-8
 62
    2
 10
2575.0003
 20
2295
  0
POINT
  8
1-8
 62
    2
 10
364.86485
 20
3361.2161
  0
POINT
  8
1-8
 62
    2
 10
364.86485
 20
3541.2159
  0
POINT
  8
1-8
 62
    2
 10
364.86485
 20
3916.2161
  0
ENDSEC
  0
EOF
