  0
SECTION
  2
HEADER
  9
$EXTMIN
 10
0
 20
0
  9
$EXTMAX
 10
4200
 20
2970
  0
ENDSEC
  0
SECTION
  2
TABLES
  0
TABLE
  2
LTYPE
 70
     9
  0
LTYPE
  2
CONTINUOUS
 70
    64
  3
実線
 72
    65
 73
     0
 40
0.0
  0
LTYPE
  2
DASHED1
 70
    64
  3
--  --  --  --  --  --  --  --  
 72
    65
 73
     2
 40
2.5
 49
1.25
 49
-1.25
  0
LTYPE
  2
DASHED2
 70
    64
  3
----    ----    ----    ----    
 72
    65
 73
     2
 40
5.0
 49
2.5
 49
-2.5
  0
LTYPE
  2
DASHED3
 70
    64
  3
------  ------  ------  ------  
 72
    65
 73
     2
 40
5.0
 49
3.75
 49
-1.25
  0
LTYPE
  2
CENTER1
 70
    64
  3
----- - ----- - ----- - ----- - 
 72
    65
 73
     4
 40
10.0
 49
6.25
 49
-1.25
 49
1.25
 49
-1.25
  0
LTYPE
  2
CENTER2
 70
    64
  3
----------  --  ----------  --  
 72
    65
 73
     4
 40
20.0
 49
12.5
 49
-2.5
 49
2.5
 49
-2.5
  0
LTYPE
  2
PHANTOM1
 70
    64
  3
--- - - --- - - --- - - --- - - 
 72
    65
 73
     6
 40
10.0
 49
3.25
 49
-1.25
 49
1.25
 49
-1.25
 49
1.25
 49
-1.25
  0
LTYPE
  2
PHANTOM2
 70
    64
  3
--------  -  -  --------  -  -  
 72
    65
 73
     6
 40
20.0
 49
10.0
 49
-2.5
 49
1.25
 49
-2.5
 49
1.25
 49
-2.5
  0
LTYPE
  2
DOT
 70
    64
  3
-   -   -   -   -   -   -   -   
 72
    65
 73
     2
 40
2.5
 49
0.625
 49
-1.875
  0
ENDTAB
  0
TABLE
  2
STYLE
 70
    1
  0
STYLE
  2
STANDARD
 70
    64
 40
0.0
 41
1.0
 42
0.0
 50
0.0
 71
     0
  3
TXT
  4
BIGFONT
  0
ENDTAB
  0
TABLE
  2
LAYER
 70
    7
  0
LAYER
  2
0-1
 70
   64
 62
    7
  6
CONTINUOUS
  0
LAYER
  2
0-2
 70
   64
 62
    7
  6
CONTINUOUS
  0
LAYER
  2
0-3
 70
   64
 62
    7
  6
CONTINUOUS
  0
LAYER
  2
0-8
 70
   64
 62
    7
  6
CONTINUOUS
  0
LAYER
  2
0-d
 70
   64
 62
    7
  6
CONTINUOUS
  0
LAYER
  2
1-1
 70
   64
 62
    7
  6
CONTINUOUS
  0
LAYER
  2
ADD_LINE
 70
   64
 62
    7
  6
CONTINUOUS
  0
ENDTAB
  0
ENDSEC
  0
SECTION
  2
ENTITIES
  0
LINE
  8
0-8
  6
CONTINUOUS
 62
    7
 10
1869.4688
 20
1945.0148
 11
1869.4689
 21
2357.1616
  0
LINE
  8
0-8
  6
CONTINUOUS
 62
    7
 10
1529.9984
 20
2267.1615
 11
1869.4688
 21
2267.1615
  0
LINE
  8
0-8
  6
CONTINUOUS
 62
    7
 10
1529.9985
 20
2357.1616
 11
1869.4689
 21
2357.1616
  0
LINE
  8
0-8
  6
CONTINUOUS
 62
    7
 10
230.53128
 20
378.69333
 11
230.53128
 21
1598.6936
  0
LINE
  8
0-8
  6
CONTINUOUS
 62
    7
 10
675.00003
 20
1755.2844
 11
1425
 21
1755.2844
  0
LINE
  8
0-8
  6
CONTINUOUS
 62
    7
 10
764.50817
 20
888.69445
 11
1335.4948
 21
1088.6927
  0
LINE
  8
0-2
  6
CONTINUOUS
 62
    3
 10
747.50002
 20
2267.1615
 11
1352.4999
 21
2267.1615
  0
LINE
  8
0-2
  6
CONTINUOUS
 62
    3
 10
747.50015
 20
2357.1616
 11
1352.5
 21
2357.1616
  0
LINE
  8
0-8
  6
CONTINUOUS
 62
    7
 10
747.50002
 20
2508.1929
 11
1352.4999
 21
2508.1929
  0
LINE
  8
0-d
  6
CONTINUOUS
 62
    7
 10
250.00003
 20
2757.7013
 11
1850.0001
 21
2757.7013
  0
LINE
  8
0-d
  6
CONTINUOUS
 62
    7
 10
250.00003
 20
2767.7014
 11
1850.0001
 21
2767.7014
  0
LINE
  8
0-8
  6
CONTINUOUS
 62
    7
 10
373.16426
 20
1598.6936
 11
230.53128
 21
1598.6936
  0
LINE
  8
0-8
  6
CONTINUOUS
 62
    7
 10
373.16426
 20
378.69333
 11
230.53128
 21
378.69333
  0
LINE
  8
0-8
  6
CONTINUOUS
 62
    7
 10
1726.0645
 20
1363.6935
 11
1869.4693
 21
1363.6935
  0
LINE
  8
0-8
  6
CONTINUOUS
 62
    7
 10
1726.0645
 20
613.69415
 11
1869.4693
 21
613.69415
  0
LINE
  8
0-8
  6
CONTINUOUS
 62
    7
 10
747.50015
 20
2402.1921
 11
747.50002
 21
2508.1929
  0
LINE
  8
0-8
  6
CONTINUOUS
 62
    7
 10
1352.5
 20
2402.1921
 11
1352.4999
 21
2508.1929
  0
LINE
  8
0-d
  6
CONTINUOUS
 62
    7
 10
302.26408
 20
1961.1304
 11
420.86293
 21
1961.1304
  0
LINE
  8
0-d
  6
CONTINUOUS
 62
    7
 10
302.26408
 20
1961.1304
 11
420.86293
 21
1996.7088
  0
LINE
  8
0-d
  6
CONTINUOUS
 62
    7
 10
420.86293
 20
1961.1304
 11
420.86293
 21
1996.7088
  0
LINE
  8
0-2
  6
CONTINUOUS
 62
    3
 10
747.50015
 20
2357.1616
 11
747.50015
 21
2344.4187
  0
LINE
  8
0-2
  6
CONTINUOUS
 62
    3
 10
747.50015
 20
2331.6748
 11
747.50002
 21
2267.1615
  0
LINE
  8
0-2
  6
CONTINUOUS
 62
    3
 10
747.50015
 20
2331.6748
 11
1352.5
 21
2331.6748
  0
LINE
  8
0-2
  6
CONTINUOUS
 62
    3
 10
1352.5
 20
2331.6748
 11
1352.4999
 21
2267.1615
  0
LINE
  8
0-2
  6
CONTINUOUS
 62
    3
 10
747.50015
 20
2344.4187
 11
1352.5003
 21
2344.4187
  0
LINE
  8
0-2
  6
CONTINUOUS
 62
    3
 10
1352.5003
 20
2357.1616
 11
1352.5003
 21
2344.4187
  0
LINE
  8
0-2
  6
CONTINUOUS
 62
    3
 10
675.00028
 20
1363.6935
 11
757.80849
 21
1280.8855
  0
LINE
  8
0-2
  6
CONTINUOUS
 62
    3
 10
675.00028
 20
1363.6935
 11
1424.9998
 21
1363.6935
  0
LINE
  8
0-2
  6
CONTINUOUS
 62
    3
 10
1425
 20
1363.6938
 11
1342.1918
 21
1280.8855
  0
LINE
  8
0-2
  6
CONTINUOUS
 62
    3
 10
675.00003
 20
1363.6935
 11
675.00003
 21
613.69403
  0
LINE
  8
0-2
  6
CONTINUOUS
 62
    3
 10
674.99953
 20
613.69353
 11
757.80849
 21
696.50199
  0
LINE
  8
0-2
  6
CONTINUOUS
 62
    3
 10
674.99953
 20
613.69353
 11
1425.0005
 21
613.69353
  0
LINE
  8
0-2
  6
CONTINUOUS
 62
    3
 10
1425
 20
613.69403
 11
1342.1918
 21
696.50199
  0
LINE
  8
0-2
  6
CONTINUOUS
 62
    3
 10
1425
 20
1363.6938
 11
1425
 21
613.69403
  0
LINE
  8
0-2
  6
CONTINUOUS
 62
    3
 10
439.99998
 20
378.69342
 11
1660.0001
 21
378.69342
  0
LINE
  8
0-2
  6
CONTINUOUS
 62
    3
 10
1660.0001
 20
1598.6936
 11
439.99998
 21
1598.6936
  0
LINE
  8
0-2
  6
CONTINUOUS
 62
    3
 10
439.99998
 20
1598.6936
 11
439.99998
 21
378.69342
  0
LINE
  8
0-8
  6
CONTINUOUS
 62
    7
 10
1869.4693
 20
613.69415
 11
1869.4693
 21
1363.6935
  0
LINE
  8
0-8
  6
CONTINUOUS
 62
    7
 10
1869.4693
 20
378.69342
 11
1869.4693
 21
613.69415
  0
LINE
  8
0-8
  6
CONTINUOUS
 62
    7
 10
1726.0645
 20
378.69342
 11
1869.4693
 21
378.69342
  0
LINE
  8
0-8
  6
CONTINUOUS
 62
    7
 10
1869.4693
 20
1363.6935
 11
1869.4693
 21
1598.6936
  0
LINE
  8
0-8
  6
CONTINUOUS
 62
    7
 10
1726.0645
 20
1598.6936
 11
1869.4693
 21
1598.6936
  0
LINE
  8
0-1
  6
CENTER2
 62
    7
 10
1050
 20
251.35136
 11
1050
 21
2683.7839
  0
LINE
  8
1-1
  6
CONTINUOUS
 62
    3
 10
440.92615
 20
2595.92
 11
440.92615
 21
2495.9199
  0
LINE
  8
1-1
  6
CONTINUOUS
 62
    3
 10
440.92615
 20
2395.9195
 11
440.92615
 21
2291.5685
  0
LINE
  8
1-1
  6
CONTINUOUS
 62
    7
 10
333.92797
 20
2395.9195
 11
333.92797
 21
2495.9199
  0
LINE
  8
1-1
  6
CONTINUOUS
 62
    7
 10
402.06251
 20
2395.9195
 11
333.92797
 21
2395.9195
  0
LINE
  8
1-1
  6
CONTINUOUS
 62
    7
 10
402.06251
 20
2495.9199
 11
333.92797
 21
2495.9199
  0
LINE
  8
1-1
  6
CONTINUOUS
 62
    7
 10
333.92797
 20
2495.9199
 11
333.92797
 21
2595.92
  0
LINE
  8
1-1
  6
CONTINUOUS
 62
    7
 10
402.06251
 20
2595.92
 11
333.92797
 21
2595.92
  0
LINE
  8
1-1
  6
CONTINUOUS
 62
    3
 10
440.92615
 20
2495.9172
 11
558.84255
 21
2495.9172
  0
LINE
  8
1-1
  6
CONTINUOUS
 62
    3
 10
440.92615
 20
2595.92
 11
558.84255
 21
2595.92
  0
LINE
  8
1-1
  6
CONTINUOUS
 62
    3
 10
440.92615
 20
2395.9195
 11
558.84255
 21
2395.9195
  0
LINE
  8
0-2
  6
CONTINUOUS
 62
    3
 10
1660.0001
 20
378.69342
 11
1660.0001
 21
1598.6936
  0
LINE
  8
0-d
  6
CONTINUOUS
 62
    7
 10
250.00003
 20
171.3514
 11
1850
 21
171.3514
  0
LINE
  8
0-d
  6
CONTINUOUS
 62
    7
 10
250.00003
 20
71.351379
 11
250.00003
 21
251.35136
  0
LINE
  8
0-d
  6
CONTINUOUS
 62
    7
 10
250.00003
 20
71.351379
 11
1850
 21
71.351379
  0
LINE
  8
0-d
  6
CONTINUOUS
 62
    7
 10
1850
 20
251.35136
 11
1850
 21
71.351379
  0
LINE
  8
0-d
  6
CONTINUOUS
 62
    7
 10
250.00003
 20
251.35136
 11
1850
 21
251.35136
  0
LINE
  8
0-d
  6
CONTINUOUS
 62
    7
 10
1050
 20
251.35136
 11
1050
 21
71.351379
  0
LINE
  8
0-d
  6
CONTINUOUS
 62
    7
 10
650.00007
 20
71.351379
 11
650.00007
 21
171.3514
  0
LINE
  8
0-d
  6
CONTINUOUS
 62
    7
 10
1050
 20
171.3514
 11
1050
 21
251.35136
  0
LINE
  8
0-d
  6
CONTINUOUS
 62
    7
 10
850.00012
 20
71.351379
 11
850.00012
 21
171.3514
  0
LINE
  8
0-d
  6
CONTINUOUS
 62
    7
 10
284.99996
 20
71.351379
 11
284.99996
 21
171.3514
  0
LINE
  8
0-d
  6
CONTINUOUS
 62
    7
 10
684.99994
 20
71.351379
 11
684.99994
 21
171.3514
  0
LINE
  8
0-d
  6
CONTINUOUS
 62
    7
 10
884.99987
 20
71.351379
 11
884.99987
 21
171.3514
  0
LINE
  8
0-d
  6
CONTINUOUS
 62
    7
 10
1015
 20
171.3514
 11
1015
 21
251.35136
  0
LINE
  8
0-d
  6
CONTINUOUS
 62
    7
 10
1549.9999
 20
171.3514
 11
1549.9999
 21
251.35136
  0
LINE
  8
0-d
  6
CONTINUOUS
 62
    7
 10
1584.9998
 20
171.3514
 11
1584.9998
 21
251.35136
  0
LINE
  8
0-1
  6
CENTER2
 62
    7
 10
1660.0001
 20
988.69355
 11
439.99998
 21
988.69355
  0
LINE
  8
0-2
  6
CONTINUOUS
 62
    3
 10
439.99998
 20
1875.3147
 11
1050
 21
2061.8104
  0
LINE
  8
0-2
  6
CONTINUOUS
 62
    3
 10
1660.0001
 20
1875.3147
 11
1050
 21
2061.8104
  0
LINE
  8
0-2
  6
CONTINUOUS
 62
    3
 10
1352.4999
 20
2267.1615
 11
1425
 21
1947.1614
  0
LINE
  8
0-2
  6
CONTINUOUS
 62
    3
 10
675.00003
 20
1947.1614
 11
747.50002
 21
2267.1615
  0
LINE
  8
0-8
  6
CONTINUOUS
 62
    7
 10
1529.9984
 20
1947.1614
 11
1869.4688
 21
1947.1614
  0
LINE
  8
0-8
  6
CONTINUOUS
 62
    7
 10
1425
 20
1888.2814
 11
1425
 21
1755.2844
  0
LINE
  8
0-8
  6
CONTINUOUS
 62
    7
 10
675.00003
 20
1888.2814
 11
675.00003
 21
1755.2844
  0
ARC
  8
0-2
  6
CONTINUOUS
 62
    3
 10
747.50015
 20
2338.0468
 40
6.3715979
 50
270
 51
90
  0
ARC
  8
0-2
  6
CONTINUOUS
 62
    3
 10
1352.5003
 20
2338.0468
 40
6.3715979
 50
90
 51
270
  0
CIRCLE
  8
0-2
  6
CONTINUOUS
 62
    3
 10
1050.0015
 20
988.69355
 40
302.49999
  0
ARC
  8
1-1
  6
CONTINUOUS
 62
    3
 10
440.92442
 20
2445.9195
 40
49.997681
 50
270
 51
90
  0
CIRCLE
  8
0-3
  6
DASHED1
 62
    3
 10
747.50015
 20
2331.6753
 40
44.999999
  0
TEXT
  8
0-d
 10
451.32753
 20
1978.9324
 40
30
 41
1
 50
0
  1
3
  0
TEXT
  8
0-d
 10
351.93327
 20
1918.596
 40
30
 41
1
 50
0
  1
10
  0
TEXT
  8
0-8
 10
1015
 20
2542.6618
 40
30
 41
1
 50
0
  1
605φ
  0
TEXT
  8
0-8
 10
1028.7212
 20
1789.7533
 40
30
 41
1
 50
0
  1
750
  0
TEXT
  8
0-8
 10
1005.5734
 20
1009.6539
 40
30
 41
1
 50
19.303817
  1
605φ
  0
TEXT
  8
0-8
 10
1937.4333
 20
2080.9326
 40
30
 41
1
 50
90
  1
320
  0
TEXT
  8
0-8
 10
1937.4334
 20
2300.9343
 40
30
 41
1
 50
90
  1
90
  0
TEXT
  8
0-8
 10
1904.4691
 20
474.94378
 40
30
 41
1
 50
90
  1
235
  0
TEXT
  8
0-8
 10
1904.4691
 20
1459.9436
 40
30
 41
1
 50
90
  1
235
  0
TEXT
  8
0-8
 10
1907.2636
 20
978.67372
 40
30
 41
1
 50
90
  1
750
  0
TEXT
  8
0-8
 10
242.94979
 20
2774.3172
 40
40
 41
1
 50
0
  1
ＳＴ－６０・ＳＦ－６０・ＤＳ－６００・ＡＳ－６００　直付型　切妻　(1/10)
  0
TEXT
  8
1-1
 10
326.23575
 20
2435.3431
 40
30
 41
1
 50
90
  1
10
  0
TEXT
  8
1-1
 10
326.23575
 20
2535.3432
 40
30
 41
1
 50
90
  1
10
  0
TEXT
  8
0-d
 10
254.99998
 20
138.85135
 40
25
 41
1
 50
0
  1
図
  0
TEXT
  8
0-d
 10
254.99998
 20
78.851404
 40
25
 41
1
 50
0
  1
番
  0
TEXT
  8
0-d
 10
654.99996
 20
138.85135
 40
25
 41
1
 50
0
  1
承
  0
TEXT
  8
0-d
 10
654.99996
 20
78.851404
 40
25
 41
1
 50
0
  1
認
  0
TEXT
  8
0-d
 10
1019.9999
 20
218.85137
 40
25
 41
1
 50
0
  1
尺
  0
TEXT
  8
0-d
 10
1019.9999
 20
178.85143
 40
25
 41
1
 50
359.99986
  1
度
  0
TEXT
  8
0-d
 10
855.00001
 20
138.85135
 40
25
 41
1
 50
0
  1
製
  0
TEXT
  8
0-d
 10
855.00001
 20
78.851404
 40
25
 41
1
 50
0
  1
図
  0
TEXT
  8
0-d
 10
1555
 20
218.85137
 40
25
 41
1
 50
0
  1
日
  0
TEXT
  8
0-d
 10
1555
 20
178.85143
 40
25
 41
1
 50
359.99986
  1
付
  0
TEXT
  8
0-d
 10
1111.4261
 20
144.83364
 40
20
 41
1
 50
0
  1
株式
  0
TEXT
  8
0-d
 10
1111.4261
 20
123.20323
 40
20
 41
1
 50
0.0000457
  1
会社
  0
TEXT
  8
0-d
 10
1174.2242
 20
124.59873
 40
40
 41
1
 50
0
  1
スズキベンチレーター
  0
TEXT
  8
0-d
 10
1237.9177
 20
75.375741
 40
20
 41
1
 50
0
  1
TEL(054)296-7000  FAX(054)296-7001
  0
TEXT
  8
0-d
 10
1084.3487
 20
191.45211
 40
40
 41
1
 50
0
  1
１／１０　　１／１
  0
TEXT
  8
0-d
 10
298.33783
 20
127.73714
 40
30
 41
1
 50
0
  1
60-D16
  0
TEXT
  8
0-8
 10
196.06229
 20
926.19346
 40
30
 41
1
 50
90
  1
≒ 1,220
  0
TEXT
  8
0-d
 10
1235.6791
 20
99.997489
 40
20
 41
1
 50
0
  1
〒421-2114　静岡市葵区安倍口新田１５２番地
  0
POINT
  8
0-8
 62
    2
 10
1869.4688
 20
1947.1614
  0
POINT
  8
0-8
 62
    2
 10
1869.4688
 20
2267.1615
  0
POINT
  8
0-8
 62
    2
 10
1869.4689
 20
2357.1616
  0
POINT
  8
0-8
 62
    2
 10
230.53128
 20
378.69333
  0
POINT
  8
0-8
 62
    2
 10
230.53128
 20
1598.6936
  0
POINT
  8
0-8
 62
    2
 10
1869.4693
 20
613.69415
  0
POINT
  8
0-8
 62
    2
 10
1869.4693
 20
1363.6935
  0
POINT
  8
0-8
 62
    2
 10
675.00003
 20
1755.2844
  0
POINT
  8
0-8
 62
    2
 10
1425
 20
1755.2844
  0
POINT
  8
0-8
 62
    2
 10
764.50817
 20
888.69445
  0
POINT
  8
0-8
 62
    2
 10
1335.4948
 20
1088.6927
  0
POINT
  8
0-8
 62
    2
 10
747.50002
 20
2508.1929
  0
POINT
  8
0-8
 62
    2
 10
1352.4999
 20
2508.1929
  0
POINT
  8
0-8
 62
    2
 10
1869.4693
 20
378.69342
  0
POINT
  8
0-8
 62
    2
 10
1869.4693
 20
1598.6936
  0
POINT
  8
1-1
 62
    2
 10
333.92797
 20
2395.9195
  0
POINT
  8
1-1
 62
    2
 10
333.92797
 20
2495.9199
  0
POINT
  8
1-1
 62
    2
 10
333.92797
 20
2595.92
  0
ENDSEC
  0
EOF
