  0
SECTION
  2
HEADER
  9
$EXTMIN
 10
0
 20
0
  9
$EXTMAX
 10
2520
 20
1782
  0
ENDSEC
  0
SECTION
  2
TABLES
  0
TABLE
  2
LTYPE
 70
     9
  0
LTYPE
  2
CONTINUOUS
 70
    64
  3
実線
 72
    65
 73
     0
 40
0.0
  0
LTYPE
  2
DASHED1
 70
    64
  3
--  --  --  --  --  --  --  --  
 72
    65
 73
     2
 40
2.5
 49
1.25
 49
-1.25
  0
LTYPE
  2
DASHED2
 70
    64
  3
----    ----    ----    ----    
 72
    65
 73
     2
 40
5.0
 49
2.5
 49
-2.5
  0
LTYPE
  2
DASHED3
 70
    64
  3
------  ------  ------  ------  
 72
    65
 73
     2
 40
5.0
 49
3.75
 49
-1.25
  0
LTYPE
  2
CENTER1
 70
    64
  3
----- - ----- - ----- - ----- - 
 72
    65
 73
     4
 40
10.0
 49
6.25
 49
-1.25
 49
1.25
 49
-1.25
  0
LTYPE
  2
CENTER2
 70
    64
  3
----------  --  ----------  --  
 72
    65
 73
     4
 40
20.0
 49
12.5
 49
-2.5
 49
2.5
 49
-2.5
  0
LTYPE
  2
PHANTOM1
 70
    64
  3
--- - - --- - - --- - - --- - - 
 72
    65
 73
     6
 40
10.0
 49
3.25
 49
-1.25
 49
1.25
 49
-1.25
 49
1.25
 49
-1.25
  0
LTYPE
  2
PHANTOM2
 70
    64
  3
--------  -  -  --------  -  -  
 72
    65
 73
     6
 40
20.0
 49
10.0
 49
-2.5
 49
1.25
 49
-2.5
 49
1.25
 49
-2.5
  0
LTYPE
  2
DOT
 70
    64
  3
-   -   -   -   -   -   -   -   
 72
    65
 73
     2
 40
2.5
 49
0.625
 49
-1.875
  0
ENDTAB
  0
TABLE
  2
STYLE
 70
    1
  0
STYLE
  2
STANDARD
 70
    64
 40
0.0
 41
1.0
 42
0.0
 50
0.0
 71
     0
  3
TXT
  4
BIGFONT
  0
ENDTAB
  0
TABLE
  2
LAYER
 70
    7
  0
LAYER
  2
0-1
 70
   64
 62
    7
  6
CONTINUOUS
  0
LAYER
  2
0-2
 70
   64
 62
    7
  6
CONTINUOUS
  0
LAYER
  2
0-4
 70
   64
 62
    7
  6
CONTINUOUS
  0
LAYER
  2
0-8
 70
   64
 62
    7
  6
CONTINUOUS
  0
LAYER
  2
0-d
 70
   64
 62
    7
  6
CONTINUOUS
  0
LAYER
  2
1-d
 70
   64
 62
    7
  6
CONTINUOUS
  0
LAYER
  2
ADD_LINE
 70
   64
 62
    7
  6
CONTINUOUS
  0
ENDTAB
  0
ENDSEC
  0
SECTION
  2
ENTITIES
  0
LINE
  8
0-d
  6
CONTINUOUS
 62
    7
 10
150.00002
 20
1654.6207
 11
1110
 21
1654.6207
  0
LINE
  8
0-d
  6
CONTINUOUS
 62
    7
 10
150.00002
 20
1660.6208
 11
1110
 21
1660.6208
  0
LINE
  8
0-d
  6
CONTINUOUS
 62
    7
 10
149.99999
 20
89.999999
 11
1110
 21
89.999999
  0
LINE
  8
0-d
  6
CONTINUOUS
 62
    7
 10
149.99999
 20
30.000001
 11
149.99999
 21
137.99999
  0
LINE
  8
0-d
  6
CONTINUOUS
 62
    7
 10
149.99999
 20
30.000001
 11
1110
 21
30.000001
  0
LINE
  8
0-d
  6
CONTINUOUS
 62
    7
 10
1110
 20
137.99999
 11
1110
 21
30.000001
  0
LINE
  8
0-d
  6
CONTINUOUS
 62
    7
 10
149.99999
 20
137.99999
 11
1110
 21
137.99999
  0
LINE
  8
0-d
  6
CONTINUOUS
 62
    7
 10
629.99999
 20
137.99999
 11
629.99999
 21
30.000001
  0
LINE
  8
0-d
  6
CONTINUOUS
 62
    7
 10
389.99998
 20
29.999998
 11
389.99998
 21
89.999999
  0
LINE
  8
0-d
  6
CONTINUOUS
 62
    7
 10
629.99999
 20
89.999999
 11
629.99999
 21
137.99999
  0
LINE
  8
0-d
  6
CONTINUOUS
 62
    7
 10
510
 20
30.000001
 11
510
 21
89.999999
  0
LINE
  8
0-d
  6
CONTINUOUS
 62
    7
 10
170.99998
 20
30.000001
 11
170.99998
 21
89.999999
  0
LINE
  8
0-d
  6
CONTINUOUS
 62
    7
 10
410.99997
 20
30.000001
 11
410.99997
 21
89.999999
  0
LINE
  8
0-d
  6
CONTINUOUS
 62
    7
 10
530.99992
 20
30.000001
 11
530.99992
 21
89.999999
  0
LINE
  8
0-d
  6
CONTINUOUS
 62
    7
 10
609
 20
89.999999
 11
609
 21
137.99999
  0
LINE
  8
0-d
  6
CONTINUOUS
 62
    7
 10
929.99994
 20
89.999999
 11
929.99994
 21
137.99999
  0
LINE
  8
0-d
  6
CONTINUOUS
 62
    7
 10
951.00001
 20
89.999999
 11
951.00001
 21
137.99999
  0
LINE
  8
0-8
  6
CONTINUOUS
 62
    7
 10
904.09113
 20
1240.148
 11
1116.8421
 21
1240.148
  0
LINE
  8
0-8
  6
CONTINUOUS
 62
    7
 10
904.09113
 20
1450.148
 11
1116.8421
 21
1450.148
  0
LINE
  8
0-8
  6
CONTINUOUS
 62
    7
 10
904.09113
 20
1510.1478
 11
1116.8421
 21
1510.1478
  0
LINE
  8
0-2
  6
CONTINUOUS
 62
    3
 10
357.19239
 20
386.73893
 11
357.19239
 21
886.73875
  0
LINE
  8
0-2
  6
CONTINUOUS
 62
    3
 10
357.19239
 20
886.73875
 11
857.19243
 21
886.73875
  0
LINE
  8
0-2
  6
CONTINUOUS
 62
    3
 10
857.19243
 20
886.73875
 11
857.19243
 21
386.73878
  0
LINE
  8
0-2
  6
CONTINUOUS
 62
    3
 10
857.19243
 20
386.73878
 11
357.19239
 21
386.73893
  0
LINE
  8
0-2
  6
CONTINUOUS
 62
    3
 10
1054.6922
 20
189.2389
 11
1054.6922
 21
1084.2387
  0
LINE
  8
0-2
  6
CONTINUOUS
 62
    3
 10
1054.6922
 20
1084.2387
 11
159.69258
 21
1084.2387
  0
LINE
  8
0-2
  6
CONTINUOUS
 62
    3
 10
159.69258
 20
1084.2387
 11
159.69258
 21
189.2389
  0
LINE
  8
0-2
  6
CONTINUOUS
 62
    3
 10
159.69258
 20
189.2389
 11
1054.6922
 21
189.2389
  0
LINE
  8
0-8
  6
CONTINUOUS
 62
    7
 10
97.542781
 20
189.2389
 11
97.542781
 21
1084.2387
  0
LINE
  8
0-8
  6
CONTINUOUS
 62
    7
 10
1117.4327
 20
386.73893
 11
1117.4327
 21
886.73875
  0
LINE
  8
0-2
  6
CONTINUOUS
 62
    3
 10
357.19239
 20
886.73875
 11
426.13531
 21
817.79553
  0
LINE
  8
0-2
  6
CONTINUOUS
 62
    3
 10
857.19243
 20
886.73875
 11
788.24951
 21
817.79553
  0
LINE
  8
0-2
  6
CONTINUOUS
 62
    3
 10
357.19239
 20
386.73893
 11
426.13531
 21
455.68156
  0
LINE
  8
0-2
  6
CONTINUOUS
 62
    3
 10
857.19243
 20
386.73878
 11
788.24951
 21
455.68148
  0
LINE
  8
0-2
  6
CONTINUOUS
 62
    3
 10
809.69245
 20
1450.148
 11
404.6923
 21
1450.148
  0
LINE
  8
0-2
  6
CONTINUOUS
 62
    3
 10
809.69245
 20
1510.1478
 11
404.6923
 21
1510.1478
  0
LINE
  8
0-8
  6
CONTINUOUS
 62
    7
 10
809.69245
 20
1573.7938
 11
404.6923
 21
1573.7938
  0
LINE
  8
0-2
  6
CONTINUOUS
 62
    3
 10
809.69245
 20
1497.1478
 11
404.6923
 21
1497.1478
  0
LINE
  8
0-2
  6
CONTINUOUS
 62
    3
 10
809.69245
 20
1510.1478
 11
809.69245
 21
1497.1478
  0
LINE
  8
0-2
  6
CONTINUOUS
 62
    3
 10
809.69245
 20
1484.1476
 11
809.69245
 21
1450.148
  0
LINE
  8
0-2
  6
CONTINUOUS
 62
    3
 10
809.69245
 20
1484.1476
 11
404.6923
 21
1484.1476
  0
LINE
  8
0-2
  6
CONTINUOUS
 62
    3
 10
404.6923
 20
1484.1476
 11
404.6923
 21
1450.148
  0
LINE
  8
0-2
  6
CONTINUOUS
 62
    3
 10
404.69215
 20
1510.1478
 11
404.69215
 21
1497.1478
  0
LINE
  8
0-d
  6
CONTINUOUS
 62
    7
 10
116.81814
 20
1223.61
 11
207.5586
 21
1250.831
  0
LINE
  8
0-d
  6
CONTINUOUS
 62
    7
 10
207.5586
 20
1223.61
 11
207.5586
 21
1250.831
  0
LINE
  8
0-8
  6
CONTINUOUS
 62
    7
 10
416.07725
 20
569.79699
 11
798.30771
 21
703.68024
  0
LINE
  8
0-8
  6
CONTINUOUS
 62
    7
 10
809.69245
 20
1530.6086
 11
809.69245
 21
1573.7938
  0
LINE
  8
0-8
  6
CONTINUOUS
 62
    7
 10
404.6923
 20
1530.6086
 11
404.6923
 21
1573.7938
  0
LINE
  8
0-1
  6
CENTER2
 62
    7
 10
1054.6922
 20
636.73877
 11
159.69258
 21
636.73877
  0
LINE
  8
0-8
  6
CONTINUOUS
 62
    7
 10
1117.4327
 20
886.73875
 11
1117.4327
 21
1084.2387
  0
LINE
  8
0-8
  6
CONTINUOUS
 62
    7
 10
1117.4327
 20
189.2389
 11
1117.4327
 21
386.73893
  0
LINE
  8
0-8
  6
CONTINUOUS
 62
    7
 10
357.19254
 20
1155.1351
 11
857.1928
 21
1155.1351
  0
LINE
  8
0-1
  6
CENTER2
 62
    7
 10
607.19237
 20
1610.1244
 11
607.19237
 21
189.23886
  0
LINE
  8
1-d
  6
CONTINUOUS
 62
    3
 10
312.42214
 20
1582.2444
 11
205.56696
 21
1582.2444
  0
LINE
  8
1-d
  6
CONTINUOUS
 62
    3
 10
312.42214
 20
1462.2444
 11
205.56696
 21
1462.2444
  0
LINE
  8
1-d
  6
CONTINUOUS
 62
    3
 10
312.42214
 20
1522.2443
 11
205.56696
 21
1522.2443
  0
LINE
  8
1-d
  6
CONTINUOUS
 62
    3
 10
205.56696
 20
1582.2444
 11
205.56696
 21
1522.2443
  0
LINE
  8
1-d
  6
CONTINUOUS
 62
    3
 10
205.56696
 20
1462.2444
 11
205.56696
 21
1323.2564
  0
LINE
  8
1-d
  6
CONTINUOUS
 62
    7
 10
120.44504
 20
1462.2444
 11
120.44504
 21
1522.2443
  0
LINE
  8
1-d
  6
CONTINUOUS
 62
    7
 10
180.21155
 20
1462.2444
 11
120.44504
 21
1462.2444
  0
LINE
  8
1-d
  6
CONTINUOUS
 62
    7
 10
180.21155
 20
1522.2443
 11
120.44504
 21
1522.2443
  0
LINE
  8
1-d
  6
CONTINUOUS
 62
    7
 10
120.44504
 20
1522.2443
 11
120.44504
 21
1582.2444
  0
LINE
  8
1-d
  6
CONTINUOUS
 62
    7
 10
180.21155
 20
1582.2444
 11
120.44504
 21
1582.2444
  0
LINE
  8
0-d
  6
CONTINUOUS
 62
    7
 10
116.81814
 20
1223.61
 11
207.5586
 21
1223.61
  0
LINE
  8
0-8
  6
CONTINUOUS
 62
    7
 10
1070.977
 20
1084.2387
 11
1117.4327
 21
1084.2387
  0
LINE
  8
0-8
  6
CONTINUOUS
 62
    7
 10
1070.4481
 20
886.73875
 11
1117.4327
 21
886.73875
  0
LINE
  8
0-8
  6
CONTINUOUS
 62
    7
 10
1069.9194
 20
386.73893
 11
1117.4327
 21
386.73893
  0
LINE
  8
0-8
  6
CONTINUOUS
 62
    7
 10
1070.4481
 20
189.2389
 11
1117.4327
 21
189.2389
  0
LINE
  8
0-8
  6
CONTINUOUS
 62
    7
 10
145.33071
 20
1084.2387
 11
97.542781
 21
1084.2387
  0
LINE
  8
0-8
  6
CONTINUOUS
 62
    7
 10
142.02575
 20
189.2389
 11
97.542781
 21
189.2389
  0
LINE
  8
0-2
  6
CONTINUOUS
 62
    3
 10
809.69245
 20
1450.148
 11
857.19235
 21
1240.148
  0
LINE
  8
0-2
  6
CONTINUOUS
 62
    3
 10
159.69258
 20
1179.7663
 11
607.19237
 21
1316.5806
  0
LINE
  8
0-2
  6
CONTINUOUS
 62
    3
 10
1054.6921
 20
1179.7663
 11
607.19237
 21
1316.5806
  0
LINE
  8
0-8
  6
CONTINUOUS
 62
    7
 10
1116.8421
 20
1240.148
 11
1116.8421
 21
1510.1478
  0
LINE
  8
0-2
  6
CONTINUOUS
 62
    3
 10
404.6923
 20
1450.148
 11
357.19254
 21
1240.148
  0
LINE
  8
0-8
  6
CONTINUOUS
 62
    7
 10
357.19254
 20
1211.4922
 11
357.19254
 21
1155.1351
  0
LINE
  8
0-8
  6
CONTINUOUS
 62
    7
 10
857.1928
 20
1211.4922
 11
857.1928
 21
1155.1351
  0
ARC
  8
0-2
  6
CONTINUOUS
 62
    3
 10
404.69215
 20
1490.6477
 40
6.4996993
 50
270
 51
90
  0
ARC
  8
0-2
  6
CONTINUOUS
 62
    3
 10
809.69259
 20
1490.6477
 40
6.4996993
 50
90
 51
270
  0
CIRCLE
  8
0-2
  6
CONTINUOUS
 62
    3
 10
607.19237
 20
636.73891
 40
202.49997
  0
ARC
  8
1-d
  6
CONTINUOUS
 62
    3
 10
205.56696
 20
1492.2444
 40
29.999952
 50
270
 51
90
  0
CIRCLE
  8
0-4
  6
DASHED1
 62
    3
 10
404.69215
 20
1497.1474
 40
35
  0
TEXT
  8
0-d
 10
152.99999
 20
70.49999
 40
15
 41
1
 50
0
  1
図
  0
TEXT
  8
0-d
 10
152.99998
 20
34.500002
 40
15
 41
1
 50
0
  1
番
  0
TEXT
  8
0-d
 10
392.99995
 20
70.49999
 40
15
 41
1
 50
0
  1
承
  0
TEXT
  8
0-d
 10
392.99995
 20
34.500002
 40
15
 41
1
 50
0
  1
認
  0
TEXT
  8
0-d
 10
611.99997
 20
118.5
 40
15
 41
1
 50
0
  1
尺
  0
TEXT
  8
0-d
 10
611.99997
 20
94.500004
 40
15
 41
1
 50
0
  1
度
  0
TEXT
  8
0-d
 10
512.99998
 20
70.49999
 40
15
 41
1
 50
0
  1
製
  0
TEXT
  8
0-d
 10
512.99998
 20
34.500002
 40
15
 41
1
 50
0
  1
図
  0
TEXT
  8
0-d
 10
932.99995
 20
118.5
 40
15
 41
1
 50
0
  1
日
  0
TEXT
  8
0-d
 10
932.99995
 20
94.500004
 40
15
 41
1
 50
0
  1
付
  0
TEXT
  8
0-d
 10
666.85571
 20
74.089355
 40
12
 41
1
 50
0
  1
株式
  0
TEXT
  8
0-d
 10
666.85571
 20
61.111115
 40
12
 41
1
 50
0
  1
会社
  0
TEXT
  8
0-d
 10
704.53451
 20
61.948414
 40
24
 41
1
 50
0
  1
スズキベンチレーター
  0
TEXT
  8
0-d
 10
214.78126
 20
1236.0166
 40
18
 41
1
 50
0
  1
3
  0
TEXT
  8
0-d
 10
156.6001
 20
1204.4608
 40
18
 41
1
 50
0.0004425
  1
10
  0
TEXT
  8
0-8
 10
586.6924
 20
1586.7938
 40
18
 41
1
 50
0
  1
405φ
  0
TEXT
  8
0-8
 10
1154.342
 20
1471.2728
 40
18
 41
1
 50
90
  1
60
  0
TEXT
  8
0-8
 10
1154.342
 20
1342.7733
 40
18
 41
1
 50
90
  1
210
  0
TEXT
  8
0-8
 10
1147.6054
 20
627.89603
 40
18
 41
1
 50
90
  1
500
  0
TEXT
  8
0-8
 10
575.52554
 20
639.42106
 40
18
 41
1
 50
19.303787
  1
405φ
  0
TEXT
  8
0-8
 10
1141.4327
 20
972.73876
 40
18
 41
1
 50
90
  1
197.5
  0
TEXT
  8
0-8
 10
1141.4327
 20
275.23899
 40
18
 41
1
 50
90
  1
198
  0
TEXT
  8
0-8
 10
594.44267
 20
1161.1351
 40
18
 41
1
 50
0
  1
500
  0
TEXT
  8
0-d
 10
148.94594
 20
1671.6486
 40
24
 41
1
 50
0
  1
ＳＴ－４０・ＳＦ－４０・ＤＳ－４００・ＡＳ－４００　直付型　(1/6)
  0
TEXT
  8
1-d
 10
144.44504
 20
1483.9944
 40
18
 41
1
 50
90
  1
10
  0
TEXT
  8
1-d
 10
144.44504
 20
1543.9943
 40
18
 41
1
 50
90
  1
10
  0
TEXT
  8
0-d
 10
650.6093
 20
102.06045
 40
24
 41
1
 50
0
  1
１／６　　１／１
  0
TEXT
  8
0-d
 10
742.7506
 20
32.414594
 40
12
 41
1
 50
0
  1
TEL(054)296-7000  FAX(054)296-7001
  0
TEXT
  8
0-d
 10
186.26827
 20
66.881888
 40
18
 41
1
 50
0
  1
40-B17
  0
TEXT
  8
0-8
 10
84.542763
 20
619.11402
 40
18
 41
1
 50
90
  1
≒ 895
  0
TEXT
  8
0-d
 10
741.40759
 20
47.187642
 40
12
 41
1
 50
0
  1
〒421-2114　静岡市葵区安倍口新田１５２番地
  0
POINT
  8
0-8
 62
    2
 10
1116.8421
 20
1240.148
  0
POINT
  8
0-8
 62
    2
 10
1116.8421
 20
1450.148
  0
POINT
  8
0-8
 62
    2
 10
1116.8421
 20
1510.1478
  0
POINT
  8
0-8
 62
    2
 10
97.542781
 20
189.2389
  0
POINT
  8
0-8
 62
    2
 10
97.542781
 20
1084.2387
  0
POINT
  8
0-8
 62
    2
 10
1117.4327
 20
386.73893
  0
POINT
  8
0-8
 62
    2
 10
1117.4327
 20
886.73875
  0
POINT
  8
0-8
 62
    2
 10
416.07725
 20
569.79699
  0
POINT
  8
0-8
 62
    2
 10
798.30771
 20
703.68024
  0
POINT
  8
0-8
 62
    2
 10
809.69245
 20
1573.7938
  0
POINT
  8
0-8
 62
    2
 10
404.6923
 20
1573.7938
  0
POINT
  8
0-8
 62
    2
 10
1117.4327
 20
1084.2387
  0
POINT
  8
0-8
 62
    2
 10
1117.4327
 20
189.2389
  0
POINT
  8
0-8
 62
    2
 10
357.19254
 20
1155.1351
  0
POINT
  8
0-8
 62
    2
 10
857.1928
 20
1155.1351
  0
POINT
  8
1-d
 62
    2
 10
120.44504
 20
1462.2444
  0
POINT
  8
1-d
 62
    2
 10
120.44504
 20
1522.2443
  0
POINT
  8
1-d
 62
    2
 10
120.44504
 20
1582.2444
  0
ENDSEC
  0
EOF
