  0
SECTION
  2
HEADER
  9
$EXTMIN
 10
0
 20
0
  9
$EXTMAX
 10
8400
 20
5940
  0
ENDSEC
  0
SECTION
  2
TABLES
  0
TABLE
  2
LTYPE
 70
     9
  0
LTYPE
  2
CONTINUOUS
 70
    64
  3
実線
 72
    65
 73
     0
 40
0.0
  0
LTYPE
  2
DASHED1
 70
    64
  3
--  --  --  --  --  --  --  --  
 72
    65
 73
     2
 40
2.5
 49
1.25
 49
-1.25
  0
LTYPE
  2
DASHED2
 70
    64
  3
----    ----    ----    ----    
 72
    65
 73
     2
 40
5.0
 49
2.5
 49
-2.5
  0
LTYPE
  2
DASHED3
 70
    64
  3
------  ------  ------  ------  
 72
    65
 73
     2
 40
5.0
 49
3.75
 49
-1.25
  0
LTYPE
  2
CENTER1
 70
    64
  3
----- - ----- - ----- - ----- - 
 72
    65
 73
     4
 40
10.0
 49
6.25
 49
-1.25
 49
1.25
 49
-1.25
  0
LTYPE
  2
CENTER2
 70
    64
  3
----------  --  ----------  --  
 72
    65
 73
     4
 40
20.0
 49
12.5
 49
-2.5
 49
2.5
 49
-2.5
  0
LTYPE
  2
PHANTOM1
 70
    64
  3
--- - - --- - - --- - - --- - - 
 72
    65
 73
     6
 40
10.0
 49
3.25
 49
-1.25
 49
1.25
 49
-1.25
 49
1.25
 49
-1.25
  0
LTYPE
  2
PHANTOM2
 70
    64
  3
--------  -  -  --------  -  -  
 72
    65
 73
     6
 40
20.0
 49
10.0
 49
-2.5
 49
1.25
 49
-2.5
 49
1.25
 49
-2.5
  0
LTYPE
  2
DOT
 70
    64
  3
-   -   -   -   -   -   -   -   
 72
    65
 73
     2
 40
2.5
 49
0.625
 49
-1.875
  0
ENDTAB
  0
TABLE
  2
STYLE
 70
    1
  0
STYLE
  2
STANDARD
 70
    64
 40
0.0
 41
1.0
 42
0.0
 50
0.0
 71
     0
  3
TXT
  4
BIGFONT
  0
ENDTAB
  0
TABLE
  2
LAYER
 70
    5
  0
LAYER
  2
0-1
 70
   64
 62
    7
  6
CONTINUOUS
  0
LAYER
  2
0-2
 70
   64
 62
    7
  6
CONTINUOUS
  0
LAYER
  2
0-8
 70
   64
 62
    7
  6
CONTINUOUS
  0
LAYER
  2
0-d
 70
   64
 62
    7
  6
CONTINUOUS
  0
LAYER
  2
ADD_LINE
 70
   64
 62
    7
  6
CONTINUOUS
  0
ENDTAB
  0
ENDSEC
  0
SECTION
  2
ENTITIES
  0
LINE
  8
0-d
  6
CONTINUOUS
 62
    7
 10
500.00006
 20
5515.4027
 11
3700.0002
 21
5515.4027
  0
LINE
  8
0-d
  6
CONTINUOUS
 62
    7
 10
500.00006
 20
5535.4028
 11
3700.0002
 21
5535.4028
  0
LINE
  8
0-d
  6
CONTINUOUS
 62
    7
 10
499.99981
 20
375.13524
 11
3700
 21
375.13524
  0
LINE
  8
0-d
  6
CONTINUOUS
 62
    7
 10
499.99981
 20
175.13519
 11
499.99981
 21
535.13516
  0
LINE
  8
0-d
  6
CONTINUOUS
 62
    7
 10
499.99981
 20
175.13519
 11
3700
 21
175.13519
  0
LINE
  8
0-d
  6
CONTINUOUS
 62
    7
 10
2100.0001
 20
535.13516
 11
2100.0001
 21
175.13519
  0
LINE
  8
0-d
  6
CONTINUOUS
 62
    7
 10
1300
 20
175.13519
 11
1300
 21
375.13524
  0
LINE
  8
0-d
  6
CONTINUOUS
 62
    7
 10
2100.0001
 20
375.13524
 11
2100.0001
 21
535.13516
  0
LINE
  8
0-d
  6
CONTINUOUS
 62
    7
 10
1700
 20
175.13519
 11
1700
 21
375.13524
  0
LINE
  8
0-d
  6
CONTINUOUS
 62
    7
 10
569.99968
 20
175.13519
 11
569.99968
 21
375.13524
  0
LINE
  8
0-d
  6
CONTINUOUS
 62
    7
 10
1369.9996
 20
175.13519
 11
1369.9996
 21
375.13524
  0
LINE
  8
0-d
  6
CONTINUOUS
 62
    7
 10
1769.9996
 20
175.13519
 11
1769.9996
 21
375.13524
  0
LINE
  8
0-d
  6
CONTINUOUS
 62
    7
 10
2029.9999
 20
375.13524
 11
2029.9999
 21
535.13516
  0
LINE
  8
0-d
  6
CONTINUOUS
 62
    7
 10
3099.9999
 20
375.13524
 11
3099.9999
 21
535.13516
  0
LINE
  8
0-d
  6
CONTINUOUS
 62
    7
 10
3169.9997
 20
375.13524
 11
3169.9997
 21
535.13516
  0
LINE
  8
0-d
  6
CONTINUOUS
 62
    7
 10
499.99981
 20
535.13516
 11
3700
 21
535.13516
  0
LINE
  8
0-d
  6
CONTINUOUS
 62
    7
 10
3700
 20
535.13516
 11
3700
 21
175.13519
  0
LINE
  8
0-2
  6
CONTINUOUS
 62
    3
 10
1240.0001
 20
3384.8653
 11
1476.6561
 21
3621.5212
  0
LINE
  8
0-2
  6
CONTINUOUS
 62
    3
 10
2960
 20
3384.8653
 11
2723.3441
 21
3621.5212
  0
LINE
  8
0-2
  6
CONTINUOUS
 62
    3
 10
2960
 20
5104.8649
 11
2723.3441
 21
4868.209
  0
LINE
  8
0-2
  6
CONTINUOUS
 62
    3
 10
1240.0001
 20
5104.8649
 11
1476.6561
 21
4868.209
  0
LINE
  8
0-2
  6
CONTINUOUS
 62
    3
 10
2960
 20
3384.8653
 11
2293.689
 21
3384.8653
  0
LINE
  8
0-2
  6
CONTINUOUS
 62
    3
 10
1906.3111
 20
3384.8653
 11
1240.0001
 21
3384.8653
  0
LINE
  8
0-2
  6
CONTINUOUS
 62
    3
 10
1240.0001
 20
3384.8653
 11
1240.0001
 21
4051.1762
  0
LINE
  8
0-2
  6
CONTINUOUS
 62
    3
 10
1240.0001
 20
4438.5549
 11
1240.0001
 21
5104.8649
  0
LINE
  8
0-2
  6
CONTINUOUS
 62
    3
 10
1240.0001
 20
5104.8649
 11
1906.3111
 21
5104.8649
  0
LINE
  8
0-2
  6
CONTINUOUS
 62
    3
 10
2293.689
 20
5104.8649
 11
2960
 21
5104.8649
  0
LINE
  8
0-2
  6
CONTINUOUS
 62
    3
 10
2960
 20
5104.8649
 11
2960
 21
4438.5549
  0
LINE
  8
0-2
  6
CONTINUOUS
 62
    3
 10
2960
 20
4051.1762
 11
2960
 21
3384.8653
  0
LINE
  8
0-1
  6
CENTER2
 62
    7
 10
1100.0002
 20
4244.8655
 11
3099.9999
 21
4244.8655
  0
LINE
  8
0-1
  6
CENTER2
 62
    7
 10
1100.0002
 20
1843.024
 11
3099.9999
 21
1843.024
  0
LINE
  8
0-2
  6
CONTINUOUS
 62
    3
 10
2960
 20
2703.0233
 11
2960
 21
983.02402
  0
LINE
  8
0-2
  6
CONTINUOUS
 62
    3
 10
2960
 20
983.02402
 11
1240.0001
 21
983.02402
  0
LINE
  8
0-2
  6
CONTINUOUS
 62
    3
 10
1240.0001
 20
983.02402
 11
1240.0001
 21
2703.0233
  0
LINE
  8
0-2
  6
CONTINUOUS
 62
    3
 10
1240.0001
 20
2703.0233
 11
2960
 21
2703.0233
  0
LINE
  8
0-8
  6
CONTINUOUS
 62
    7
 10
1100.0002
 20
5366.487
 11
3099.9999
 21
5366.487
  0
LINE
  8
0-8
  6
CONTINUOUS
 62
    7
 10
681.08111
 20
3244.8653
 11
681.08111
 21
5244.8653
  0
LINE
  8
0-8
  6
CONTINUOUS
 62
    7
 10
3389.1893
 20
3384.8653
 11
3389.1893
 21
5104.8649
  0
LINE
  8
0-8
  6
CONTINUOUS
 62
    7
 10
3048.6488
 20
3384.8653
 11
3389.1893
 21
3384.8653
  0
LINE
  8
0-8
  6
CONTINUOUS
 62
    7
 10
3048.6488
 20
5104.8649
 11
3389.1893
 21
5104.8649
  0
LINE
  8
0-8
  6
CONTINUOUS
 62
    7
 10
1240.0001
 20
3082.7029
 11
2960
 21
3082.7029
  0
LINE
  8
0-8
  6
CONTINUOUS
 62
    7
 10
1240.0001
 20
3309.7299
 11
1240.0001
 21
3082.7029
  0
LINE
  8
0-8
  6
CONTINUOUS
 62
    7
 10
2960
 20
3309.7299
 11
2960
 21
3082.7029
  0
LINE
  8
0-8
  6
CONTINUOUS
 62
    7
 10
1100.0002
 20
2914.6455
 11
3099.9999
 21
2914.6455
  0
LINE
  8
0-8
  6
CONTINUOUS
 62
    7
 10
681.08111
 20
843.02405
 11
681.08111
 21
2843.024
  0
LINE
  8
0-8
  6
CONTINUOUS
 62
    7
 10
3389.1893
 20
983.02415
 11
3389.1893
 21
2703.0236
  0
LINE
  8
0-8
  6
CONTINUOUS
 62
    7
 10
3048.6488
 20
983.02415
 11
3389.1893
 21
983.02415
  0
LINE
  8
0-8
  6
CONTINUOUS
 62
    7
 10
3048.6488
 20
2703.0236
 11
3389.1893
 21
2703.0236
  0
LINE
  8
0-8
  6
CONTINUOUS
 62
    7
 10
1240.0001
 20
680.86163
 11
2960
 21
680.86163
  0
LINE
  8
0-8
  6
CONTINUOUS
 62
    7
 10
1240.0001
 20
907.88867
 11
1240.0001
 21
680.86163
  0
LINE
  8
0-8
  6
CONTINUOUS
 62
    7
 10
2960
 20
907.88867
 11
2960
 21
680.86163
  0
LINE
  8
0-8
  6
CONTINUOUS
 62
    7
 10
1446.1512
 20
1465.5239
 11
2753.8489
 21
2220.5238
  0
LINE
  8
0-1
  6
CENTER2
 62
    7
 10
2100.0001
 20
535.13516
 11
2100.0001
 21
5244.8653
  0
LINE
  8
0-8
  6
CONTINUOUS
 62
    7
 10
1589.7064
 20
3244.8653
 11
681.08111
 21
3244.8653
  0
LINE
  8
0-8
  6
CONTINUOUS
 62
    7
 10
1589.705
 20
5244.8653
 11
681.08111
 21
5244.8653
  0
LINE
  8
0-8
  6
CONTINUOUS
 62
    7
 10
1100.0002
 20
4755.1596
 11
1100.0002
 21
5366.487
  0
LINE
  8
0-8
  6
CONTINUOUS
 62
    7
 10
3099.9999
 20
4755.1596
 11
3099.9999
 21
5366.487
  0
LINE
  8
0-8
  6
CONTINUOUS
 62
    7
 10
1589.7053
 20
2843.024
 11
681.08111
 21
2843.024
  0
LINE
  8
0-8
  6
CONTINUOUS
 62
    7
 10
1589.7059
 20
843.02405
 11
681.08111
 21
843.02405
  0
LINE
  8
0-8
  6
CONTINUOUS
 62
    7
 10
1100.0002
 20
2353.3181
 11
1100.0002
 21
2914.6455
  0
LINE
  8
0-8
  6
CONTINUOUS
 62
    7
 10
3099.9999
 20
2353.3181
 11
3099.9999
 21
2914.6455
  0
CIRCLE
  8
0-2
  6
CONTINUOUS
 62
    3
 10
2100.0001
 20
4244.8655
 40
1000
  0
CIRCLE
  8
0-2
  6
CONTINUOUS
 62
    3
 10
2100.0001
 20
4244.8655
 40
881.54146
  0
ARC
  8
0-2
  6
CONTINUOUS
 62
    3
 10
2100.0001
 20
1843.024
 40
1000
 50
149.31657
 51
210.68342
  0
ARC
  8
0-2
  6
CONTINUOUS
 62
    3
 10
2100.0001
 20
1843.024
 40
881.54146
 50
167.30761
 51
192.69238
  0
ARC
  8
0-2
  6
CONTINUOUS
 62
    3
 10
2100.0001
 20
1843.024
 40
881.54146
 50
257.30761
 51
282.69236
  0
ARC
  8
0-2
  6
CONTINUOUS
 62
    3
 10
2100.0001
 20
1843.024
 40
1000
 50
239.31657
 51
300.68342
  0
ARC
  8
0-2
  6
CONTINUOUS
 62
    3
 10
2100.0001
 20
1843.024
 40
1000
 50
329.31657
 51
30.683425
  0
ARC
  8
0-2
  6
CONTINUOUS
 62
    3
 10
2100.0001
 20
1843.024
 40
881.54146
 50
347.30761
 51
12.692382
  0
ARC
  8
0-2
  6
CONTINUOUS
 62
    3
 10
2100.0001
 20
1843.024
 40
1000
 50
59.316543
 51
120.68347
  0
ARC
  8
0-2
  6
CONTINUOUS
 62
    3
 10
2100.0001
 20
1843.024
 40
881.54146
 50
77.307632
 51
102.69238
  0
CIRCLE
  8
0-2
  6
CONTINUOUS
 62
    3
 10
2100.0001
 20
1843.024
 40
754.99999
  0
TEXT
  8
0-d
 10
509.99972
 20
310.13515
 40
50
 41
1
 50
0
  1
図
  0
TEXT
  8
0-d
 10
509.99972
 20
190.13521
 40
50
 41
1
 50
0
  1
番
  0
TEXT
  8
0-d
 10
1309.9998
 20
310.13515
 40
50
 41
1
 50
0
  1
承
  0
TEXT
  8
0-d
 10
1309.9998
 20
190.13521
 40
50
 41
1
 50
0
  1
認
  0
TEXT
  8
0-d
 10
2039.9997
 20
470.13525
 40
50
 41
1
 50
0
  1
尺
  0
TEXT
  8
0-d
 10
2039.9997
 20
390.13529
 40
50
 41
1
 50
359.99986
  1
度
  0
TEXT
  8
0-d
 10
1709.9997
 20
310.13515
 40
50
 41
1
 50
0
  1
製
  0
TEXT
  8
0-d
 10
1709.9997
 20
190.13521
 40
50
 41
1
 50
0
  1
図
  0
TEXT
  8
0-d
 10
3110
 20
470.13525
 40
50
 41
1
 50
0
  1
日
  0
TEXT
  8
0-d
 10
3110
 20
390.13529
 40
50
 41
1
 50
359.99986
  1
付
  0
TEXT
  8
0-d
 10
2222.852
 20
322.09976
 40
40
 41
1
 50
0
  1
株式
  0
TEXT
  8
0-d
 10
2222.852
 20
278.83889
 40
40
 41
1
 50
0.0000152
  1
会社
  0
TEXT
  8
0-d
 10
2348.4485
 20
281.62989
 40
80
 41
1
 50
0
  1
スズキベンチレーター
  0
TEXT
  8
0-d
 10
2475.8354
 20
183.18397
 40
40
 41
1
 50
0
  1
TEL(054)296-7000  FAX(054)296-7001
  0
TEXT
  8
0-d
 10
2168.6978
 20
415.33667
 40
80
 41
1
 50
0
  1
１／２０
  0
TEXT
  8
0-d
 10
596.6753
 20
287.90676
 40
60
 41
1
 50
0
  1
150-i01
  0
TEXT
  8
0-8
 10
2027.5002
 20
5386.487
 40
60
 41
1
 50
0
  1
2,000
  0
TEXT
  8
0-8
 10
661.08104
 20
4172.3656
 40
60
 41
1
 50
90
  1
2,000
  0
TEXT
  8
0-8
 10
3369.1892
 20
4172.3656
 40
60
 41
1
 50
90
  1
1,720
  0
TEXT
  8
0-8
 10
2027.5002
 20
3102.703
 40
60
 41
1
 50
0
  1
1,720
  0
TEXT
  8
0-8
 10
2027.5002
 20
2934.6456
 40
60
 41
1
 50
0
  1
2,000
  0
TEXT
  8
0-8
 10
661.08104
 20
1770.5241
 40
60
 41
1
 50
90
  1
2,000
  0
TEXT
  8
0-8
 10
3369.1892
 20
1770.5239
 40
60
 41
1
 50
90
  1
1,720
  0
TEXT
  8
0-8
 10
2027.5002
 20
700.8617
 40
60
 41
1
 50
0
  1
1,720
  0
TEXT
  8
0-8
 10
2027.2132
 20
1824.0944
 40
60
 41
1
 50
29.999923
  1
1,510φ
  0
TEXT
  8
0-d
 10
510.00006
 20
5545.4028
 40
100
 41
1
 50
0
  1
ＤＳ－１５００自然換気架台型
  0
TEXT
  8
0-d
 10
562.32181
 20
415.28022
 40
60
 41
1
 50
0
  1
ＤＳ－１５００自然換気架台型
  0
TEXT
  8
0-d
 10
2471.3583
 20
232.42738
 40
40
 41
1
 50
0
  1
〒421-2114　静岡市葵区安倍口新田１５２番地
  0
POINT
  8
0-8
 62
    2
 10
1100.0002
 20
5366.487
  0
POINT
  8
0-8
 62
    2
 10
3099.9999
 20
5366.487
  0
POINT
  8
0-8
 62
    2
 10
681.08111
 20
3244.8653
  0
POINT
  8
0-8
 62
    2
 10
681.08111
 20
5244.8653
  0
POINT
  8
0-8
 62
    2
 10
3389.1893
 20
3384.8653
  0
POINT
  8
0-8
 62
    2
 10
3389.1893
 20
5104.8649
  0
POINT
  8
0-8
 62
    2
 10
1240.0001
 20
3082.7029
  0
POINT
  8
0-8
 62
    2
 10
2960
 20
3082.7029
  0
POINT
  8
0-8
 62
    2
 10
1100.0002
 20
2914.6455
  0
POINT
  8
0-8
 62
    2
 10
3099.9999
 20
2914.6455
  0
POINT
  8
0-8
 62
    2
 10
681.08111
 20
843.02405
  0
POINT
  8
0-8
 62
    2
 10
681.08111
 20
2843.024
  0
POINT
  8
0-8
 62
    2
 10
3389.1893
 20
983.02415
  0
POINT
  8
0-8
 62
    2
 10
3389.1893
 20
2703.0236
  0
POINT
  8
0-8
 62
    2
 10
1240.0001
 20
680.86163
  0
POINT
  8
0-8
 62
    2
 10
2960
 20
680.86163
  0
POINT
  8
0-2
 62
    2
 10
1446.1512
 20
1465.5239
  0
POINT
  8
0-2
 62
    2
 10
2753.8489
 20
2220.5238
  0
ENDSEC
  0
EOF
