  0
SECTION
  2
HEADER
  9
$ACADVER
  1
AC1009
  9
$INSBASE
 10
0
 20
0
 30
0
  9
$EXTMIN
 10
0
 20
0
  9
$EXTMAX
 10
4200
 20
2970
  9
$LIMMIN
 10
0
 20
0
  9
$LIMMAX
 10
4200
 20
2970
  9
$LTSCALE
 40
10
  0
ENDSEC
  0
SECTION
  2
TABLES
  0
TABLE
  2
LTYPE
 70
     9
  0
LTYPE
  2
CONTINUOUS
 70
    64
  3
実線
 72
    65
 73
     0
 40
0.0
  0
LTYPE
  2
DASHED1
 70
    64
  3
--  --  --  --  --  --  --  --  
 72
    65
 73
     2
 40
2.5
 49
1.25
 49
-1.25
  0
LTYPE
  2
DASHED2
 70
    64
  3
----    ----    ----    ----    
 72
    65
 73
     2
 40
5.0
 49
2.5
 49
-2.5
  0
LTYPE
  2
DASHED3
 70
    64
  3
------  ------  ------  ------  
 72
    65
 73
     2
 40
5.0
 49
3.75
 49
-1.25
  0
LTYPE
  2
CENTER1
 70
    64
  3
----- - ----- - ----- - ----- - 
 72
    65
 73
     4
 40
10.0
 49
6.25
 49
-1.25
 49
1.25
 49
-1.25
  0
LTYPE
  2
CENTER2
 70
    64
  3
----------  --  ----------  --  
 72
    65
 73
     4
 40
20.0
 49
12.5
 49
-2.5
 49
2.5
 49
-2.5
  0
LTYPE
  2
PHANTOM1
 70
    64
  3
--- - - --- - - --- - - --- - - 
 72
    65
 73
     6
 40
10.0
 49
3.25
 49
-1.25
 49
1.25
 49
-1.25
 49
1.25
 49
-1.25
  0
LTYPE
  2
PHANTOM2
 70
    64
  3
--------  -  -  --------  -  -  
 72
    65
 73
     6
 40
20.0
 49
10.0
 49
-2.5
 49
1.25
 49
-2.5
 49
1.25
 49
-2.5
  0
LTYPE
  2
DOT
 70
    64
  3
-   -   -   -   -   -   -   -   
 72
    65
 73
     2
 40
2.5
 49
0.625
 49
-1.875
  0
LTYPE
  2
DUMMY
 70
    64
  3
ダミー
 72
    65
 73
     0
 40
0.0
  0
LTYPE
  2
RAND1
 70
    64
  3
----- - ----- - ----- - ----- - 
 72
    65
 73
     4
 40
10.0
 49
6.25
 49
-1.25
 49
1.25
 49
-1.25
  0
LTYPE
  2
RAND2
 70
    64
  3
----------  --  ----------  --  
 72
    65
 73
     4
 40
20.0
 49
12.5
 49
-2.5
 49
2.5
 49
-2.5
  0
LTYPE
  2
RAND3
 70
    64
  3
--- - - --- - - --- - - --- - - 
 72
    65
 73
     6
 40
10.0
 49
3.25
 49
-1.25
 49
1.25
 49
-1.25
 49
1.25
 49
-1.25
  0
LTYPE
  2
RAND4
 70
    64
  3
--------  -  -  --------  -  -  
 72
    65
 73
     6
 40
20.0
 49
10.0
 49
-2.5
 49
1.25
 49
-2.5
 49
1.25
 49
-2.5
  0
LTYPE
  2
RAND5
 70
    64
  3
----- - ----- - ----- - ----- - 
 72
    65
 73
     4
 40
10.0
 49
6.25
 49
-1.25
 49
1.25
 49
-1.25
  0
LTYPE
  2
LONG1
 70
    64
  3
----------  --  ----------  --  
 72
    65
 73
     4
 40
20.0
 49
12.5
 49
-2.5
 49
2.5
 49
-2.5
  0
LTYPE
  2
LONG2
 70
    64
  3
--- - - --- - - --- - - --- - - 
 72
    65
 73
     6
 40
10.0
 49
3.25
 49
-1.25
 49
1.25
 49
-1.25
 49
1.25
 49
-1.25
  0
LTYPE
  2
LONG3
 70
    64
  3
--------  -  -  --------  -  -  
 72
    65
 73
     6
 40
20.0
 49
10.0
 49
-2.5
 49
1.25
 49
-2.5
 49
1.25
 49
-2.5
  0
LTYPE
  2
LONG4
 70
    64
  3
----- - ----- - ----- - ----- - 
 72
    65
 73
     4
 40
10.0
 49
6.25
 49
-1.25
 49
1.25
 49
-1.25
  0
LTYPE
  2
LONG5
 70
    64
  3
----------  --  ----------  --  
 72
    65
 73
     4
 40
20.0
 49
12.5
 49
-2.5
 49
2.5
 49
-2.5
  0
ENDTAB
  0
TABLE
  2
STYLE
  5
3
100
AcDbSymbolTable
 70
     1
  0
STYLE
  5
10
100
AcDbSymbolTableRecord
100
AcDbTextStyleTableRecord
  2
STANDARD
 70
     0
 40
0.0
 41
1.0
 50
0.0
 71
     0
 42
0.2
  3
txt
  4
bigfont.shx
  0
STYLE
  5
26
100
AcDbSymbolTableRecord
100
AcDbTextStyleTableRecord
  2
TATEGAKI
 70
    68
 40
0.0
 41
1.0
 50
0.0
 71
     0
 42
1.0
  3
txt
  4
bigfont.shx
  0
ENDTAB
  0
TABLE
  2
LAYER
 70
    5
  0
LAYER
  2
_1-1_1-1___
 70
   64
 62
    7
  6
CONTINUOUS
  0
LAYER
  2
_1-2_仕上
 70
   64
 62
    7
  6
CONTINUOUS
  0
LAYER
  2
_1-8_
 70
   64
 62
    7
  6
CONTINUOUS
  0
LAYER
  2
_1-d_
 70
   64
 62
    7
  6
CONTINUOUS
  0
LAYER
  2
ADD_LINE
 70
   64
 62
    7
  6
CONTINUOUS
  0
ENDTAB
  0
ENDSEC
  0
SECTION
  2
BLOCKS
  0
ENDSEC
  0
SECTION
  2
ENTITIES
  0
LINE
  8
_1-d_
  6
CONTINUOUS
 62
    7
 10
250.00005
 20
2757.7012
 11
1850
 21
2757.7012
  0
LINE
  8
_1-d_
  6
CONTINUOUS
 62
    7
 10
250.00005
 20
2767.7015
 11
1850
 21
2767.7015
  0
LINE
  8
_1-d_
  6
CONTINUOUS
 62
    7
 10
249.99968
 20
189.99988
 11
1850.0004
 21
189.99988
  0
LINE
  8
_1-d_
  6
CONTINUOUS
 62
    7
 10
249.99968
 20
89.999802
 11
249.99968
 21
269.9999
  0
LINE
  8
_1-d_
  6
CONTINUOUS
 62
    7
 10
249.99968
 20
89.999802
 11
1850.0004
 21
89.999802
  0
LINE
  8
_1-d_
  6
CONTINUOUS
 62
    7
 10
1850.0004
 20
269.9999
 11
1850.0004
 21
89.999802
  0
LINE
  8
_1-d_
  6
CONTINUOUS
 62
    7
 10
249.99968
 20
269.9999
 11
1850.0004
 21
269.9999
  0
LINE
  8
_1-d_
  6
CONTINUOUS
 62
    7
 10
1050
 20
269.9999
 11
1050
 21
89.999802
  0
LINE
  8
_1-d_
  6
CONTINUOUS
 62
    7
 10
650.00016
 20
89.999802
 11
650.00016
 21
189.99988
  0
LINE
  8
_1-d_
  6
CONTINUOUS
 62
    7
 10
1050
 20
189.99988
 11
1050
 21
269.9999
  0
LINE
  8
_1-d_
  6
CONTINUOUS
 62
    7
 10
849.99977
 20
89.999802
 11
849.99977
 21
189.99988
  0
LINE
  8
_1-d_
  6
CONTINUOUS
 62
    7
 10
285.00001
 20
89.999802
 11
285.00001
 21
189.99988
  0
LINE
  8
_1-d_
  6
CONTINUOUS
 62
    7
 10
685.00003
 20
89.999802
 11
685.00003
 21
189.99988
  0
LINE
  8
_1-d_
  6
CONTINUOUS
 62
    7
 10
885.00013
 20
89.999802
 11
885.00013
 21
189.99988
  0
LINE
  8
_1-d_
  6
CONTINUOUS
 62
    7
 10
1015
 20
189.99988
 11
1015
 21
269.9999
  0
LINE
  8
_1-d_
  6
CONTINUOUS
 62
    7
 10
1550.0004
 20
189.99988
 11
1550.0004
 21
269.9999
  0
LINE
  8
_1-d_
  6
CONTINUOUS
 62
    7
 10
1585.0001
 20
189.99988
 11
1585.0001
 21
269.9999
  0
LINE
  8
_1-2_仕上
  6
CONTINUOUS
 62
    3
 10
564.66843
 20
2389.6688
 11
1049.9998
 21
2501.0348
  0
LINE
  8
_1-8_
  6
CONTINUOUS
 62
    7
 10
325.51673
 20
1981.0346
 11
325.51673
 21
2501.0348
  0
LINE
  8
_1-8_
  6
CONTINUOUS
 62
    7
 10
583.3348
 20
1981.0346
 11
325.51673
 21
1981.0346
  0
LINE
  8
_1-8_
  6
CONTINUOUS
 62
    7
 10
583.3348
 20
2660.5286
 11
1516.6664
 21
2660.5286
  0
LINE
  8
_1-8_
  6
CONTINUOUS
 62
    7
 10
745.0001
 20
1859.8242
 11
1355.0001
 21
1859.8242
  0
LINE
  8
_1-2_仕上
  6
CONTINUOUS
 62
    3
 10
583.3348
 20
2394.3682
 11
583.3348
 21
2269.7016
  0
LINE
  8
_1-8_
  6
CONTINUOUS
 62
    7
 10
745.0001
 20
1936.7968
 11
745.0001
 21
1859.8242
  0
LINE
  8
_1-8_
  6
CONTINUOUS
 62
    7
 10
1355.0001
 20
1936.7968
 11
1355.0001
 21
1859.8242
  0
LINE
  8
_1-8_
  6
CONTINUOUS
 62
    7
 10
583.3348
 20
2448.0671
 11
583.3348
 21
2660.5286
  0
LINE
  8
_1-8_
  6
CONTINUOUS
 62
    7
 10
719.70284
 20
2501.0348
 11
325.51673
 21
2501.0348
  0
LINE
  8
_1-8_
  6
CONTINUOUS
 62
    7
 10
1516.6664
 20
2448.0671
 11
1516.6664
 21
2660.5286
  0
LINE
  8
_1-2_仕上
  6
CONTINUOUS
 62
    3
 10
583.3348
 20
2256.7021
 11
583.3348
 21
2217.7019
  0
LINE
  8
_1-2_仕上
  6
CONTINUOUS
 62
    3
 10
583.3348
 20
2204.7021
 11
583.3348
 21
2174.3682
  0
LINE
  8
_1-2_仕上
  6
CONTINUOUS
 62
    3
 10
745.0001
 20
2024.3687
 11
1355.0001
 21
2024.3687
  0
LINE
  8
_1-2_仕上
  6
CONTINUOUS
 62
    3
 10
745.0001
 20
2063.3687
 11
745.0001
 21
2024.3687
  0
LINE
  8
_1-2_仕上
  6
CONTINUOUS
 62
    3
 10
745.0001
 20
1981.0351
 11
1355.0001
 21
1981.0351
  0
LINE
  8
_1-2_仕上
  6
CONTINUOUS
 62
    3
 10
745.0001
 20
2011.3687
 11
1355.0001
 21
2011.3687
  0
LINE
  8
_1-2_仕上
  6
CONTINUOUS
 62
    3
 10
745.0001
 20
2174.3687
 11
745.0001
 21
2076.3687
  0
LINE
  8
_1-2_仕上
  6
CONTINUOUS
 62
    3
 10
745.0001
 20
2011.3687
 11
745.0001
 21
1981.0351
  0
LINE
  8
_1-2_仕上
  6
CONTINUOUS
 62
    3
 10
583.3348
 20
2394.3682
 11
1049.9998
 21
2394.3682
  0
LINE
  8
_1-2_仕上
  6
CONTINUOUS
 62
    3
 10
583.3348
 20
2174.3682
 11
1049.9998
 21
2174.3682
  0
LINE
  8
_1-2_仕上
  6
CONTINUOUS
 62
    3
 10
583.3348
 20
2204.7021
 11
1049.9998
 21
2204.7021
  0
LINE
  8
_1-2_仕上
  6
CONTINUOUS
 62
    3
 10
583.3348
 20
2217.7019
 11
1049.9998
 21
2217.7019
  0
LINE
  8
_1-2_仕上
  6
CONTINUOUS
 62
    3
 10
583.3348
 20
2256.7021
 11
1049.9998
 21
2256.7021
  0
LINE
  8
_1-2_仕上
  6
CONTINUOUS
 62
    3
 10
583.3348
 20
2269.7016
 11
1049.9998
 21
2269.7016
  0
LINE
  8
_1-2_仕上
  6
CONTINUOUS
 62
    3
 10
745.0001
 20
2063.3687
 11
1049.9998
 21
2063.3687
  0
LINE
  8
_1-2_仕上
  6
CONTINUOUS
 62
    3
 10
745.0001
 20
2076.3687
 11
1049.9998
 21
2076.3687
  0
LINE
  8
_1-2_仕上
  6
CONTINUOUS
 62
    3
 10
1535.3315
 20
2389.6688
 11
1050.0001
 21
2501.0348
  0
LINE
  8
_1-2_仕上
  6
CONTINUOUS
 62
    3
 10
1516.6651
 20
2394.3682
 11
1516.6651
 21
2269.7016
  0
LINE
  8
_1-2_仕上
  6
CONTINUOUS
 62
    3
 10
1516.6651
 20
2256.7021
 11
1516.6651
 21
2217.7019
  0
LINE
  8
_1-2_仕上
  6
CONTINUOUS
 62
    3
 10
1516.6651
 20
2204.7021
 11
1516.6651
 21
2174.3682
  0
LINE
  8
_1-2_仕上
  6
CONTINUOUS
 62
    3
 10
1354.9998
 20
2063.3687
 11
1354.9998
 21
2024.3687
  0
LINE
  8
_1-2_仕上
  6
CONTINUOUS
 62
    3
 10
1354.9998
 20
2174.3687
 11
1354.9998
 21
2076.3687
  0
LINE
  8
_1-2_仕上
  6
CONTINUOUS
 62
    3
 10
1354.9998
 20
2011.3687
 11
1354.9998
 21
1981.0351
  0
LINE
  8
_1-2_仕上
  6
CONTINUOUS
 62
    3
 10
1516.6651
 20
2394.3682
 11
1050.0001
 21
2394.3682
  0
LINE
  8
_1-2_仕上
  6
CONTINUOUS
 62
    3
 10
1516.6651
 20
2174.3682
 11
1050.0001
 21
2174.3682
  0
LINE
  8
_1-2_仕上
  6
CONTINUOUS
 62
    3
 10
1516.6651
 20
2204.7021
 11
1050.0001
 21
2204.7021
  0
LINE
  8
_1-2_仕上
  6
CONTINUOUS
 62
    3
 10
1516.6651
 20
2217.7019
 11
1050.0001
 21
2217.7019
  0
LINE
  8
_1-2_仕上
  6
CONTINUOUS
 62
    3
 10
1516.6651
 20
2256.7021
 11
1050.0001
 21
2256.7021
  0
LINE
  8
_1-2_仕上
  6
CONTINUOUS
 62
    3
 10
1516.6651
 20
2269.7016
 11
1050.0001
 21
2269.7016
  0
LINE
  8
_1-2_仕上
  6
CONTINUOUS
 62
    3
 10
1354.9998
 20
2063.3687
 11
1050.0001
 21
2063.3687
  0
LINE
  8
_1-2_仕上
  6
CONTINUOUS
 62
    3
 10
1354.9998
 20
2076.3687
 11
1050.0001
 21
2076.3687
  0
LINE
  8
_1-1_1-1___
  6
CENTER2
 62
    7
 10
1050
 20
1921.6216
 11
1050
 21
2602.7027
  0
LINE
  8
_1-2_仕上
  6
CONTINUOUS
 62
    3
 10
583.3348
 20
2269.7018
 11
583.3348
 21
2269.7018
  0
LINE
  8
_1-2_仕上
  6
CONTINUOUS
 62
    3
 10
583.3348
 20
2269.7018
 11
582.25915
 21
2269.603
  0
LINE
  8
_1-2_仕上
  6
CONTINUOUS
 62
    3
 10
582.25915
 20
2269.603
 11
581.21618
 21
2269.3098
  0
LINE
  8
_1-2_仕上
  6
CONTINUOUS
 62
    3
 10
581.21618
 20
2269.3098
 11
580.23758
 21
2268.831
  0
LINE
  8
_1-2_仕上
  6
CONTINUOUS
 62
    3
 10
580.23758
 20
2268.831
 11
579.35309
 21
2268.1811
  0
LINE
  8
_1-2_仕上
  6
CONTINUOUS
 62
    3
 10
579.35309
 20
2268.1811
 11
578.58959
 21
2267.3799
  0
LINE
  8
_1-2_仕上
  6
CONTINUOUS
 62
    3
 10
578.58959
 20
2267.3799
 11
577.97026
 21
2266.4518
  0
LINE
  8
_1-2_仕上
  6
CONTINUOUS
 62
    3
 10
577.97026
 20
2266.4518
 11
577.51393
 21
2265.425
  0
LINE
  8
_1-2_仕上
  6
CONTINUOUS
 62
    3
 10
577.51393
 20
2265.425
 11
577.23447
 21
2264.3306
  0
LINE
  8
_1-2_仕上
  6
CONTINUOUS
 62
    3
 10
577.23447
 20
2264.3306
 11
577.14036
 21
2263.2019
  0
LINE
  8
_1-2_仕上
  6
CONTINUOUS
 62
    3
 10
577.14036
 20
2263.2019
 11
577.23447
 21
2262.0732
  0
LINE
  8
_1-2_仕上
  6
CONTINUOUS
 62
    3
 10
577.23447
 20
2262.0732
 11
577.51393
 21
2260.9787
  0
LINE
  8
_1-2_仕上
  6
CONTINUOUS
 62
    3
 10
577.51393
 20
2260.9787
 11
577.97026
 21
2259.9519
  0
LINE
  8
_1-2_仕上
  6
CONTINUOUS
 62
    3
 10
577.97026
 20
2259.9519
 11
578.58959
 21
2259.0238
  0
LINE
  8
_1-2_仕上
  6
CONTINUOUS
 62
    3
 10
578.58959
 20
2259.0238
 11
579.35309
 21
2258.2226
  0
LINE
  8
_1-2_仕上
  6
CONTINUOUS
 62
    3
 10
579.35309
 20
2258.2226
 11
580.23758
 21
2257.5727
  0
LINE
  8
_1-2_仕上
  6
CONTINUOUS
 62
    3
 10
580.23758
 20
2257.5727
 11
581.21618
 21
2257.0939
  0
LINE
  8
_1-2_仕上
  6
CONTINUOUS
 62
    3
 10
581.21618
 20
2257.0939
 11
582.25915
 21
2256.8007
  0
LINE
  8
_1-2_仕上
  6
CONTINUOUS
 62
    3
 10
582.25915
 20
2256.8007
 11
583.3348
 21
2256.7019
  0
LINE
  8
_1-2_仕上
  6
CONTINUOUS
 62
    3
 10
583.3348
 20
2256.7019
 11
583.3348
 21
2256.7019
  0
LINE
  8
_1-2_仕上
  6
CONTINUOUS
 62
    3
 10
583.3348
 20
2217.7018
 11
583.3348
 21
2217.7018
  0
LINE
  8
_1-2_仕上
  6
CONTINUOUS
 62
    3
 10
583.3348
 20
2217.7018
 11
582.25915
 21
2217.6031
  0
LINE
  8
_1-2_仕上
  6
CONTINUOUS
 62
    3
 10
582.25915
 20
2217.6031
 11
581.21618
 21
2217.3098
  0
LINE
  8
_1-2_仕上
  6
CONTINUOUS
 62
    3
 10
581.21618
 20
2217.3098
 11
580.23758
 21
2216.831
  0
LINE
  8
_1-2_仕上
  6
CONTINUOUS
 62
    3
 10
580.23758
 20
2216.831
 11
579.35309
 21
2216.1811
  0
LINE
  8
_1-2_仕上
  6
CONTINUOUS
 62
    3
 10
579.35309
 20
2216.1811
 11
578.58959
 21
2215.38
  0
LINE
  8
_1-2_仕上
  6
CONTINUOUS
 62
    3
 10
578.58959
 20
2215.38
 11
577.97026
 21
2214.4518
  0
LINE
  8
_1-2_仕上
  6
CONTINUOUS
 62
    3
 10
577.97026
 20
2214.4518
 11
577.51393
 21
2213.425
  0
LINE
  8
_1-2_仕上
  6
CONTINUOUS
 62
    3
 10
577.51393
 20
2213.425
 11
577.23447
 21
2212.3306
  0
LINE
  8
_1-2_仕上
  6
CONTINUOUS
 62
    3
 10
577.23447
 20
2212.3306
 11
577.14036
 21
2211.2019
  0
LINE
  8
_1-2_仕上
  6
CONTINUOUS
 62
    3
 10
577.14036
 20
2211.2019
 11
577.23447
 21
2210.0732
  0
LINE
  8
_1-2_仕上
  6
CONTINUOUS
 62
    3
 10
577.23447
 20
2210.0732
 11
577.51393
 21
2208.9788
  0
LINE
  8
_1-2_仕上
  6
CONTINUOUS
 62
    3
 10
577.51393
 20
2208.9788
 11
577.97026
 21
2207.9519
  0
LINE
  8
_1-2_仕上
  6
CONTINUOUS
 62
    3
 10
577.97026
 20
2207.9519
 11
578.58959
 21
2207.0238
  0
LINE
  8
_1-2_仕上
  6
CONTINUOUS
 62
    3
 10
578.58959
 20
2207.0238
 11
579.35309
 21
2206.2226
  0
LINE
  8
_1-2_仕上
  6
CONTINUOUS
 62
    3
 10
579.35309
 20
2206.2226
 11
580.23758
 21
2205.5728
  0
LINE
  8
_1-2_仕上
  6
CONTINUOUS
 62
    3
 10
580.23758
 20
2205.5728
 11
581.21618
 21
2205.0939
  0
LINE
  8
_1-2_仕上
  6
CONTINUOUS
 62
    3
 10
581.21618
 20
2205.0939
 11
582.25915
 21
2204.8007
  0
LINE
  8
_1-2_仕上
  6
CONTINUOUS
 62
    3
 10
582.25915
 20
2204.8007
 11
583.3348
 21
2204.7019
  0
LINE
  8
_1-2_仕上
  6
CONTINUOUS
 62
    3
 10
583.3348
 20
2204.7019
 11
583.3348
 21
2204.7019
  0
LINE
  8
_1-2_仕上
  6
CONTINUOUS
 62
    3
 10
745.0001
 20
2076.3684
 11
745.0001
 21
2076.3684
  0
LINE
  8
_1-2_仕上
  6
CONTINUOUS
 62
    3
 10
745.0001
 20
2076.3684
 11
743.92445
 21
2076.2696
  0
LINE
  8
_1-2_仕上
  6
CONTINUOUS
 62
    3
 10
743.92445
 20
2076.2696
 11
742.88148
 21
2075.9764
  0
LINE
  8
_1-2_仕上
  6
CONTINUOUS
 62
    3
 10
742.88148
 20
2075.9764
 11
741.90288
 21
2075.4976
  0
LINE
  8
_1-2_仕上
  6
CONTINUOUS
 62
    3
 10
741.90288
 20
2075.4976
 11
741.01839
 21
2074.8477
  0
LINE
  8
_1-2_仕上
  6
CONTINUOUS
 62
    3
 10
741.01839
 20
2074.8477
 11
740.25489
 21
2074.0465
  0
LINE
  8
_1-2_仕上
  6
CONTINUOUS
 62
    3
 10
740.25489
 20
2074.0465
 11
739.63556
 21
2073.1184
  0
LINE
  8
_1-2_仕上
  6
CONTINUOUS
 62
    3
 10
739.63556
 20
2073.1184
 11
739.17924
 21
2072.0916
  0
LINE
  8
_1-2_仕上
  6
CONTINUOUS
 62
    3
 10
739.17924
 20
2072.0916
 11
738.89977
 21
2070.9972
  0
LINE
  8
_1-2_仕上
  6
CONTINUOUS
 62
    3
 10
738.89977
 20
2070.9972
 11
738.80567
 21
2069.8685
  0
LINE
  8
_1-2_仕上
  6
CONTINUOUS
 62
    3
 10
738.80567
 20
2069.8685
 11
738.89977
 21
2068.7398
  0
LINE
  8
_1-2_仕上
  6
CONTINUOUS
 62
    3
 10
738.89977
 20
2068.7398
 11
739.17924
 21
2067.6454
  0
LINE
  8
_1-2_仕上
  6
CONTINUOUS
 62
    3
 10
739.17924
 20
2067.6454
 11
739.63556
 21
2066.6185
  0
LINE
  8
_1-2_仕上
  6
CONTINUOUS
 62
    3
 10
739.63556
 20
2066.6185
 11
740.25489
 21
2065.6904
  0
LINE
  8
_1-2_仕上
  6
CONTINUOUS
 62
    3
 10
740.25489
 20
2065.6904
 11
741.01839
 21
2064.8892
  0
LINE
  8
_1-2_仕上
  6
CONTINUOUS
 62
    3
 10
741.01839
 20
2064.8892
 11
741.90288
 21
2064.2394
  0
LINE
  8
_1-2_仕上
  6
CONTINUOUS
 62
    3
 10
741.90288
 20
2064.2394
 11
742.88148
 21
2063.7605
  0
LINE
  8
_1-2_仕上
  6
CONTINUOUS
 62
    3
 10
742.88148
 20
2063.7605
 11
743.92445
 21
2063.4673
  0
LINE
  8
_1-2_仕上
  6
CONTINUOUS
 62
    3
 10
743.92445
 20
2063.4673
 11
745.0001
 21
2063.3685
  0
LINE
  8
_1-2_仕上
  6
CONTINUOUS
 62
    3
 10
745.0001
 20
2063.3685
 11
745.0001
 21
2063.3685
  0
LINE
  8
_1-2_仕上
  6
CONTINUOUS
 62
    3
 10
745.0001
 20
2024.3684
 11
745.0001
 21
2024.3684
  0
LINE
  8
_1-2_仕上
  6
CONTINUOUS
 62
    3
 10
745.0001
 20
2024.3684
 11
743.92445
 21
2024.2697
  0
LINE
  8
_1-2_仕上
  6
CONTINUOUS
 62
    3
 10
743.92445
 20
2024.2697
 11
742.88148
 21
2023.9764
  0
LINE
  8
_1-2_仕上
  6
CONTINUOUS
 62
    3
 10
742.88148
 20
2023.9764
 11
741.90288
 21
2023.4976
  0
LINE
  8
_1-2_仕上
  6
CONTINUOUS
 62
    3
 10
741.90288
 20
2023.4976
 11
741.01839
 21
2022.8477
  0
LINE
  8
_1-2_仕上
  6
CONTINUOUS
 62
    3
 10
741.01839
 20
2022.8477
 11
740.25489
 21
2022.0466
  0
LINE
  8
_1-2_仕上
  6
CONTINUOUS
 62
    3
 10
740.25489
 20
2022.0466
 11
739.63556
 21
2021.1185
  0
LINE
  8
_1-2_仕上
  6
CONTINUOUS
 62
    3
 10
739.63556
 20
2021.1185
 11
739.17924
 21
2020.0916
  0
LINE
  8
_1-2_仕上
  6
CONTINUOUS
 62
    3
 10
739.17924
 20
2020.0916
 11
738.89977
 21
2018.9972
  0
LINE
  8
_1-2_仕上
  6
CONTINUOUS
 62
    3
 10
738.89977
 20
2018.9972
 11
738.80567
 21
2017.8685
  0
LINE
  8
_1-2_仕上
  6
CONTINUOUS
 62
    3
 10
738.80567
 20
2017.8685
 11
738.89977
 21
2016.7398
  0
LINE
  8
_1-2_仕上
  6
CONTINUOUS
 62
    3
 10
738.89977
 20
2016.7398
 11
739.17924
 21
2015.6454
  0
LINE
  8
_1-2_仕上
  6
CONTINUOUS
 62
    3
 10
739.17924
 20
2015.6454
 11
739.63556
 21
2014.6185
  0
LINE
  8
_1-2_仕上
  6
CONTINUOUS
 62
    3
 10
739.63556
 20
2014.6185
 11
740.25489
 21
2013.6904
  0
LINE
  8
_1-2_仕上
  6
CONTINUOUS
 62
    3
 10
740.25489
 20
2013.6904
 11
741.01839
 21
2012.8892
  0
LINE
  8
_1-2_仕上
  6
CONTINUOUS
 62
    3
 10
741.01839
 20
2012.8892
 11
741.90288
 21
2012.2394
  0
LINE
  8
_1-2_仕上
  6
CONTINUOUS
 62
    3
 10
741.90288
 20
2012.2394
 11
742.88148
 21
2011.7605
  0
LINE
  8
_1-2_仕上
  6
CONTINUOUS
 62
    3
 10
742.88148
 20
2011.7605
 11
743.92445
 21
2011.4673
  0
LINE
  8
_1-2_仕上
  6
CONTINUOUS
 62
    3
 10
743.92445
 20
2011.4673
 11
745.0001
 21
2011.3686
  0
LINE
  8
_1-2_仕上
  6
CONTINUOUS
 62
    3
 10
745.0001
 20
2011.3686
 11
745.0001
 21
2011.3686
  0
LINE
  8
_1-2_仕上
  6
CONTINUOUS
 62
    3
 10
1516.6651
 20
2256.7019
 11
1516.6651
 21
2256.7019
  0
LINE
  8
_1-2_仕上
  6
CONTINUOUS
 62
    3
 10
1516.6651
 20
2256.7019
 11
1517.7408
 21
2256.8007
  0
LINE
  8
_1-2_仕上
  6
CONTINUOUS
 62
    3
 10
1517.7408
 20
2256.8007
 11
1518.7838
 21
2257.0939
  0
LINE
  8
_1-2_仕上
  6
CONTINUOUS
 62
    3
 10
1518.7838
 20
2257.0939
 11
1519.7624
 21
2257.5727
  0
LINE
  8
_1-2_仕上
  6
CONTINUOUS
 62
    3
 10
1519.7624
 20
2257.5727
 11
1520.6469
 21
2258.2226
  0
LINE
  8
_1-2_仕上
  6
CONTINUOUS
 62
    3
 10
1520.6469
 20
2258.2226
 11
1521.4104
 21
2259.0238
  0
LINE
  8
_1-2_仕上
  6
CONTINUOUS
 62
    3
 10
1521.4104
 20
2259.0238
 11
1522.0297
 21
2259.9519
  0
LINE
  8
_1-2_仕上
  6
CONTINUOUS
 62
    3
 10
1522.0297
 20
2259.9519
 11
1522.486
 21
2260.9787
  0
LINE
  8
_1-2_仕上
  6
CONTINUOUS
 62
    3
 10
1522.486
 20
2260.9787
 11
1522.7655
 21
2262.0732
  0
LINE
  8
_1-2_仕上
  6
CONTINUOUS
 62
    3
 10
1522.7655
 20
2262.0732
 11
1522.8596
 21
2263.2019
  0
LINE
  8
_1-2_仕上
  6
CONTINUOUS
 62
    3
 10
1522.8596
 20
2263.2019
 11
1522.7655
 21
2264.3306
  0
LINE
  8
_1-2_仕上
  6
CONTINUOUS
 62
    3
 10
1522.7655
 20
2264.3306
 11
1522.486
 21
2265.425
  0
LINE
  8
_1-2_仕上
  6
CONTINUOUS
 62
    3
 10
1522.486
 20
2265.425
 11
1522.0297
 21
2266.4518
  0
LINE
  8
_1-2_仕上
  6
CONTINUOUS
 62
    3
 10
1522.0297
 20
2266.4518
 11
1521.4104
 21
2267.3799
  0
LINE
  8
_1-2_仕上
  6
CONTINUOUS
 62
    3
 10
1521.4104
 20
2267.3799
 11
1520.6469
 21
2268.1811
  0
LINE
  8
_1-2_仕上
  6
CONTINUOUS
 62
    3
 10
1520.6469
 20
2268.1811
 11
1519.7624
 21
2268.831
  0
LINE
  8
_1-2_仕上
  6
CONTINUOUS
 62
    3
 10
1519.7624
 20
2268.831
 11
1518.7838
 21
2269.3098
  0
LINE
  8
_1-2_仕上
  6
CONTINUOUS
 62
    3
 10
1518.7838
 20
2269.3098
 11
1517.7408
 21
2269.603
  0
LINE
  8
_1-2_仕上
  6
CONTINUOUS
 62
    3
 10
1517.7408
 20
2269.603
 11
1516.6651
 21
2269.7018
  0
LINE
  8
_1-2_仕上
  6
CONTINUOUS
 62
    3
 10
1516.6651
 20
2269.7018
 11
1516.6651
 21
2269.7018
  0
LINE
  8
_1-2_仕上
  6
CONTINUOUS
 62
    3
 10
1516.6651
 20
2204.7019
 11
1516.6651
 21
2204.7019
  0
LINE
  8
_1-2_仕上
  6
CONTINUOUS
 62
    3
 10
1516.6651
 20
2204.7019
 11
1517.7408
 21
2204.8007
  0
LINE
  8
_1-2_仕上
  6
CONTINUOUS
 62
    3
 10
1517.7408
 20
2204.8007
 11
1518.7838
 21
2205.0939
  0
LINE
  8
_1-2_仕上
  6
CONTINUOUS
 62
    3
 10
1518.7838
 20
2205.0939
 11
1519.7624
 21
2205.5728
  0
LINE
  8
_1-2_仕上
  6
CONTINUOUS
 62
    3
 10
1519.7624
 20
2205.5728
 11
1520.6469
 21
2206.2226
  0
LINE
  8
_1-2_仕上
  6
CONTINUOUS
 62
    3
 10
1520.6469
 20
2206.2226
 11
1521.4104
 21
2207.0238
  0
LINE
  8
_1-2_仕上
  6
CONTINUOUS
 62
    3
 10
1521.4104
 20
2207.0238
 11
1522.0297
 21
2207.9519
  0
LINE
  8
_1-2_仕上
  6
CONTINUOUS
 62
    3
 10
1522.0297
 20
2207.9519
 11
1522.486
 21
2208.9788
  0
LINE
  8
_1-2_仕上
  6
CONTINUOUS
 62
    3
 10
1522.486
 20
2208.9788
 11
1522.7655
 21
2210.0732
  0
LINE
  8
_1-2_仕上
  6
CONTINUOUS
 62
    3
 10
1522.7655
 20
2210.0732
 11
1522.8596
 21
2211.2019
  0
LINE
  8
_1-2_仕上
  6
CONTINUOUS
 62
    3
 10
1522.8596
 20
2211.2019
 11
1522.7655
 21
2212.3306
  0
LINE
  8
_1-2_仕上
  6
CONTINUOUS
 62
    3
 10
1522.7655
 20
2212.3306
 11
1522.486
 21
2213.425
  0
LINE
  8
_1-2_仕上
  6
CONTINUOUS
 62
    3
 10
1522.486
 20
2213.425
 11
1522.0297
 21
2214.4518
  0
LINE
  8
_1-2_仕上
  6
CONTINUOUS
 62
    3
 10
1522.0297
 20
2214.4518
 11
1521.4104
 21
2215.38
  0
LINE
  8
_1-2_仕上
  6
CONTINUOUS
 62
    3
 10
1521.4104
 20
2215.38
 11
1520.6469
 21
2216.1811
  0
LINE
  8
_1-2_仕上
  6
CONTINUOUS
 62
    3
 10
1520.6469
 20
2216.1811
 11
1519.7624
 21
2216.831
  0
LINE
  8
_1-2_仕上
  6
CONTINUOUS
 62
    3
 10
1519.7624
 20
2216.831
 11
1518.7838
 21
2217.3098
  0
LINE
  8
_1-2_仕上
  6
CONTINUOUS
 62
    3
 10
1518.7838
 20
2217.3098
 11
1517.7408
 21
2217.6031
  0
LINE
  8
_1-2_仕上
  6
CONTINUOUS
 62
    3
 10
1517.7408
 20
2217.6031
 11
1516.6651
 21
2217.7018
  0
LINE
  8
_1-2_仕上
  6
CONTINUOUS
 62
    3
 10
1516.6651
 20
2217.7018
 11
1516.6651
 21
2217.7018
  0
LINE
  8
_1-2_仕上
  6
CONTINUOUS
 62
    3
 10
1354.9998
 20
2063.3685
 11
1354.9998
 21
2063.3685
  0
LINE
  8
_1-2_仕上
  6
CONTINUOUS
 62
    3
 10
1354.9998
 20
2063.3685
 11
1356.0755
 21
2063.4673
  0
LINE
  8
_1-2_仕上
  6
CONTINUOUS
 62
    3
 10
1356.0755
 20
2063.4673
 11
1357.1185
 21
2063.7605
  0
LINE
  8
_1-2_仕上
  6
CONTINUOUS
 62
    3
 10
1357.1185
 20
2063.7605
 11
1358.0971
 21
2064.2394
  0
LINE
  8
_1-2_仕上
  6
CONTINUOUS
 62
    3
 10
1358.0971
 20
2064.2394
 11
1358.9816
 21
2064.8892
  0
LINE
  8
_1-2_仕上
  6
CONTINUOUS
 62
    3
 10
1358.9816
 20
2064.8892
 11
1359.7451
 21
2065.6904
  0
LINE
  8
_1-2_仕上
  6
CONTINUOUS
 62
    3
 10
1359.7451
 20
2065.6904
 11
1360.3644
 21
2066.6185
  0
LINE
  8
_1-2_仕上
  6
CONTINUOUS
 62
    3
 10
1360.3644
 20
2066.6185
 11
1360.8207
 21
2067.6454
  0
LINE
  8
_1-2_仕上
  6
CONTINUOUS
 62
    3
 10
1360.8207
 20
2067.6454
 11
1361.1002
 21
2068.7398
  0
LINE
  8
_1-2_仕上
  6
CONTINUOUS
 62
    3
 10
1361.1002
 20
2068.7398
 11
1361.1943
 21
2069.8685
  0
LINE
  8
_1-2_仕上
  6
CONTINUOUS
 62
    3
 10
1361.1943
 20
2069.8685
 11
1361.1002
 21
2070.9972
  0
LINE
  8
_1-2_仕上
  6
CONTINUOUS
 62
    3
 10
1361.1002
 20
2070.9972
 11
1360.8207
 21
2072.0916
  0
LINE
  8
_1-2_仕上
  6
CONTINUOUS
 62
    3
 10
1360.8207
 20
2072.0916
 11
1360.3644
 21
2073.1184
  0
LINE
  8
_1-2_仕上
  6
CONTINUOUS
 62
    3
 10
1360.3644
 20
2073.1184
 11
1359.7451
 21
2074.0465
  0
LINE
  8
_1-2_仕上
  6
CONTINUOUS
 62
    3
 10
1359.7451
 20
2074.0465
 11
1358.9816
 21
2074.8477
  0
LINE
  8
_1-2_仕上
  6
CONTINUOUS
 62
    3
 10
1358.9816
 20
2074.8477
 11
1358.0971
 21
2075.4976
  0
LINE
  8
_1-2_仕上
  6
CONTINUOUS
 62
    3
 10
1358.0971
 20
2075.4976
 11
1357.1185
 21
2075.9764
  0
LINE
  8
_1-2_仕上
  6
CONTINUOUS
 62
    3
 10
1357.1185
 20
2075.9764
 11
1356.0755
 21
2076.2696
  0
LINE
  8
_1-2_仕上
  6
CONTINUOUS
 62
    3
 10
1356.0755
 20
2076.2696
 11
1354.9998
 21
2076.3684
  0
LINE
  8
_1-2_仕上
  6
CONTINUOUS
 62
    3
 10
1354.9998
 20
2076.3684
 11
1354.9998
 21
2076.3684
  0
LINE
  8
_1-2_仕上
  6
CONTINUOUS
 62
    3
 10
1354.9998
 20
2011.3686
 11
1354.9998
 21
2011.3686
  0
LINE
  8
_1-2_仕上
  6
CONTINUOUS
 62
    3
 10
1354.9998
 20
2011.3686
 11
1356.0755
 21
2011.4673
  0
LINE
  8
_1-2_仕上
  6
CONTINUOUS
 62
    3
 10
1356.0755
 20
2011.4673
 11
1357.1185
 21
2011.7605
  0
LINE
  8
_1-2_仕上
  6
CONTINUOUS
 62
    3
 10
1357.1185
 20
2011.7605
 11
1358.0971
 21
2012.2394
  0
LINE
  8
_1-2_仕上
  6
CONTINUOUS
 62
    3
 10
1358.0971
 20
2012.2394
 11
1358.9816
 21
2012.8892
  0
LINE
  8
_1-2_仕上
  6
CONTINUOUS
 62
    3
 10
1358.9816
 20
2012.8892
 11
1359.7451
 21
2013.6904
  0
LINE
  8
_1-2_仕上
  6
CONTINUOUS
 62
    3
 10
1359.7451
 20
2013.6904
 11
1360.3644
 21
2014.6185
  0
LINE
  8
_1-2_仕上
  6
CONTINUOUS
 62
    3
 10
1360.3644
 20
2014.6185
 11
1360.8207
 21
2015.6454
  0
LINE
  8
_1-2_仕上
  6
CONTINUOUS
 62
    3
 10
1360.8207
 20
2015.6454
 11
1361.1002
 21
2016.7398
  0
LINE
  8
_1-2_仕上
  6
CONTINUOUS
 62
    3
 10
1361.1002
 20
2016.7398
 11
1361.1943
 21
2017.8685
  0
LINE
  8
_1-2_仕上
  6
CONTINUOUS
 62
    3
 10
1361.1943
 20
2017.8685
 11
1361.1002
 21
2018.9972
  0
LINE
  8
_1-2_仕上
  6
CONTINUOUS
 62
    3
 10
1361.1002
 20
2018.9972
 11
1360.8207
 21
2020.0916
  0
LINE
  8
_1-2_仕上
  6
CONTINUOUS
 62
    3
 10
1360.8207
 20
2020.0916
 11
1360.3644
 21
2021.1185
  0
LINE
  8
_1-2_仕上
  6
CONTINUOUS
 62
    3
 10
1360.3644
 20
2021.1185
 11
1359.7451
 21
2022.0466
  0
LINE
  8
_1-2_仕上
  6
CONTINUOUS
 62
    3
 10
1359.7451
 20
2022.0466
 11
1358.9816
 21
2022.8477
  0
LINE
  8
_1-2_仕上
  6
CONTINUOUS
 62
    3
 10
1358.9816
 20
2022.8477
 11
1358.0971
 21
2023.4976
  0
LINE
  8
_1-2_仕上
  6
CONTINUOUS
 62
    3
 10
1358.0971
 20
2023.4976
 11
1357.1185
 21
2023.9764
  0
LINE
  8
_1-2_仕上
  6
CONTINUOUS
 62
    3
 10
1357.1185
 20
2023.9764
 11
1356.0755
 21
2024.2697
  0
LINE
  8
_1-2_仕上
  6
CONTINUOUS
 62
    3
 10
1356.0755
 20
2024.2697
 11
1354.9998
 21
2024.3684
  0
LINE
  8
_1-2_仕上
  6
CONTINUOUS
 62
    3
 10
1354.9998
 20
2024.3684
 11
1354.9998
 21
2024.3684
  0
TEXT
  8
_1-d_
 62
    7
 10
254.99978
 20
157.4999
 40
25
 41
1
 50
0
  1
図
  0
TEXT
  8
_1-d_
 62
    7
 10
254.99978
 20
97.499965
 40
25
 41
1
 50
0
  1
番
  0
TEXT
  8
_1-d_
 62
    7
 10
655.00043
 20
157.4999
 40
25
 41
1
 50
0
  1
承
  0
TEXT
  8
_1-d_
 62
    7
 10
655.00043
 20
97.499965
 40
25
 41
1
 50
0
  1
認
  0
TEXT
  8
_1-d_
 62
    7
 10
1020.0002
 20
237.49994
 40
25
 41
1
 50
0
  1
尺
  0
TEXT
  8
_1-d_
 62
    7
 10
1020.0002
 20
197.49978
 40
25
 41
1
 50
0.0000708
  1
度
  0
TEXT
  8
_1-d_
 62
    7
 10
855.0001
 20
157.4999
 40
25
 41
1
 50
0
  1
製
  0
TEXT
  8
_1-d_
 62
    7
 10
855.0001
 20
97.499965
 40
25
 41
1
 50
0
  1
図
  0
TEXT
  8
_1-d_
 62
    7
 10
1555
 20
237.49994
 40
25
 41
1
 50
0
  1
日
  0
TEXT
  8
_1-d_
 62
    7
 10
1555
 20
197.49978
 40
25
 41
1
 50
0.0000708
  1
付
  0
TEXT
  8
_1-d_
 62
    7
 10
1111.4263
 20
163.48225
 40
20
 41
1
 50
0
  1
株式
  0
TEXT
  8
_1-d_
 62
    7
 10
1111.4263
 20
141.8518
 40
20
 41
1
 50
0.0000196
  1
会社
  0
TEXT
  8
_1-d_
 62
    3
 10
1174.2246
 20
143.24711
 40
40
 41
1
 50
0
  1
スズキベンチレーター
  0
TEXT
  8
_1-d_
 62
    7
 10
1237.9181
 20
94.024178
 40
20
 41
1
 50
0
  1
TEL(054)296-7000  FAX(054)296-7001
  0
TEXT
  8
_1-d_
 62
    3
 10
1084.3489
 20
210.10065
 40
40
 41
1
 50
0.000005
  1
１／１５
  0
TEXT
  8
_1-8_
 62
    3
 10
1003.8496
 20
1896.9922
 40
30
 41
1
 50
0
  1
915φ
  0
TEXT
  8
_1-8_
 62
    3
 10
280.08888
 20
2196.1172
 40
30
 41
1
 50
90
  1
780
  0
TEXT
  8
_1-8_
 62
    3
 10
1002.2974
 20
2674.4597
 40
30
 41
1
 50
0
  1
1,400
  0
TEXT
  8
_1-d_
 62
    7
 10
1235.6793
 20
118.64592
 40
20
 41
1
 50
0
  1
〒421-2114　静岡市葵区安倍口新田１５２番地
  0
TEXT
  8
_1-d_
 62
    3
 10
269.15525
 20
2786.1122
 40
50
 41
1
 50
0
  1
ＳＴ－９０Ｌ　直付型（低騒音）立面
  0
TEXT
  8
_1-d_
 62
    3
 10
265.86814
 20
212.66461
 40
30
 41
1
 50
0
  1
ＳＴ－９０Ｌ　直付型（低騒音）立面
  0
TEXT
  8
_1-d_
 62
    3
 10
308.45925
 20
140.30213
 40
30
 41
1
 50
0
  1
90L-01a
  0
POINT
  8
_1-8_
 62
    2
 10
325.51673
 20
1981.0346
  0
POINT
  8
_1-8_
 62
    2
 10
325.51673
 20
2501.0348
  0
POINT
  8
_1-8_
 62
    2
 10
583.3348
 20
2660.5286
  0
POINT
  8
_1-8_
 62
    2
 10
1516.6664
 20
2660.5286
  0
POINT
  8
_1-8_
 62
    2
 10
745.0001
 20
1859.8242
  0
POINT
  8
_1-8_
 62
    2
 10
1355.0001
 20
1859.8242
  0
ENDSEC
  0
EOF
