  0
SECTION
  2
HEADER
  9
$ACADVER
  1
AC1009
  9
$INSBASE
 10
0
 20
0
 30
0
  9
$EXTMIN
 10
0
 20
0
  9
$EXTMAX
 10
8400
 20
5940
  9
$LIMMIN
 10
0
 20
0
  9
$LIMMAX
 10
8400
 20
5940
  9
$LTSCALE
 40
20
  0
ENDSEC
  0
SECTION
  2
TABLES
  0
TABLE
  2
LTYPE
 70
     9
  0
LTYPE
  2
CONTINUOUS
 70
    64
  3
実線
 72
    65
 73
     0
 40
0.0
  0
LTYPE
  2
DASHED1
 70
    64
  3
--  --  --  --  --  --  --  --  
 72
    65
 73
     2
 40
2.5
 49
1.25
 49
-1.25
  0
LTYPE
  2
DASHED2
 70
    64
  3
----    ----    ----    ----    
 72
    65
 73
     2
 40
5.0
 49
2.5
 49
-2.5
  0
LTYPE
  2
DASHED3
 70
    64
  3
------  ------  ------  ------  
 72
    65
 73
     2
 40
5.0
 49
3.75
 49
-1.25
  0
LTYPE
  2
CENTER1
 70
    64
  3
----- - ----- - ----- - ----- - 
 72
    65
 73
     4
 40
10.0
 49
6.25
 49
-1.25
 49
1.25
 49
-1.25
  0
LTYPE
  2
CENTER2
 70
    64
  3
----------  --  ----------  --  
 72
    65
 73
     4
 40
20.0
 49
12.5
 49
-2.5
 49
2.5
 49
-2.5
  0
LTYPE
  2
PHANTOM1
 70
    64
  3
--- - - --- - - --- - - --- - - 
 72
    65
 73
     6
 40
10.0
 49
3.25
 49
-1.25
 49
1.25
 49
-1.25
 49
1.25
 49
-1.25
  0
LTYPE
  2
PHANTOM2
 70
    64
  3
--------  -  -  --------  -  -  
 72
    65
 73
     6
 40
20.0
 49
10.0
 49
-2.5
 49
1.25
 49
-2.5
 49
1.25
 49
-2.5
  0
LTYPE
  2
DOT
 70
    64
  3
-   -   -   -   -   -   -   -   
 72
    65
 73
     2
 40
2.5
 49
0.625
 49
-1.875
  0
LTYPE
  2
DUMMY
 70
    64
  3
ダミー
 72
    65
 73
     0
 40
0.0
  0
LTYPE
  2
RAND1
 70
    64
  3
----- - ----- - ----- - ----- - 
 72
    65
 73
     4
 40
10.0
 49
6.25
 49
-1.25
 49
1.25
 49
-1.25
  0
LTYPE
  2
RAND2
 70
    64
  3
----------  --  ----------  --  
 72
    65
 73
     4
 40
20.0
 49
12.5
 49
-2.5
 49
2.5
 49
-2.5
  0
LTYPE
  2
RAND3
 70
    64
  3
--- - - --- - - --- - - --- - - 
 72
    65
 73
     6
 40
10.0
 49
3.25
 49
-1.25
 49
1.25
 49
-1.25
 49
1.25
 49
-1.25
  0
LTYPE
  2
RAND4
 70
    64
  3
--------  -  -  --------  -  -  
 72
    65
 73
     6
 40
20.0
 49
10.0
 49
-2.5
 49
1.25
 49
-2.5
 49
1.25
 49
-2.5
  0
LTYPE
  2
RAND5
 70
    64
  3
----- - ----- - ----- - ----- - 
 72
    65
 73
     4
 40
10.0
 49
6.25
 49
-1.25
 49
1.25
 49
-1.25
  0
LTYPE
  2
LONG1
 70
    64
  3
----------  --  ----------  --  
 72
    65
 73
     4
 40
20.0
 49
12.5
 49
-2.5
 49
2.5
 49
-2.5
  0
LTYPE
  2
LONG2
 70
    64
  3
--- - - --- - - --- - - --- - - 
 72
    65
 73
     6
 40
10.0
 49
3.25
 49
-1.25
 49
1.25
 49
-1.25
 49
1.25
 49
-1.25
  0
LTYPE
  2
LONG3
 70
    64
  3
--------  -  -  --------  -  -  
 72
    65
 73
     6
 40
20.0
 49
10.0
 49
-2.5
 49
1.25
 49
-2.5
 49
1.25
 49
-2.5
  0
LTYPE
  2
LONG4
 70
    64
  3
----- - ----- - ----- - ----- - 
 72
    65
 73
     4
 40
10.0
 49
6.25
 49
-1.25
 49
1.25
 49
-1.25
  0
LTYPE
  2
LONG5
 70
    64
  3
----------  --  ----------  --  
 72
    65
 73
     4
 40
20.0
 49
12.5
 49
-2.5
 49
2.5
 49
-2.5
  0
ENDTAB
  0
TABLE
  2
STYLE
  5
3
100
AcDbSymbolTable
 70
     1
  0
STYLE
  5
10
100
AcDbSymbolTableRecord
100
AcDbTextStyleTableRecord
  2
STANDARD
 70
     0
 40
0.0
 41
1.0
 50
0.0
 71
     0
 42
0.2
  3
txt
  4
bigfont.shx
  0
STYLE
  5
26
100
AcDbSymbolTableRecord
100
AcDbTextStyleTableRecord
  2
TATEGAKI
 70
    68
 40
0.0
 41
1.0
 50
0.0
 71
     0
 42
1.0
  3
txt
  4
bigfont.shx
  0
ENDTAB
  0
TABLE
  2
LAYER
 70
    4
  0
LAYER
  2
_0-2_躯体
 70
   64
 62
    7
  6
CONTINUOUS
  0
LAYER
  2
_0-8_寸法
 70
   64
 62
    7
  6
CONTINUOUS
  0
LAYER
  2
_0-d_文字
 70
   64
 62
    7
  6
CONTINUOUS
  0
LAYER
  2
ADD_LINE
 70
   64
 62
    7
  6
CONTINUOUS
  0
ENDTAB
  0
ENDSEC
  0
SECTION
  2
BLOCKS
  0
ENDSEC
  0
SECTION
  2
ENTITIES
  0
LINE
  8
_0-d_文字
  6
CONTINUOUS
 62
    7
 10
500.0001
 20
5515.4029
 11
3700
 21
5515.4029
  0
LINE
  8
_0-d_文字
  6
CONTINUOUS
 62
    7
 10
500.0001
 20
5535.403
 11
3700
 21
5535.403
  0
LINE
  8
_0-d_文字
  6
CONTINUOUS
 62
    7
 10
499.99936
 20
379.99976
 11
3700.0008
 21
379.99976
  0
LINE
  8
_0-d_文字
  6
CONTINUOUS
 62
    7
 10
499.99936
 20
179.9996
 11
499.99936
 21
539.9998
  0
LINE
  8
_0-d_文字
  6
CONTINUOUS
 62
    7
 10
499.99936
 20
179.9996
 11
3700.0008
 21
179.9996
  0
LINE
  8
_0-d_文字
  6
CONTINUOUS
 62
    7
 10
3700.0008
 20
539.9998
 11
3700.0008
 21
179.9996
  0
LINE
  8
_0-d_文字
  6
CONTINUOUS
 62
    7
 10
499.99936
 20
539.9998
 11
3700.0008
 21
539.9998
  0
LINE
  8
_0-d_文字
  6
CONTINUOUS
 62
    7
 10
2100
 20
539.9998
 11
2100
 21
179.9996
  0
LINE
  8
_0-d_文字
  6
CONTINUOUS
 62
    7
 10
1300.0003
 20
179.9996
 11
1300.0003
 21
379.99976
  0
LINE
  8
_0-d_文字
  6
CONTINUOUS
 62
    7
 10
2100
 20
379.99976
 11
2100
 21
539.9998
  0
LINE
  8
_0-d_文字
  6
CONTINUOUS
 62
    7
 10
1699.9995
 20
179.9996
 11
1699.9995
 21
379.99976
  0
LINE
  8
_0-d_文字
  6
CONTINUOUS
 62
    7
 10
570.00002
 20
179.9996
 11
570.00002
 21
379.99976
  0
LINE
  8
_0-d_文字
  6
CONTINUOUS
 62
    7
 10
1370
 20
179.9996
 11
1370
 21
379.99976
  0
LINE
  8
_0-d_文字
  6
CONTINUOUS
 62
    7
 10
1770.0002
 20
179.9996
 11
1770.0002
 21
379.99976
  0
LINE
  8
_0-d_文字
  6
CONTINUOUS
 62
    7
 10
2030
 20
379.99976
 11
2030
 21
539.9998
  0
LINE
  8
_0-d_文字
  6
CONTINUOUS
 62
    7
 10
3100.0008
 20
379.99976
 11
3100.0008
 21
539.9998
  0
LINE
  8
_0-d_文字
  6
CONTINUOUS
 62
    7
 10
3170.0005
 20
379.99976
 11
3170.0005
 21
539.9998
  0
LINE
  8
_0-2_躯体
  6
CONTINUOUS
 62
    3
 10
1372.0025
 20
4841.3917
 11
2099.9997
 21
5008.4408
  0
LINE
  8
_0-8_寸法
  6
CONTINUOUS
 62
    7
 10
1013.2751
 20
4228.4402
 11
1013.2751
 21
5008.4408
  0
LINE
  8
_0-8_寸法
  6
CONTINUOUS
 62
    7
 10
1400.0021
 20
4228.4402
 11
1013.2751
 21
4228.4402
  0
LINE
  8
_0-8_寸法
  6
CONTINUOUS
 62
    7
 10
1400.0021
 20
5247.6814
 11
2799.9995
 21
5247.6814
  0
LINE
  8
_0-8_寸法
  6
CONTINUOUS
 62
    7
 10
1642.5
 20
4046.6246
 11
2557.5001
 21
4046.6246
  0
LINE
  8
_0-2_躯体
  6
CONTINUOUS
 62
    3
 10
1400.0021
 20
4848.4407
 11
1400.0021
 21
4661.4411
  0
LINE
  8
_0-8_寸法
  6
CONTINUOUS
 62
    7
 10
1642.5
 20
4162.0838
 11
1642.5
 21
4046.6246
  0
LINE
  8
_0-8_寸法
  6
CONTINUOUS
 62
    7
 10
2557.5001
 20
4162.0838
 11
2557.5001
 21
4046.6246
  0
LINE
  8
_0-8_寸法
  6
CONTINUOUS
 62
    7
 10
1400.0021
 20
4928.9888
 11
1400.0021
 21
5247.6814
  0
LINE
  8
_0-8_寸法
  6
CONTINUOUS
 62
    7
 10
1604.5542
 20
5008.4408
 11
1013.2751
 21
5008.4408
  0
LINE
  8
_0-8_寸法
  6
CONTINUOUS
 62
    7
 10
2799.9995
 20
4928.9888
 11
2799.9995
 21
5247.6814
  0
LINE
  8
_0-2_躯体
  6
CONTINUOUS
 62
    3
 10
1400.0021
 20
4641.9418
 11
1400.0021
 21
4583.4411
  0
LINE
  8
_0-2_躯体
  6
CONTINUOUS
 62
    3
 10
1400.0021
 20
4563.9419
 11
1400.0021
 21
4518.4407
  0
LINE
  8
_0-2_躯体
  6
CONTINUOUS
 62
    3
 10
1642.5
 20
4293.4416
 11
2557.5001
 21
4293.4416
  0
LINE
  8
_0-2_躯体
  6
CONTINUOUS
 62
    3
 10
1642.5
 20
4351.9414
 11
1642.5
 21
4293.4416
  0
LINE
  8
_0-2_躯体
  6
CONTINUOUS
 62
    3
 10
1642.5
 20
4228.4412
 11
2557.5001
 21
4228.4412
  0
LINE
  8
_0-2_躯体
  6
CONTINUOUS
 62
    3
 10
1642.5
 20
4273.9414
 11
2557.5001
 21
4273.9414
  0
LINE
  8
_0-2_躯体
  6
CONTINUOUS
 62
    3
 10
1642.5
 20
4518.4416
 11
1642.5
 21
4371.4416
  0
LINE
  8
_0-2_躯体
  6
CONTINUOUS
 62
    3
 10
1642.5
 20
4273.9414
 11
1642.5
 21
4228.4412
  0
LINE
  8
_0-2_躯体
  6
CONTINUOUS
 62
    3
 10
1400.0021
 20
4848.4407
 11
2099.9997
 21
4848.4407
  0
LINE
  8
_0-2_躯体
  6
CONTINUOUS
 62
    3
 10
1400.0021
 20
4518.4407
 11
2099.9997
 21
4518.4407
  0
LINE
  8
_0-2_躯体
  6
CONTINUOUS
 62
    3
 10
1400.0021
 20
4563.9419
 11
2099.9997
 21
4563.9419
  0
LINE
  8
_0-2_躯体
  6
CONTINUOUS
 62
    3
 10
1400.0021
 20
4583.4411
 11
2099.9997
 21
4583.4411
  0
LINE
  8
_0-2_躯体
  6
CONTINUOUS
 62
    3
 10
1400.0021
 20
4641.9418
 11
2099.9997
 21
4641.9418
  0
LINE
  8
_0-2_躯体
  6
CONTINUOUS
 62
    3
 10
1400.0021
 20
4661.4411
 11
2099.9997
 21
4661.4411
  0
LINE
  8
_0-2_躯体
  6
CONTINUOUS
 62
    3
 10
1642.5
 20
4351.9414
 11
2099.9997
 21
4351.9414
  0
LINE
  8
_0-2_躯体
  6
CONTINUOUS
 62
    3
 10
1642.5
 20
4371.4416
 11
2099.9997
 21
4371.4416
  0
LINE
  8
_0-2_躯体
  6
CONTINUOUS
 62
    3
 10
2827.9976
 20
4841.3917
 11
2100.0002
 21
5008.4408
  0
LINE
  8
_0-2_躯体
  6
CONTINUOUS
 62
    3
 10
2799.9978
 20
4848.4407
 11
2799.9978
 21
4661.4411
  0
LINE
  8
_0-2_躯体
  6
CONTINUOUS
 62
    3
 10
2799.9978
 20
4641.9418
 11
2799.9978
 21
4583.4411
  0
LINE
  8
_0-2_躯体
  6
CONTINUOUS
 62
    3
 10
2799.9978
 20
4563.9419
 11
2799.9978
 21
4518.4407
  0
LINE
  8
_0-2_躯体
  6
CONTINUOUS
 62
    3
 10
2557.5001
 20
4351.9414
 11
2557.5001
 21
4293.4416
  0
LINE
  8
_0-2_躯体
  6
CONTINUOUS
 62
    3
 10
2557.5001
 20
4518.4416
 11
2557.5001
 21
4371.4416
  0
LINE
  8
_0-2_躯体
  6
CONTINUOUS
 62
    3
 10
2557.5001
 20
4273.9414
 11
2557.5001
 21
4228.4412
  0
LINE
  8
_0-2_躯体
  6
CONTINUOUS
 62
    3
 10
2799.9978
 20
4848.4407
 11
2100.0002
 21
4848.4407
  0
LINE
  8
_0-2_躯体
  6
CONTINUOUS
 62
    3
 10
2799.9978
 20
4518.4407
 11
2100.0002
 21
4518.4407
  0
LINE
  8
_0-2_躯体
  6
CONTINUOUS
 62
    3
 10
2799.9978
 20
4563.9419
 11
2100.0002
 21
4563.9419
  0
LINE
  8
_0-2_躯体
  6
CONTINUOUS
 62
    3
 10
2799.9978
 20
4583.4411
 11
2100.0002
 21
4583.4411
  0
LINE
  8
_0-2_躯体
  6
CONTINUOUS
 62
    3
 10
2799.9978
 20
4641.9418
 11
2100.0002
 21
4641.9418
  0
LINE
  8
_0-2_躯体
  6
CONTINUOUS
 62
    3
 10
2799.9978
 20
4661.4411
 11
2100.0002
 21
4661.4411
  0
LINE
  8
_0-2_躯体
  6
CONTINUOUS
 62
    3
 10
2557.5001
 20
4351.9414
 11
2100.0002
 21
4351.9414
  0
LINE
  8
_0-2_躯体
  6
CONTINUOUS
 62
    3
 10
2557.5001
 20
4371.4416
 11
2100.0002
 21
4371.4416
  0
LINE
  8
_0-8_寸法
  6
CONTINUOUS
 62
    7
 10
3186.7265
 20
3009.759
 11
3186.7265
 21
3549.7593
  0
LINE
  8
_0-8_寸法
  6
CONTINUOUS
 62
    7
 10
2792.4781
 20
3009.759
 11
3186.7265
 21
3009.759
  0
LINE
  8
_0-8_寸法
  6
CONTINUOUS
 62
    7
 10
2799.9993
 20
3449.7592
 11
3186.7265
 21
3449.7592
  0
LINE
  8
_0-8_寸法
  6
CONTINUOUS
 62
    7
 10
2799.9993
 20
3549.7593
 11
3186.7265
 21
3549.7593
  0
LINE
  8
_0-8_寸法
  6
CONTINUOUS
 62
    7
 10
2650.0015
 20
2741.4026
 11
1550.0017
 21
2741.4026
  0
LINE
  8
_0-8_寸法
  6
CONTINUOUS
 62
    7
 10
1672.938
 20
1538.2212
 11
2527.0586
 21
1837.3919
  0
LINE
  8
_0-2_躯体
  6
CONTINUOUS
 62
    3
 10
1647.4983
 20
3449.7592
 11
2552.4983
 21
3449.7592
  0
LINE
  8
_0-2_躯体
  6
CONTINUOUS
 62
    3
 10
1647.4983
 20
3549.7593
 11
2552.4983
 21
3549.7593
  0
LINE
  8
_0-2_躯体
  6
CONTINUOUS
 62
    3
 10
1647.4983
 20
3449.7592
 11
1549.9983
 21
3009.759
  0
LINE
  8
_0-2_躯体
  6
CONTINUOUS
 62
    3
 10
2552.4983
 20
3449.7592
 11
2649.9983
 21
3009.173
  0
LINE
  8
_0-8_寸法
  6
CONTINUOUS
 62
    7
 10
2552.5016
 20
3761.6779
 11
1647.5016
 21
3761.6779
  0
LINE
  8
_0-8_寸法
  6
CONTINUOUS
 62
    7
 10
2650.0015
 20
2911.1077
 11
2650.0015
 21
2741.4026
  0
LINE
  8
_0-8_寸法
  6
CONTINUOUS
 62
    7
 10
1550.0017
 20
2911.1077
 11
1550.0017
 21
2741.4026
  0
LINE
  8
_0-8_寸法
  6
CONTINUOUS
 62
    7
 10
1212.9464
 20
2497.8067
 11
1013.2733
 21
2497.8067
  0
LINE
  8
_0-8_寸法
  6
CONTINUOUS
 62
    7
 10
1212.9464
 20
877.80724
 11
1013.2733
 21
877.80724
  0
LINE
  8
_0-8_寸法
  6
CONTINUOUS
 62
    7
 10
2985.9256
 20
2237.8076
 11
3186.724
 21
2237.8076
  0
LINE
  8
_0-8_寸法
  6
CONTINUOUS
 62
    7
 10
2985.9256
 20
1137.8081
 11
3186.724
 21
1137.8081
  0
LINE
  8
_0-8_寸法
  6
CONTINUOUS
 62
    7
 10
2552.5016
 20
3615.4286
 11
2552.5016
 21
3761.6779
  0
LINE
  8
_0-8_寸法
  6
CONTINUOUS
 62
    7
 10
1647.5016
 20
3615.4286
 11
1647.5016
 21
3761.6779
  0
LINE
  8
_0-2_躯体
  6
CONTINUOUS
 62
    3
 10
1647.4983
 20
3549.7593
 11
1647.4983
 21
3531.1753
  0
LINE
  8
_0-2_躯体
  6
CONTINUOUS
 62
    3
 10
1647.4983
 20
3512.5911
 11
1647.4983
 21
3449.7592
  0
LINE
  8
_0-2_躯体
  6
CONTINUOUS
 62
    3
 10
1647.4983
 20
3512.5911
 11
2552.4983
 21
3512.5911
  0
LINE
  8
_0-2_躯体
  6
CONTINUOUS
 62
    3
 10
2552.4983
 20
3512.5911
 11
2552.4983
 21
3449.7592
  0
LINE
  8
_0-2_躯体
  6
CONTINUOUS
 62
    3
 10
1647.4983
 20
3531.1753
 11
2552.4986
 21
3531.1753
  0
LINE
  8
_0-2_躯体
  6
CONTINUOUS
 62
    3
 10
2552.4986
 20
3549.7593
 11
2552.4986
 21
3531.1753
  0
LINE
  8
_0-2_躯体
  6
CONTINUOUS
 62
    3
 10
2910.0016
 20
2497.8067
 11
1290.0017
 21
2497.8067
  0
LINE
  8
_0-2_躯体
  6
CONTINUOUS
 62
    3
 10
2910.0016
 20
2497.8067
 11
2910.0016
 21
877.80724
  0
LINE
  8
_0-2_躯体
  6
CONTINUOUS
 62
    3
 10
2910.0016
 20
877.80724
 11
1290.0017
 21
877.80724
  0
LINE
  8
_0-2_躯体
  6
CONTINUOUS
 62
    3
 10
1290.0017
 20
2497.8067
 11
1290.0017
 21
877.80724
  0
LINE
  8
_0-2_躯体
  6
CONTINUOUS
 62
    3
 10
2650.0015
 20
2237.8076
 11
2650.0015
 21
1137.8081
  0
LINE
  8
_0-2_躯体
  6
CONTINUOUS
 62
    3
 10
1550.0017
 20
2237.8076
 11
1550.0017
 21
1137.8081
  0
LINE
  8
_0-2_躯体
  6
CONTINUOUS
 62
    3
 10
1550.0016
 20
2237.8076
 11
1673.8888
 21
2113.9204
  0
LINE
  8
_0-2_躯体
  6
CONTINUOUS
 62
    3
 10
2650.0015
 20
2237.8076
 11
1550.0016
 21
2237.8076
  0
LINE
  8
_0-2_躯体
  6
CONTINUOUS
 62
    3
 10
2650.0015
 20
2237.8076
 11
2526.1143
 21
2113.9204
  0
LINE
  8
_0-2_躯体
  6
CONTINUOUS
 62
    3
 10
2650.0015
 20
1137.8081
 11
2526.1143
 21
1261.695
  0
LINE
  8
_0-2_躯体
  6
CONTINUOUS
 62
    3
 10
2650.0015
 20
1137.8081
 11
1550.0017
 21
1137.8081
  0
LINE
  8
_0-2_躯体
  6
CONTINUOUS
 62
    3
 10
1550.0017
 20
1137.8081
 11
1673.8888
 21
1261.695
  0
LINE
  8
_0-8_寸法
  6
CONTINUOUS
 62
    7
 10
1013.2733
 20
877.80724
 11
1013.2733
 21
2497.8067
  0
LINE
  8
_0-8_寸法
  6
CONTINUOUS
 62
    7
 10
3186.724
 20
1137.8081
 11
3186.724
 21
2237.8076
  0
LINE
  8
_0-8_寸法
  6
CENTER2
 62
    7
 10
2910.0016
 20
1687.8071
 11
1290.0017
 21
1687.8071
  0
LINE
  8
_0-2_躯体
  6
CONTINUOUS
 62
    3
 10
2099.9982
 20
3177.0293
 11
1289.9983
 21
2931.8827
  0
LINE
  8
_0-2_躯体
  6
CONTINUOUS
 62
    3
 10
2909.9982
 20
2933.5341
 11
2099.9982
 21
3177.0293
  0
LINE
  8
_0-8_寸法
  6
CENTER2
 62
    7
 10
2100
 20
5124.3243
 11
2100
 21
729.72972
  0
LINE
  8
_0-2_躯体
  6
CONTINUOUS
 62
    3
 10
1400.0021
 20
4661.4409
 11
1400.0021
 21
4661.4409
  0
LINE
  8
_0-2_躯体
  6
CONTINUOUS
 62
    3
 10
1400.0021
 20
4661.4409
 11
1398.3886
 21
4661.2927
  0
LINE
  8
_0-2_躯体
  6
CONTINUOUS
 62
    3
 10
1398.3886
 20
4661.2927
 11
1396.8242
 21
4660.8529
  0
LINE
  8
_0-2_躯体
  6
CONTINUOUS
 62
    3
 10
1396.8242
 20
4660.8529
 11
1395.3563
 21
4660.1346
  0
LINE
  8
_0-2_躯体
  6
CONTINUOUS
 62
    3
 10
1395.3563
 20
4660.1346
 11
1394.0295
 21
4659.1598
  0
LINE
  8
_0-2_躯体
  6
CONTINUOUS
 62
    3
 10
1394.0295
 20
4659.1598
 11
1392.8843
 21
4657.9581
  0
LINE
  8
_0-2_躯体
  6
CONTINUOUS
 62
    3
 10
1392.8843
 20
4657.9581
 11
1391.9553
 21
4656.5659
  0
LINE
  8
_0-2_躯体
  6
CONTINUOUS
 62
    3
 10
1391.9553
 20
4656.5659
 11
1391.2708
 21
4655.0256
  0
LINE
  8
_0-2_躯体
  6
CONTINUOUS
 62
    3
 10
1391.2708
 20
4655.0256
 11
1390.8516
 21
4653.384
  0
LINE
  8
_0-2_躯体
  6
CONTINUOUS
 62
    3
 10
1390.8516
 20
4653.384
 11
1390.7104
 21
4651.691
  0
LINE
  8
_0-2_躯体
  6
CONTINUOUS
 62
    3
 10
1390.7104
 20
4651.691
 11
1390.8516
 21
4649.9979
  0
LINE
  8
_0-2_躯体
  6
CONTINUOUS
 62
    3
 10
1390.8516
 20
4649.9979
 11
1391.2708
 21
4648.3563
  0
LINE
  8
_0-2_躯体
  6
CONTINUOUS
 62
    3
 10
1391.2708
 20
4648.3563
 11
1391.9553
 21
4646.816
  0
LINE
  8
_0-2_躯体
  6
CONTINUOUS
 62
    3
 10
1391.9553
 20
4646.816
 11
1392.8843
 21
4645.4238
  0
LINE
  8
_0-2_躯体
  6
CONTINUOUS
 62
    3
 10
1392.8843
 20
4645.4238
 11
1394.0295
 21
4644.2221
  0
LINE
  8
_0-2_躯体
  6
CONTINUOUS
 62
    3
 10
1394.0295
 20
4644.2221
 11
1395.3563
 21
4643.2473
  0
LINE
  8
_0-2_躯体
  6
CONTINUOUS
 62
    3
 10
1395.3563
 20
4643.2473
 11
1396.8242
 21
4642.529
  0
LINE
  8
_0-2_躯体
  6
CONTINUOUS
 62
    3
 10
1396.8242
 20
4642.529
 11
1398.3886
 21
4642.0892
  0
LINE
  8
_0-2_躯体
  6
CONTINUOUS
 62
    3
 10
1398.3886
 20
4642.0892
 11
1400.0021
 21
4641.9411
  0
LINE
  8
_0-2_躯体
  6
CONTINUOUS
 62
    3
 10
1400.0021
 20
4641.9411
 11
1400.0021
 21
4641.9411
  0
LINE
  8
_0-2_躯体
  6
CONTINUOUS
 62
    3
 10
1400.0021
 20
4583.4409
 11
1400.0021
 21
4583.4409
  0
LINE
  8
_0-2_躯体
  6
CONTINUOUS
 62
    3
 10
1400.0021
 20
4583.4409
 11
1398.3886
 21
4583.2928
  0
LINE
  8
_0-2_躯体
  6
CONTINUOUS
 62
    3
 10
1398.3886
 20
4583.2928
 11
1396.8242
 21
4582.8529
  0
LINE
  8
_0-2_躯体
  6
CONTINUOUS
 62
    3
 10
1396.8242
 20
4582.8529
 11
1395.3563
 21
4582.1347
  0
LINE
  8
_0-2_躯体
  6
CONTINUOUS
 62
    3
 10
1395.3563
 20
4582.1347
 11
1394.0295
 21
4581.1599
  0
LINE
  8
_0-2_躯体
  6
CONTINUOUS
 62
    3
 10
1394.0295
 20
4581.1599
 11
1392.8843
 21
4579.9581
  0
LINE
  8
_0-2_躯体
  6
CONTINUOUS
 62
    3
 10
1392.8843
 20
4579.9581
 11
1391.9553
 21
4578.5659
  0
LINE
  8
_0-2_躯体
  6
CONTINUOUS
 62
    3
 10
1391.9553
 20
4578.5659
 11
1391.2708
 21
4577.0257
  0
LINE
  8
_0-2_躯体
  6
CONTINUOUS
 62
    3
 10
1391.2708
 20
4577.0257
 11
1390.8516
 21
4575.384
  0
LINE
  8
_0-2_躯体
  6
CONTINUOUS
 62
    3
 10
1390.8516
 20
4575.384
 11
1390.7104
 21
4573.691
  0
LINE
  8
_0-2_躯体
  6
CONTINUOUS
 62
    3
 10
1390.7104
 20
4573.691
 11
1390.8516
 21
4571.9979
  0
LINE
  8
_0-2_躯体
  6
CONTINUOUS
 62
    3
 10
1390.8516
 20
4571.9979
 11
1391.2708
 21
4570.3563
  0
LINE
  8
_0-2_躯体
  6
CONTINUOUS
 62
    3
 10
1391.2708
 20
4570.3563
 11
1391.9553
 21
4568.816
  0
LINE
  8
_0-2_躯体
  6
CONTINUOUS
 62
    3
 10
1391.9553
 20
4568.816
 11
1392.8843
 21
4567.4239
  0
LINE
  8
_0-2_躯体
  6
CONTINUOUS
 62
    3
 10
1392.8843
 20
4567.4239
 11
1394.0295
 21
4566.2221
  0
LINE
  8
_0-2_躯体
  6
CONTINUOUS
 62
    3
 10
1394.0295
 20
4566.2221
 11
1395.3563
 21
4565.2473
  0
LINE
  8
_0-2_躯体
  6
CONTINUOUS
 62
    3
 10
1395.3563
 20
4565.2473
 11
1396.8242
 21
4564.5291
  0
LINE
  8
_0-2_躯体
  6
CONTINUOUS
 62
    3
 10
1396.8242
 20
4564.5291
 11
1398.3886
 21
4564.0892
  0
LINE
  8
_0-2_躯体
  6
CONTINUOUS
 62
    3
 10
1398.3886
 20
4564.0892
 11
1400.0021
 21
4563.9411
  0
LINE
  8
_0-2_躯体
  6
CONTINUOUS
 62
    3
 10
1400.0021
 20
4563.9411
 11
1400.0021
 21
4563.9411
  0
LINE
  8
_0-2_躯体
  6
CONTINUOUS
 62
    3
 10
1642.5
 20
4371.4409
 11
1642.5
 21
4371.4409
  0
LINE
  8
_0-2_躯体
  6
CONTINUOUS
 62
    3
 10
1642.5
 20
4371.4409
 11
1640.8866
 21
4371.2928
  0
LINE
  8
_0-2_躯体
  6
CONTINUOUS
 62
    3
 10
1640.8866
 20
4371.2928
 11
1639.3221
 21
4370.8529
  0
LINE
  8
_0-2_躯体
  6
CONTINUOUS
 62
    3
 10
1639.3221
 20
4370.8529
 11
1637.8542
 21
4370.1346
  0
LINE
  8
_0-2_躯体
  6
CONTINUOUS
 62
    3
 10
1637.8542
 20
4370.1346
 11
1636.5275
 21
4369.1598
  0
LINE
  8
_0-2_躯体
  6
CONTINUOUS
 62
    3
 10
1636.5275
 20
4369.1598
 11
1635.3822
 21
4367.9581
  0
LINE
  8
_0-2_躯体
  6
CONTINUOUS
 62
    3
 10
1635.3822
 20
4367.9581
 11
1634.4532
 21
4366.5659
  0
LINE
  8
_0-2_躯体
  6
CONTINUOUS
 62
    3
 10
1634.4532
 20
4366.5659
 11
1633.7687
 21
4365.0256
  0
LINE
  8
_0-2_躯体
  6
CONTINUOUS
 62
    3
 10
1633.7687
 20
4365.0256
 11
1633.3496
 21
4363.384
  0
LINE
  8
_0-2_躯体
  6
CONTINUOUS
 62
    3
 10
1633.3496
 20
4363.384
 11
1633.2084
 21
4361.691
  0
LINE
  8
_0-2_躯体
  6
CONTINUOUS
 62
    3
 10
1633.2084
 20
4361.691
 11
1633.3496
 21
4359.9979
  0
LINE
  8
_0-2_躯体
  6
CONTINUOUS
 62
    3
 10
1633.3496
 20
4359.9979
 11
1633.7687
 21
4358.3563
  0
LINE
  8
_0-2_躯体
  6
CONTINUOUS
 62
    3
 10
1633.7687
 20
4358.3563
 11
1634.4532
 21
4356.816
  0
LINE
  8
_0-2_躯体
  6
CONTINUOUS
 62
    3
 10
1634.4532
 20
4356.816
 11
1635.3822
 21
4355.4239
  0
LINE
  8
_0-2_躯体
  6
CONTINUOUS
 62
    3
 10
1635.3822
 20
4355.4239
 11
1636.5275
 21
4354.2221
  0
LINE
  8
_0-2_躯体
  6
CONTINUOUS
 62
    3
 10
1636.5275
 20
4354.2221
 11
1637.8542
 21
4353.2473
  0
LINE
  8
_0-2_躯体
  6
CONTINUOUS
 62
    3
 10
1637.8542
 20
4353.2473
 11
1639.3221
 21
4352.5291
  0
LINE
  8
_0-2_躯体
  6
CONTINUOUS
 62
    3
 10
1639.3221
 20
4352.5291
 11
1640.8866
 21
4352.0892
  0
LINE
  8
_0-2_躯体
  6
CONTINUOUS
 62
    3
 10
1640.8866
 20
4352.0892
 11
1642.5
 21
4351.9411
  0
LINE
  8
_0-2_躯体
  6
CONTINUOUS
 62
    3
 10
1642.5
 20
4351.9411
 11
1642.5
 21
4351.9411
  0
LINE
  8
_0-2_躯体
  6
CONTINUOUS
 62
    3
 10
1642.5
 20
4293.4409
 11
1642.5
 21
4293.4409
  0
LINE
  8
_0-2_躯体
  6
CONTINUOUS
 62
    3
 10
1642.5
 20
4293.4409
 11
1640.8866
 21
4293.2928
  0
LINE
  8
_0-2_躯体
  6
CONTINUOUS
 62
    3
 10
1640.8866
 20
4293.2928
 11
1639.3221
 21
4292.8529
  0
LINE
  8
_0-2_躯体
  6
CONTINUOUS
 62
    3
 10
1639.3221
 20
4292.8529
 11
1637.8542
 21
4292.1347
  0
LINE
  8
_0-2_躯体
  6
CONTINUOUS
 62
    3
 10
1637.8542
 20
4292.1347
 11
1636.5275
 21
4291.1599
  0
LINE
  8
_0-2_躯体
  6
CONTINUOUS
 62
    3
 10
1636.5275
 20
4291.1599
 11
1635.3822
 21
4289.9581
  0
LINE
  8
_0-2_躯体
  6
CONTINUOUS
 62
    3
 10
1635.3822
 20
4289.9581
 11
1634.4532
 21
4288.566
  0
LINE
  8
_0-2_躯体
  6
CONTINUOUS
 62
    3
 10
1634.4532
 20
4288.566
 11
1633.7687
 21
4287.0257
  0
LINE
  8
_0-2_躯体
  6
CONTINUOUS
 62
    3
 10
1633.7687
 20
4287.0257
 11
1633.3496
 21
4285.3841
  0
LINE
  8
_0-2_躯体
  6
CONTINUOUS
 62
    3
 10
1633.3496
 20
4285.3841
 11
1633.2084
 21
4283.691
  0
LINE
  8
_0-2_躯体
  6
CONTINUOUS
 62
    3
 10
1633.2084
 20
4283.691
 11
1633.3496
 21
4281.998
  0
LINE
  8
_0-2_躯体
  6
CONTINUOUS
 62
    3
 10
1633.3496
 20
4281.998
 11
1633.7687
 21
4280.3564
  0
LINE
  8
_0-2_躯体
  6
CONTINUOUS
 62
    3
 10
1633.7687
 20
4280.3564
 11
1634.4532
 21
4278.8161
  0
LINE
  8
_0-2_躯体
  6
CONTINUOUS
 62
    3
 10
1634.4532
 20
4278.8161
 11
1635.3822
 21
4277.4239
  0
LINE
  8
_0-2_躯体
  6
CONTINUOUS
 62
    3
 10
1635.3822
 20
4277.4239
 11
1636.5275
 21
4276.2222
  0
LINE
  8
_0-2_躯体
  6
CONTINUOUS
 62
    3
 10
1636.5275
 20
4276.2222
 11
1637.8542
 21
4275.2474
  0
LINE
  8
_0-2_躯体
  6
CONTINUOUS
 62
    3
 10
1637.8542
 20
4275.2474
 11
1639.3221
 21
4274.5291
  0
LINE
  8
_0-2_躯体
  6
CONTINUOUS
 62
    3
 10
1639.3221
 20
4274.5291
 11
1640.8866
 21
4274.0892
  0
LINE
  8
_0-2_躯体
  6
CONTINUOUS
 62
    3
 10
1640.8866
 20
4274.0892
 11
1642.5
 21
4273.9411
  0
LINE
  8
_0-2_躯体
  6
CONTINUOUS
 62
    3
 10
1642.5
 20
4273.9411
 11
1642.5
 21
4273.9411
  0
LINE
  8
_0-2_躯体
  6
CONTINUOUS
 62
    3
 10
2799.9978
 20
4641.9411
 11
2799.9978
 21
4641.9411
  0
LINE
  8
_0-2_躯体
  6
CONTINUOUS
 62
    3
 10
2799.9978
 20
4641.9411
 11
2801.6113
 21
4642.0892
  0
LINE
  8
_0-2_躯体
  6
CONTINUOUS
 62
    3
 10
2801.6113
 20
4642.0892
 11
2803.1757
 21
4642.529
  0
LINE
  8
_0-2_躯体
  6
CONTINUOUS
 62
    3
 10
2803.1757
 20
4642.529
 11
2804.6436
 21
4643.2473
  0
LINE
  8
_0-2_躯体
  6
CONTINUOUS
 62
    3
 10
2804.6436
 20
4643.2473
 11
2805.9704
 21
4644.2221
  0
LINE
  8
_0-2_躯体
  6
CONTINUOUS
 62
    3
 10
2805.9704
 20
4644.2221
 11
2807.1156
 21
4645.4238
  0
LINE
  8
_0-2_躯体
  6
CONTINUOUS
 62
    3
 10
2807.1156
 20
4645.4238
 11
2808.0446
 21
4646.816
  0
LINE
  8
_0-2_躯体
  6
CONTINUOUS
 62
    3
 10
2808.0446
 20
4646.816
 11
2808.7291
 21
4648.3563
  0
LINE
  8
_0-2_躯体
  6
CONTINUOUS
 62
    3
 10
2808.7291
 20
4648.3563
 11
2809.1483
 21
4649.9979
  0
LINE
  8
_0-2_躯体
  6
CONTINUOUS
 62
    3
 10
2809.1483
 20
4649.9979
 11
2809.2895
 21
4651.691
  0
LINE
  8
_0-2_躯体
  6
CONTINUOUS
 62
    3
 10
2809.2895
 20
4651.691
 11
2809.1483
 21
4653.384
  0
LINE
  8
_0-2_躯体
  6
CONTINUOUS
 62
    3
 10
2809.1483
 20
4653.384
 11
2808.7291
 21
4655.0256
  0
LINE
  8
_0-2_躯体
  6
CONTINUOUS
 62
    3
 10
2808.7291
 20
4655.0256
 11
2808.0446
 21
4656.5659
  0
LINE
  8
_0-2_躯体
  6
CONTINUOUS
 62
    3
 10
2808.0446
 20
4656.5659
 11
2807.1156
 21
4657.9581
  0
LINE
  8
_0-2_躯体
  6
CONTINUOUS
 62
    3
 10
2807.1156
 20
4657.9581
 11
2805.9704
 21
4659.1598
  0
LINE
  8
_0-2_躯体
  6
CONTINUOUS
 62
    3
 10
2805.9704
 20
4659.1598
 11
2804.6436
 21
4660.1346
  0
LINE
  8
_0-2_躯体
  6
CONTINUOUS
 62
    3
 10
2804.6436
 20
4660.1346
 11
2803.1757
 21
4660.8529
  0
LINE
  8
_0-2_躯体
  6
CONTINUOUS
 62
    3
 10
2803.1757
 20
4660.8529
 11
2801.6113
 21
4661.2927
  0
LINE
  8
_0-2_躯体
  6
CONTINUOUS
 62
    3
 10
2801.6113
 20
4661.2927
 11
2799.9978
 21
4661.4409
  0
LINE
  8
_0-2_躯体
  6
CONTINUOUS
 62
    3
 10
2799.9978
 20
4661.4409
 11
2799.9978
 21
4661.4409
  0
LINE
  8
_0-2_躯体
  6
CONTINUOUS
 62
    3
 10
2799.9978
 20
4563.9411
 11
2799.9978
 21
4563.9411
  0
LINE
  8
_0-2_躯体
  6
CONTINUOUS
 62
    3
 10
2799.9978
 20
4563.9411
 11
2801.6113
 21
4564.0892
  0
LINE
  8
_0-2_躯体
  6
CONTINUOUS
 62
    3
 10
2801.6113
 20
4564.0892
 11
2803.1757
 21
4564.5291
  0
LINE
  8
_0-2_躯体
  6
CONTINUOUS
 62
    3
 10
2803.1757
 20
4564.5291
 11
2804.6436
 21
4565.2473
  0
LINE
  8
_0-2_躯体
  6
CONTINUOUS
 62
    3
 10
2804.6436
 20
4565.2473
 11
2805.9704
 21
4566.2221
  0
LINE
  8
_0-2_躯体
  6
CONTINUOUS
 62
    3
 10
2805.9704
 20
4566.2221
 11
2807.1156
 21
4567.4239
  0
LINE
  8
_0-2_躯体
  6
CONTINUOUS
 62
    3
 10
2807.1156
 20
4567.4239
 11
2808.0446
 21
4568.816
  0
LINE
  8
_0-2_躯体
  6
CONTINUOUS
 62
    3
 10
2808.0446
 20
4568.816
 11
2808.7291
 21
4570.3563
  0
LINE
  8
_0-2_躯体
  6
CONTINUOUS
 62
    3
 10
2808.7291
 20
4570.3563
 11
2809.1483
 21
4571.9979
  0
LINE
  8
_0-2_躯体
  6
CONTINUOUS
 62
    3
 10
2809.1483
 20
4571.9979
 11
2809.2895
 21
4573.691
  0
LINE
  8
_0-2_躯体
  6
CONTINUOUS
 62
    3
 10
2809.2895
 20
4573.691
 11
2809.1483
 21
4575.384
  0
LINE
  8
_0-2_躯体
  6
CONTINUOUS
 62
    3
 10
2809.1483
 20
4575.384
 11
2808.7291
 21
4577.0257
  0
LINE
  8
_0-2_躯体
  6
CONTINUOUS
 62
    3
 10
2808.7291
 20
4577.0257
 11
2808.0446
 21
4578.5659
  0
LINE
  8
_0-2_躯体
  6
CONTINUOUS
 62
    3
 10
2808.0446
 20
4578.5659
 11
2807.1156
 21
4579.9581
  0
LINE
  8
_0-2_躯体
  6
CONTINUOUS
 62
    3
 10
2807.1156
 20
4579.9581
 11
2805.9704
 21
4581.1599
  0
LINE
  8
_0-2_躯体
  6
CONTINUOUS
 62
    3
 10
2805.9704
 20
4581.1599
 11
2804.6436
 21
4582.1347
  0
LINE
  8
_0-2_躯体
  6
CONTINUOUS
 62
    3
 10
2804.6436
 20
4582.1347
 11
2803.1757
 21
4582.8529
  0
LINE
  8
_0-2_躯体
  6
CONTINUOUS
 62
    3
 10
2803.1757
 20
4582.8529
 11
2801.6113
 21
4583.2928
  0
LINE
  8
_0-2_躯体
  6
CONTINUOUS
 62
    3
 10
2801.6113
 20
4583.2928
 11
2799.9978
 21
4583.4409
  0
LINE
  8
_0-2_躯体
  6
CONTINUOUS
 62
    3
 10
2799.9978
 20
4583.4409
 11
2799.9978
 21
4583.4409
  0
LINE
  8
_0-2_躯体
  6
CONTINUOUS
 62
    3
 10
2557.5001
 20
4351.9411
 11
2557.5001
 21
4351.9411
  0
LINE
  8
_0-2_躯体
  6
CONTINUOUS
 62
    3
 10
2557.5001
 20
4351.9411
 11
2559.1136
 21
4352.0892
  0
LINE
  8
_0-2_躯体
  6
CONTINUOUS
 62
    3
 10
2559.1136
 20
4352.0892
 11
2560.678
 21
4352.5291
  0
LINE
  8
_0-2_躯体
  6
CONTINUOUS
 62
    3
 10
2560.678
 20
4352.5291
 11
2562.1459
 21
4353.2473
  0
LINE
  8
_0-2_躯体
  6
CONTINUOUS
 62
    3
 10
2562.1459
 20
4353.2473
 11
2563.4727
 21
4354.2221
  0
LINE
  8
_0-2_躯体
  6
CONTINUOUS
 62
    3
 10
2563.4727
 20
4354.2221
 11
2564.6179
 21
4355.4239
  0
LINE
  8
_0-2_躯体
  6
CONTINUOUS
 62
    3
 10
2564.6179
 20
4355.4239
 11
2565.5469
 21
4356.816
  0
LINE
  8
_0-2_躯体
  6
CONTINUOUS
 62
    3
 10
2565.5469
 20
4356.816
 11
2566.2314
 21
4358.3563
  0
LINE
  8
_0-2_躯体
  6
CONTINUOUS
 62
    3
 10
2566.2314
 20
4358.3563
 11
2566.6506
 21
4359.9979
  0
LINE
  8
_0-2_躯体
  6
CONTINUOUS
 62
    3
 10
2566.6506
 20
4359.9979
 11
2566.7918
 21
4361.691
  0
LINE
  8
_0-2_躯体
  6
CONTINUOUS
 62
    3
 10
2566.7918
 20
4361.691
 11
2566.6506
 21
4363.384
  0
LINE
  8
_0-2_躯体
  6
CONTINUOUS
 62
    3
 10
2566.6506
 20
4363.384
 11
2566.2314
 21
4365.0256
  0
LINE
  8
_0-2_躯体
  6
CONTINUOUS
 62
    3
 10
2566.2314
 20
4365.0256
 11
2565.5469
 21
4366.5659
  0
LINE
  8
_0-2_躯体
  6
CONTINUOUS
 62
    3
 10
2565.5469
 20
4366.5659
 11
2564.6179
 21
4367.9581
  0
LINE
  8
_0-2_躯体
  6
CONTINUOUS
 62
    3
 10
2564.6179
 20
4367.9581
 11
2563.4727
 21
4369.1598
  0
LINE
  8
_0-2_躯体
  6
CONTINUOUS
 62
    3
 10
2563.4727
 20
4369.1598
 11
2562.1459
 21
4370.1346
  0
LINE
  8
_0-2_躯体
  6
CONTINUOUS
 62
    3
 10
2562.1459
 20
4370.1346
 11
2560.678
 21
4370.8529
  0
LINE
  8
_0-2_躯体
  6
CONTINUOUS
 62
    3
 10
2560.678
 20
4370.8529
 11
2559.1136
 21
4371.2928
  0
LINE
  8
_0-2_躯体
  6
CONTINUOUS
 62
    3
 10
2559.1136
 20
4371.2928
 11
2557.5001
 21
4371.4409
  0
LINE
  8
_0-2_躯体
  6
CONTINUOUS
 62
    3
 10
2557.5001
 20
4371.4409
 11
2557.5001
 21
4371.4409
  0
LINE
  8
_0-2_躯体
  6
CONTINUOUS
 62
    3
 10
2557.5001
 20
4273.9411
 11
2557.5001
 21
4273.9411
  0
LINE
  8
_0-2_躯体
  6
CONTINUOUS
 62
    3
 10
2557.5001
 20
4273.9411
 11
2559.1136
 21
4274.0892
  0
LINE
  8
_0-2_躯体
  6
CONTINUOUS
 62
    3
 10
2559.1136
 20
4274.0892
 11
2560.678
 21
4274.5291
  0
LINE
  8
_0-2_躯体
  6
CONTINUOUS
 62
    3
 10
2560.678
 20
4274.5291
 11
2562.1459
 21
4275.2474
  0
LINE
  8
_0-2_躯体
  6
CONTINUOUS
 62
    3
 10
2562.1459
 20
4275.2474
 11
2563.4727
 21
4276.2222
  0
LINE
  8
_0-2_躯体
  6
CONTINUOUS
 62
    3
 10
2563.4727
 20
4276.2222
 11
2564.6179
 21
4277.4239
  0
LINE
  8
_0-2_躯体
  6
CONTINUOUS
 62
    3
 10
2564.6179
 20
4277.4239
 11
2565.5469
 21
4278.8161
  0
LINE
  8
_0-2_躯体
  6
CONTINUOUS
 62
    3
 10
2565.5469
 20
4278.8161
 11
2566.2314
 21
4280.3564
  0
LINE
  8
_0-2_躯体
  6
CONTINUOUS
 62
    3
 10
2566.2314
 20
4280.3564
 11
2566.6506
 21
4281.998
  0
LINE
  8
_0-2_躯体
  6
CONTINUOUS
 62
    3
 10
2566.6506
 20
4281.998
 11
2566.7918
 21
4283.691
  0
LINE
  8
_0-2_躯体
  6
CONTINUOUS
 62
    3
 10
2566.7918
 20
4283.691
 11
2566.6506
 21
4285.3841
  0
LINE
  8
_0-2_躯体
  6
CONTINUOUS
 62
    3
 10
2566.6506
 20
4285.3841
 11
2566.2314
 21
4287.0257
  0
LINE
  8
_0-2_躯体
  6
CONTINUOUS
 62
    3
 10
2566.2314
 20
4287.0257
 11
2565.5469
 21
4288.566
  0
LINE
  8
_0-2_躯体
  6
CONTINUOUS
 62
    3
 10
2565.5469
 20
4288.566
 11
2564.6179
 21
4289.9581
  0
LINE
  8
_0-2_躯体
  6
CONTINUOUS
 62
    3
 10
2564.6179
 20
4289.9581
 11
2563.4727
 21
4291.1599
  0
LINE
  8
_0-2_躯体
  6
CONTINUOUS
 62
    3
 10
2563.4727
 20
4291.1599
 11
2562.1459
 21
4292.1347
  0
LINE
  8
_0-2_躯体
  6
CONTINUOUS
 62
    3
 10
2562.1459
 20
4292.1347
 11
2560.678
 21
4292.8529
  0
LINE
  8
_0-2_躯体
  6
CONTINUOUS
 62
    3
 10
2560.678
 20
4292.8529
 11
2559.1136
 21
4293.2928
  0
LINE
  8
_0-2_躯体
  6
CONTINUOUS
 62
    3
 10
2559.1136
 20
4293.2928
 11
2557.5001
 21
4293.4409
  0
LINE
  8
_0-2_躯体
  6
CONTINUOUS
 62
    3
 10
2557.5001
 20
4293.4409
 11
2557.5001
 21
4293.4409
  0
ARC
  8
_0-2_躯体
  6
CONTINUOUS
 62
    3
 10
1647.4983
 20
3521.883
 40
9.2919124
 50
270
 51
90
  0
ARC
  8
_0-2_躯体
  6
CONTINUOUS
 62
    3
 10
2552.4986
 20
3521.883
 40
9.2919124
 50
90
 51
270
  0
CIRCLE
  8
_0-2_躯体
  6
CONTINUOUS
 62
    3
 10
2100.0017
 20
1687.8069
 40
452.50003
  0
TEXT
  8
_0-d_文字
 62
    7
 10
509.99956
 20
314.9998
 40
50
 41
1
 50
0
  1
図
  0
TEXT
  8
_0-d_文字
 62
    7
 10
509.99956
 20
194.99994
 40
50
 41
1
 50
0
  1
番
  0
TEXT
  8
_0-d_文字
 62
    7
 10
1310.0008
 20
314.9998
 40
50
 41
1
 50
0
  1
承
  0
TEXT
  8
_0-d_文字
 62
    7
 10
1310.0008
 20
194.99994
 40
50
 41
1
 50
0
  1
認
  0
TEXT
  8
_0-d_文字
 62
    7
 10
2040.0005
 20
474.99992
 40
50
 41
1
 50
0
  1
尺
  0
TEXT
  8
_0-d_文字
 62
    7
 10
2040.0005
 20
394.99957
 40
50
 41
1
 50
0.0000708
  1
度
  0
TEXT
  8
_0-d_文字
 62
    7
 10
1710.0002
 20
314.9998
 40
50
 41
1
 50
0
  1
製
  0
TEXT
  8
_0-d_文字
 62
    7
 10
1710.0002
 20
194.99994
 40
50
 41
1
 50
0
  1
図
  0
TEXT
  8
_0-d_文字
 62
    7
 10
3110.0003
 20
474.99992
 40
50
 41
1
 50
0
  1
日
  0
TEXT
  8
_0-d_文字
 62
    7
 10
3110.0003
 20
394.99957
 40
50
 41
1
 50
0.0000708
  1
付
  0
TEXT
  8
_0-d_文字
 62
    7
 10
2222.8526
 20
326.9645
 40
40
 41
1
 50
0
  1
株式
  0
TEXT
  8
_0-d_文字
 62
    7
 10
2222.8526
 20
283.70361
 40
40
 41
1
 50
0.0000196
  1
会社
  0
TEXT
  8
_0-d_文字
 62
    3
 10
2348.4493
 20
286.49423
 40
80
 41
1
 50
0
  1
スズキベンチレーター
  0
TEXT
  8
_0-d_文字
 62
    7
 10
2475.8363
 20
188.04837
 40
40
 41
1
 50
0
  1
TEL(054)296-7000  FAX(054)296-7001
  0
TEXT
  8
_0-8_寸法
 62
    3
 10
2010.1494
 20
4102.3763
 40
60
 41
1
 50
0
  1
915φ
  0
TEXT
  8
_0-8_寸法
 62
    3
 10
945.13327
 20
4538.5644
 40
60
 41
1
 50
90
  1
780
  0
TEXT
  8
_0-8_寸法
 62
    3
 10
2007.1962
 20
5268.5782
 40
60
 41
1
 50
0
  1
1,400
  0
TEXT
  8
_0-8_寸法
 62
    3
 10
3299.8683
 20
3433.2822
 40
60
 41
1
 50
90
  1
100
  0
TEXT
  8
_0-8_寸法
 62
    3
 10
1996.7693
 20
1710.7222
 40
60
 41
1
 50
19.303739
  1
905φ
  0
TEXT
  8
_0-8_寸法
 62
    3
 10
3265.3378
 20
1639.1397
 40
60
 41
1
 50
90
  1
1,100
  0
TEXT
  8
_0-8_寸法
 62
    3
 10
1985.8223
 20
2797.1552
 40
60
 41
1
 50
0
  1
1,100
  0
TEXT
  8
_0-8_寸法
 62
    3
 10
3299.8683
 20
3184.4322
 40
60
 41
1
 50
90
  1
440
  0
TEXT
  8
_0-8_寸法
 62
    3
 10
2024.8523
 20
3817.43
 40
60
 41
1
 50
0
  1
905φ
  0
TEXT
  8
_0-8_寸法
 62
    3
 10
957.52122
 20
1581.7347
 40
60
 41
1
 50
90
  1
≒ 1,620
  0
TEXT
  8
_0-d_文字
 62
    7
 10
2471.3586
 20
237.29186
 40
40
 41
1
 50
0
  1
〒421-2114　静岡市葵区安倍口新田１５２番地
  0
TEXT
  8
_0-d_文字
 62
    3
 10
2168.6979
 20
420.20131
 40
80
 41
1
 50
0.000005
  1
１／２０
  0
TEXT
  8
_0-d_文字
 62
    3
 10
538.31053
 20
5572.225
 40
100
 41
1
 50
0
  1
ＳＴ－９０Ｌ　直付型（低騒音）立面、袴立面・平面
  0
TEXT
  8
_0-d_文字
 62
    7
 10
531.73637
 20
425.32922
 40
50
 41
1
 50
0
  1
ＳＴ－９０Ｌ　直付型（低騒音）立面、袴立面・平面
  0
TEXT
  8
_0-d_文字
 62
    3
 10
616.91857
 20
280.60427
 40
60
 41
1
 50
0
  1
90L-01
  0
POINT
  8
_0-8_寸法
 62
    2
 10
1013.2751
 20
4228.4402
  0
POINT
  8
_0-8_寸法
 62
    2
 10
1013.2751
 20
5008.4408
  0
POINT
  8
_0-8_寸法
 62
    2
 10
1400.0021
 20
5247.6814
  0
POINT
  8
_0-8_寸法
 62
    2
 10
2799.9995
 20
5247.6814
  0
POINT
  8
_0-8_寸法
 62
    2
 10
1642.5
 20
4046.6246
  0
POINT
  8
_0-8_寸法
 62
    2
 10
2557.5001
 20
4046.6246
  0
POINT
  8
_0-8_寸法
 62
    2
 10
3186.7265
 20
3009.759
  0
POINT
  8
_0-8_寸法
 62
    2
 10
3186.7265
 20
3449.7592
  0
POINT
  8
_0-8_寸法
 62
    2
 10
3186.7265
 20
3549.7593
  0
POINT
  8
_0-8_寸法
 62
    2
 10
1013.2733
 20
877.80724
  0
POINT
  8
_0-8_寸法
 62
    2
 10
1013.2733
 20
2497.8067
  0
POINT
  8
_0-8_寸法
 62
    2
 10
3186.724
 20
1137.8081
  0
POINT
  8
_0-8_寸法
 62
    2
 10
3186.724
 20
2237.8076
  0
POINT
  8
_0-8_寸法
 62
    2
 10
2650.0015
 20
2741.4026
  0
POINT
  8
_0-8_寸法
 62
    2
 10
1550.0017
 20
2741.4026
  0
POINT
  8
_0-8_寸法
 62
    2
 10
1672.938
 20
1538.2212
  0
POINT
  8
_0-8_寸法
 62
    2
 10
2527.0586
 20
1837.3919
  0
POINT
  8
_0-8_寸法
 62
    2
 10
2552.5016
 20
3761.6779
  0
POINT
  8
_0-8_寸法
 62
    2
 10
1647.5016
 20
3761.6779
  0
ENDSEC
  0
EOF
