  0
SECTION
  2
HEADER
  9
$ACADVER
  1
AC1009
  9
$INSBASE
 10
0
 20
0
 30
0
  9
$EXTMIN
 10
0
 20
0
  9
$EXTMAX
 10
4200
 20
2970
  9
$LIMMIN
 10
0
 20
0
  9
$LIMMAX
 10
4200
 20
2970
  9
$LTSCALE
 40
10
  0
ENDSEC
  0
SECTION
  2
TABLES
  0
TABLE
  2
LTYPE
 70
     9
  0
LTYPE
  2
CONTINUOUS
 70
    64
  3
実線
 72
    65
 73
     0
 40
0.0
  0
LTYPE
  2
DASHED1
 70
    64
  3
--  --  --  --  --  --  --  --  
 72
    65
 73
     2
 40
2.5
 49
1.25
 49
-1.25
  0
LTYPE
  2
DASHED2
 70
    64
  3
----    ----    ----    ----    
 72
    65
 73
     2
 40
5.0
 49
2.5
 49
-2.5
  0
LTYPE
  2
DASHED3
 70
    64
  3
------  ------  ------  ------  
 72
    65
 73
     2
 40
5.0
 49
3.75
 49
-1.25
  0
LTYPE
  2
CENTER1
 70
    64
  3
----- - ----- - ----- - ----- - 
 72
    65
 73
     4
 40
10.0
 49
6.25
 49
-1.25
 49
1.25
 49
-1.25
  0
LTYPE
  2
CENTER2
 70
    64
  3
----------  --  ----------  --  
 72
    65
 73
     4
 40
20.0
 49
12.5
 49
-2.5
 49
2.5
 49
-2.5
  0
LTYPE
  2
PHANTOM1
 70
    64
  3
--- - - --- - - --- - - --- - - 
 72
    65
 73
     6
 40
10.0
 49
3.25
 49
-1.25
 49
1.25
 49
-1.25
 49
1.25
 49
-1.25
  0
LTYPE
  2
PHANTOM2
 70
    64
  3
--------  -  -  --------  -  -  
 72
    65
 73
     6
 40
20.0
 49
10.0
 49
-2.5
 49
1.25
 49
-2.5
 49
1.25
 49
-2.5
  0
LTYPE
  2
DOT
 70
    64
  3
-   -   -   -   -   -   -   -   
 72
    65
 73
     2
 40
2.5
 49
0.625
 49
-1.875
  0
LTYPE
  2
DUMMY
 70
    64
  3
ダミー
 72
    65
 73
     0
 40
0.0
  0
LTYPE
  2
RAND1
 70
    64
  3
----- - ----- - ----- - ----- - 
 72
    65
 73
     4
 40
10.0
 49
6.25
 49
-1.25
 49
1.25
 49
-1.25
  0
LTYPE
  2
RAND2
 70
    64
  3
----------  --  ----------  --  
 72
    65
 73
     4
 40
20.0
 49
12.5
 49
-2.5
 49
2.5
 49
-2.5
  0
LTYPE
  2
RAND3
 70
    64
  3
--- - - --- - - --- - - --- - - 
 72
    65
 73
     6
 40
10.0
 49
3.25
 49
-1.25
 49
1.25
 49
-1.25
 49
1.25
 49
-1.25
  0
LTYPE
  2
RAND4
 70
    64
  3
--------  -  -  --------  -  -  
 72
    65
 73
     6
 40
20.0
 49
10.0
 49
-2.5
 49
1.25
 49
-2.5
 49
1.25
 49
-2.5
  0
LTYPE
  2
RAND5
 70
    64
  3
----- - ----- - ----- - ----- - 
 72
    65
 73
     4
 40
10.0
 49
6.25
 49
-1.25
 49
1.25
 49
-1.25
  0
LTYPE
  2
LONG1
 70
    64
  3
----------  --  ----------  --  
 72
    65
 73
     4
 40
20.0
 49
12.5
 49
-2.5
 49
2.5
 49
-2.5
  0
LTYPE
  2
LONG2
 70
    64
  3
--- - - --- - - --- - - --- - - 
 72
    65
 73
     6
 40
10.0
 49
3.25
 49
-1.25
 49
1.25
 49
-1.25
 49
1.25
 49
-1.25
  0
LTYPE
  2
LONG3
 70
    64
  3
--------  -  -  --------  -  -  
 72
    65
 73
     6
 40
20.0
 49
10.0
 49
-2.5
 49
1.25
 49
-2.5
 49
1.25
 49
-2.5
  0
LTYPE
  2
LONG4
 70
    64
  3
----- - ----- - ----- - ----- - 
 72
    65
 73
     4
 40
10.0
 49
6.25
 49
-1.25
 49
1.25
 49
-1.25
  0
LTYPE
  2
LONG5
 70
    64
  3
----------  --  ----------  --  
 72
    65
 73
     4
 40
20.0
 49
12.5
 49
-2.5
 49
2.5
 49
-2.5
  0
ENDTAB
  0
TABLE
  2
STYLE
  5
3
100
AcDbSymbolTable
 70
     1
  0
STYLE
  5
10
100
AcDbSymbolTableRecord
100
AcDbTextStyleTableRecord
  2
STANDARD
 70
     0
 40
0.0
 41
1.0
 50
0.0
 71
     0
 42
0.2
  3
txt
  4
bigfont.shx
  0
STYLE
  5
26
100
AcDbSymbolTableRecord
100
AcDbTextStyleTableRecord
  2
TATEGAKI
 70
    68
 40
0.0
 41
1.0
 50
0.0
 71
     0
 42
1.0
  3
txt
  4
bigfont.shx
  0
ENDTAB
  0
TABLE
  2
LAYER
 70
    5
  0
LAYER
  2
_1-1_1-1___
 70
   64
 62
    7
  6
CONTINUOUS
  0
LAYER
  2
_1-2_仕上
 70
   64
 62
    7
  6
CONTINUOUS
  0
LAYER
  2
_1-8_
 70
   64
 62
    7
  6
CONTINUOUS
  0
LAYER
  2
_1-d_
 70
   64
 62
    7
  6
CONTINUOUS
  0
LAYER
  2
ADD_LINE
 70
   64
 62
    7
  6
CONTINUOUS
  0
ENDTAB
  0
ENDSEC
  0
SECTION
  2
BLOCKS
  0
ENDSEC
  0
SECTION
  2
ENTITIES
  0
LINE
  8
_1-d_
  6
CONTINUOUS
 62
    7
 10
250.00005
 20
2757.7012
 11
1850
 21
2757.7012
  0
LINE
  8
_1-d_
  6
CONTINUOUS
 62
    7
 10
250.00005
 20
2767.7015
 11
1850
 21
2767.7015
  0
LINE
  8
_1-d_
  6
CONTINUOUS
 62
    7
 10
249.99968
 20
189.99988
 11
1850.0004
 21
189.99988
  0
LINE
  8
_1-d_
  6
CONTINUOUS
 62
    7
 10
249.99968
 20
89.999802
 11
249.99968
 21
269.9999
  0
LINE
  8
_1-d_
  6
CONTINUOUS
 62
    7
 10
249.99968
 20
89.999802
 11
1850.0004
 21
89.999802
  0
LINE
  8
_1-d_
  6
CONTINUOUS
 62
    7
 10
1850.0004
 20
269.9999
 11
1850.0004
 21
89.999802
  0
LINE
  8
_1-d_
  6
CONTINUOUS
 62
    7
 10
249.99968
 20
269.9999
 11
1850.0004
 21
269.9999
  0
LINE
  8
_1-d_
  6
CONTINUOUS
 62
    7
 10
1050
 20
269.9999
 11
1050
 21
89.999802
  0
LINE
  8
_1-d_
  6
CONTINUOUS
 62
    7
 10
650.00016
 20
89.999802
 11
650.00016
 21
189.99988
  0
LINE
  8
_1-d_
  6
CONTINUOUS
 62
    7
 10
1050
 20
189.99988
 11
1050
 21
269.9999
  0
LINE
  8
_1-d_
  6
CONTINUOUS
 62
    7
 10
849.99977
 20
89.999802
 11
849.99977
 21
189.99988
  0
LINE
  8
_1-d_
  6
CONTINUOUS
 62
    7
 10
285.00001
 20
89.999802
 11
285.00001
 21
189.99988
  0
LINE
  8
_1-d_
  6
CONTINUOUS
 62
    7
 10
685.00003
 20
89.999802
 11
685.00003
 21
189.99988
  0
LINE
  8
_1-d_
  6
CONTINUOUS
 62
    7
 10
885.00013
 20
89.999802
 11
885.00013
 21
189.99988
  0
LINE
  8
_1-d_
  6
CONTINUOUS
 62
    7
 10
1015
 20
189.99988
 11
1015
 21
269.9999
  0
LINE
  8
_1-d_
  6
CONTINUOUS
 62
    7
 10
1550.0004
 20
189.99988
 11
1550.0004
 21
269.9999
  0
LINE
  8
_1-d_
  6
CONTINUOUS
 62
    7
 10
1585.0001
 20
189.99988
 11
1585.0001
 21
269.9999
  0
LINE
  8
_1-8_
  6
CONTINUOUS
 62
    7
 10
583.33362
 20
1840.0426
 11
583.33362
 21
2300.0427
  0
LINE
  8
_1-8_
  6
CONTINUOUS
 62
    7
 10
672.6667
 20
2403.063
 11
1427.3343
 21
2403.0625
  0
LINE
  8
_1-2_仕上
  6
CONTINUOUS
 62
    3
 10
672.6667
 20
2030.0433
 11
1050
 21
2030.0433
  0
LINE
  8
_1-2_仕上
  6
CONTINUOUS
 62
    3
 10
795.00002
 20
1950.0437
 11
795.00002
 21
2030.0433
  0
LINE
  8
_1-2_仕上
  6
CONTINUOUS
 62
    3
 10
672.6667
 20
2053.3766
 11
672.6667
 21
2030.0433
  0
LINE
  8
_1-2_仕上
  6
CONTINUOUS
 62
    3
 10
672.6667
 20
2093.3767
 11
672.6667
 21
2063.3764
  0
LINE
  8
_1-2_仕上
  6
CONTINUOUS
 62
    3
 10
672.6667
 20
2213.3764
 11
672.6667
 21
2103.3765
  0
LINE
  8
_1-2_仕上
  6
CONTINUOUS
 62
    3
 10
795.00002
 20
1950.0437
 11
1050
 21
1950.0437
  0
LINE
  8
_1-2_仕上
  6
CONTINUOUS
 62
    3
 10
795.00002
 20
1940.0437
 11
1050
 21
1940.0437
  0
LINE
  8
_1-2_仕上
  6
CONTINUOUS
 62
    3
 10
672.6667
 20
2103.3765
 11
1050
 21
2103.3765
  0
LINE
  8
_1-2_仕上
  6
CONTINUOUS
 62
    3
 10
672.6667
 20
2093.3767
 11
1050
 21
2093.3767
  0
LINE
  8
_1-2_仕上
  6
CONTINUOUS
 62
    3
 10
672.6667
 20
2063.3764
 11
1050
 21
2063.3764
  0
LINE
  8
_1-2_仕上
  6
CONTINUOUS
 62
    3
 10
672.6667
 20
2053.3766
 11
1050
 21
2053.3766
  0
LINE
  8
_1-2_仕上
  6
CONTINUOUS
 62
    3
 10
1373.3333
 20
1880.0425
 11
726.66667
 21
1880.0425
  0
LINE
  8
_1-8_
  6
CONTINUOUS
 62
    7
 10
726.66704
 20
1716.8362
 11
1373.3333
 21
1716.8362
  0
LINE
  8
_1-2_仕上
  6
CONTINUOUS
 62
    3
 10
726.66667
 20
1880.0425
 11
830.59164
 21
1940.0437
  0
LINE
  8
_1-2_仕上
  6
CONTINUOUS
 62
    3
 10
795.00002
 20
1940.0437
 11
795.00002
 21
1919.4948
  0
LINE
  8
_1-2_仕上
  6
CONTINUOUS
 62
    3
 10
830.59164
 20
1940.0437
 11
830.59164
 21
1880.0425
  0
LINE
  8
_1-8_
  6
CONTINUOUS
 62
    7
 10
672.6667
 20
2255.8784
 11
672.6667
 21
2403.063
  0
LINE
  8
_1-8_
  6
CONTINUOUS
 62
    7
 10
1373.3333
 20
1809.4625
 11
1373.3333
 21
1716.8362
  0
LINE
  8
_1-2_仕上
  6
CONTINUOUS
 62
    3
 10
1373.3333
 20
1840.0426
 11
726.66704
 21
1840.0426
  0
LINE
  8
_1-8_
  6
CONTINUOUS
 62
    7
 10
643.98552
 20
2300.0427
 11
583.33362
 21
2300.0427
  0
LINE
  8
_1-8_
  6
CONTINUOUS
 62
    7
 10
644.65329
 20
1840.0426
 11
583.33362
 21
1840.0426
  0
LINE
  8
_1-2_仕上
  6
CONTINUOUS
 62
    3
 10
726.66667
 20
1880.0425
 11
726.66667
 21
1840.0426
  0
LINE
  8
_1-8_
  6
CONTINUOUS
 62
    7
 10
726.66704
 20
1809.4625
 11
726.66704
 21
1716.8362
  0
LINE
  8
_1-2_仕上
  6
CONTINUOUS
 62
    3
 10
672.6667
 20
2213.3764
 11
1050
 21
2213.3764
  0
LINE
  8
_1-2_仕上
  6
CONTINUOUS
 62
    3
 10
1050
 20
2300.0427
 11
657.56675
 21
2209.908
  0
LINE
  8
_1-8_
  6
CONTINUOUS
 62
    7
 10
1427.3343
 20
2255.8784
 11
1427.3343
 21
2403.0625
  0
LINE
  8
_1-1_1-1___
  6
CENTER2
 62
    7
 10
1050
 20
2369.3694
 11
1050
 21
1763.9641
  0
LINE
  8
_1-2_仕上
  6
CONTINUOUS
 62
    3
 10
1427.3331
 20
2030.0433
 11
1049.9998
 21
2030.0433
  0
LINE
  8
_1-2_仕上
  6
CONTINUOUS
 62
    3
 10
1304.9998
 20
1950.0437
 11
1304.9998
 21
2030.0433
  0
LINE
  8
_1-2_仕上
  6
CONTINUOUS
 62
    3
 10
1427.3331
 20
2053.3766
 11
1427.3331
 21
2030.0433
  0
LINE
  8
_1-2_仕上
  6
CONTINUOUS
 62
    3
 10
1427.3331
 20
2093.3767
 11
1427.3331
 21
2063.3764
  0
LINE
  8
_1-2_仕上
  6
CONTINUOUS
 62
    3
 10
1427.3331
 20
2213.3764
 11
1427.3331
 21
2103.3765
  0
LINE
  8
_1-2_仕上
  6
CONTINUOUS
 62
    3
 10
1304.9998
 20
1950.0437
 11
1049.9998
 21
1950.0437
  0
LINE
  8
_1-2_仕上
  6
CONTINUOUS
 62
    3
 10
1304.9998
 20
1940.0437
 11
1049.9998
 21
1940.0437
  0
LINE
  8
_1-2_仕上
  6
CONTINUOUS
 62
    3
 10
1427.3331
 20
2103.3765
 11
1049.9998
 21
2103.3765
  0
LINE
  8
_1-2_仕上
  6
CONTINUOUS
 62
    3
 10
1427.3331
 20
2093.3767
 11
1049.9998
 21
2093.3767
  0
LINE
  8
_1-2_仕上
  6
CONTINUOUS
 62
    3
 10
1427.3331
 20
2063.3764
 11
1049.9998
 21
2063.3764
  0
LINE
  8
_1-2_仕上
  6
CONTINUOUS
 62
    3
 10
1427.3331
 20
2053.3766
 11
1049.9998
 21
2053.3766
  0
LINE
  8
_1-2_仕上
  6
CONTINUOUS
 62
    3
 10
1373.3332
 20
1880.0425
 11
1269.4083
 21
1940.0437
  0
LINE
  8
_1-2_仕上
  6
CONTINUOUS
 62
    3
 10
1304.9998
 20
1940.0437
 11
1304.9998
 21
1919.4948
  0
LINE
  8
_1-2_仕上
  6
CONTINUOUS
 62
    3
 10
1269.4083
 20
1940.0437
 11
1269.4083
 21
1880.0425
  0
LINE
  8
_1-2_仕上
  6
CONTINUOUS
 62
    3
 10
1373.3332
 20
1880.0425
 11
1373.3332
 21
1840.0426
  0
LINE
  8
_1-2_仕上
  6
CONTINUOUS
 62
    3
 10
1427.3331
 20
2213.3764
 11
1049.9998
 21
2213.3764
  0
LINE
  8
_1-2_仕上
  6
CONTINUOUS
 62
    3
 10
1049.9998
 20
2300.0427
 11
1442.4331
 21
2209.908
  0
ARC
  8
_1-2_仕上
  6
CONTINUOUS
 62
    3
 10
795.00002
 20
1945.0437
 40
5.0000165
 50
90
 51
270
  0
ARC
  8
_1-2_仕上
  6
CONTINUOUS
 62
    3
 10
672.6667
 20
2098.3765
 40
5.0000165
 50
90
 51
270
  0
ARC
  8
_1-2_仕上
  6
CONTINUOUS
 62
    3
 10
672.6667
 20
2058.3764
 40
5.0000165
 50
90
 51
270
  0
ARC
  8
_1-2_仕上
  6
CONTINUOUS
 62
    3
 10
1304.9998
 20
1945.0437
 40
5.0000165
 50
270
 51
90
  0
ARC
  8
_1-2_仕上
  6
CONTINUOUS
 62
    3
 10
1427.3331
 20
2098.3765
 40
5.0000165
 50
270
 51
90
  0
ARC
  8
_1-2_仕上
  6
CONTINUOUS
 62
    3
 10
1427.3331
 20
2058.3764
 40
5.0000165
 50
270
 51
90
  0
TEXT
  8
_1-d_
 62
    7
 10
254.99978
 20
157.4999
 40
25
 41
1
 50
0
  1
図
  0
TEXT
  8
_1-d_
 62
    7
 10
254.99978
 20
97.499965
 40
25
 41
1
 50
0
  1
番
  0
TEXT
  8
_1-d_
 62
    7
 10
655.00043
 20
157.4999
 40
25
 41
1
 50
0
  1
承
  0
TEXT
  8
_1-d_
 62
    7
 10
655.00043
 20
97.499965
 40
25
 41
1
 50
0
  1
認
  0
TEXT
  8
_1-d_
 62
    7
 10
1020.0002
 20
237.49994
 40
25
 41
1
 50
0
  1
尺
  0
TEXT
  8
_1-d_
 62
    7
 10
1020.0002
 20
197.49978
 40
25
 41
1
 50
0.0000708
  1
度
  0
TEXT
  8
_1-d_
 62
    7
 10
855.0001
 20
157.4999
 40
25
 41
1
 50
0
  1
製
  0
TEXT
  8
_1-d_
 62
    7
 10
855.0001
 20
97.499965
 40
25
 41
1
 50
0
  1
図
  0
TEXT
  8
_1-d_
 62
    7
 10
1555
 20
237.49994
 40
25
 41
1
 50
0
  1
日
  0
TEXT
  8
_1-d_
 62
    7
 10
1555
 20
197.49978
 40
25
 41
1
 50
0.0000708
  1
付
  0
TEXT
  8
_1-d_
 62
    7
 10
1111.4263
 20
163.48225
 40
20
 41
1
 50
0
  1
株式
  0
TEXT
  8
_1-d_
 62
    7
 10
1111.4263
 20
141.8518
 40
20
 41
1
 50
0.0000196
  1
会社
  0
TEXT
  8
_1-d_
 62
    3
 10
1174.2246
 20
143.24711
 40
40
 41
1
 50
0
  1
スズキベンチレーター
  0
TEXT
  8
_1-d_
 62
    7
 10
1237.9181
 20
94.024178
 40
20
 41
1
 50
0
  1
TEL(054)296-7000  FAX(054)296-7001
  0
TEXT
  8
_1-8_
 62
    3
 10
1012.1396
 20
2412.0614
 40
30
 41
1
 50
0
  1
1,130
  0
TEXT
  8
_1-8_
 62
    3
 10
563.33356
 20
2065.8757
 40
30
 41
1
 50
90
  1
690
  0
TEXT
  8
_1-8_
 62
    3
 10
1015.8334
 20
1723.5029
 40
30
 41
1
 50
0
  1
970*970
  0
TEXT
  8
_1-d_
 62
    3
 10
1084.3489
 20
210.10065
 40
40
 41
1
 50
0.000005
  1
１／１５
  0
TEXT
  8
_1-d_
 62
    7
 10
1235.6793
 20
118.64592
 40
20
 41
1
 50
0
  1
〒421-2114　静岡市葵区安倍口新田１５２番地
  0
TEXT
  8
_1-d_
 62
    3
 10
255.00006
 20
2792.7013
 40
50
 41
1
 50
0
  1
ＳＴ－７５Ｌ　架台型（低騒音）立面
  0
TEXT
  8
_1-d_
 62
    3
 10
280.67567
 20
215.81082
 40
30
 41
1
 50
0
  1
ＳＴ－７５Ｌ　架台型（低騒音）立面
  0
TEXT
  8
_1-d_
 62
    3
 10
308.45925
 20
140.30213
 40
30
 41
1
 50
0
  1
75L-01b
  0
POINT
  8
_1-8_
 62
    2
 10
583.33362
 20
1840.0426
  0
POINT
  8
_1-8_
 62
    2
 10
583.33362
 20
2300.0427
  0
POINT
  8
_1-8_
 62
    2
 10
672.6667
 20
2403.063
  0
POINT
  8
_1-8_
 62
    2
 10
1427.3343
 20
2403.0625
  0
POINT
  8
_1-8_
 62
    2
 10
726.66704
 20
1716.8362
  0
POINT
  8
_1-8_
 62
    2
 10
1373.3333
 20
1716.8362
  0
ENDSEC
  0
EOF
