  0
SECTION
  2
HEADER
  9
$ACADVER
  1
AC1009
  9
$INSBASE
 10
0
 20
0
 30
0
  9
$EXTMIN
 10
0
 20
0
  9
$EXTMAX
 10
6300
 20
4455
  9
$LIMMIN
 10
0
 20
0
  9
$LIMMAX
 10
6300
 20
4455
  9
$LTSCALE
 40
15
  0
ENDSEC
  0
SECTION
  2
TABLES
  0
TABLE
  2
LTYPE
 70
     9
  0
LTYPE
  2
CONTINUOUS
 70
    64
  3
実線
 72
    65
 73
     0
 40
0.0
  0
LTYPE
  2
DASHED1
 70
    64
  3
--  --  --  --  --  --  --  --  
 72
    65
 73
     2
 40
2.5
 49
1.25
 49
-1.25
  0
LTYPE
  2
DASHED2
 70
    64
  3
----    ----    ----    ----    
 72
    65
 73
     2
 40
5.0
 49
2.5
 49
-2.5
  0
LTYPE
  2
DASHED3
 70
    64
  3
------  ------  ------  ------  
 72
    65
 73
     2
 40
5.0
 49
3.75
 49
-1.25
  0
LTYPE
  2
CENTER1
 70
    64
  3
----- - ----- - ----- - ----- - 
 72
    65
 73
     4
 40
10.0
 49
6.25
 49
-1.25
 49
1.25
 49
-1.25
  0
LTYPE
  2
CENTER2
 70
    64
  3
----------  --  ----------  --  
 72
    65
 73
     4
 40
20.0
 49
12.5
 49
-2.5
 49
2.5
 49
-2.5
  0
LTYPE
  2
PHANTOM1
 70
    64
  3
--- - - --- - - --- - - --- - - 
 72
    65
 73
     6
 40
10.0
 49
3.25
 49
-1.25
 49
1.25
 49
-1.25
 49
1.25
 49
-1.25
  0
LTYPE
  2
PHANTOM2
 70
    64
  3
--------  -  -  --------  -  -  
 72
    65
 73
     6
 40
20.0
 49
10.0
 49
-2.5
 49
1.25
 49
-2.5
 49
1.25
 49
-2.5
  0
LTYPE
  2
DOT
 70
    64
  3
-   -   -   -   -   -   -   -   
 72
    65
 73
     2
 40
2.5
 49
0.625
 49
-1.875
  0
LTYPE
  2
DUMMY
 70
    64
  3
ダミー
 72
    65
 73
     0
 40
0.0
  0
LTYPE
  2
RAND1
 70
    64
  3
----- - ----- - ----- - ----- - 
 72
    65
 73
     4
 40
10.0
 49
6.25
 49
-1.25
 49
1.25
 49
-1.25
  0
LTYPE
  2
RAND2
 70
    64
  3
----------  --  ----------  --  
 72
    65
 73
     4
 40
20.0
 49
12.5
 49
-2.5
 49
2.5
 49
-2.5
  0
LTYPE
  2
RAND3
 70
    64
  3
--- - - --- - - --- - - --- - - 
 72
    65
 73
     6
 40
10.0
 49
3.25
 49
-1.25
 49
1.25
 49
-1.25
 49
1.25
 49
-1.25
  0
LTYPE
  2
RAND4
 70
    64
  3
--------  -  -  --------  -  -  
 72
    65
 73
     6
 40
20.0
 49
10.0
 49
-2.5
 49
1.25
 49
-2.5
 49
1.25
 49
-2.5
  0
LTYPE
  2
RAND5
 70
    64
  3
----- - ----- - ----- - ----- - 
 72
    65
 73
     4
 40
10.0
 49
6.25
 49
-1.25
 49
1.25
 49
-1.25
  0
LTYPE
  2
LONG1
 70
    64
  3
----------  --  ----------  --  
 72
    65
 73
     4
 40
20.0
 49
12.5
 49
-2.5
 49
2.5
 49
-2.5
  0
LTYPE
  2
LONG2
 70
    64
  3
--- - - --- - - --- - - --- - - 
 72
    65
 73
     6
 40
10.0
 49
3.25
 49
-1.25
 49
1.25
 49
-1.25
 49
1.25
 49
-1.25
  0
LTYPE
  2
LONG3
 70
    64
  3
--------  -  -  --------  -  -  
 72
    65
 73
     6
 40
20.0
 49
10.0
 49
-2.5
 49
1.25
 49
-2.5
 49
1.25
 49
-2.5
  0
LTYPE
  2
LONG4
 70
    64
  3
----- - ----- - ----- - ----- - 
 72
    65
 73
     4
 40
10.0
 49
6.25
 49
-1.25
 49
1.25
 49
-1.25
  0
LTYPE
  2
LONG5
 70
    64
  3
----------  --  ----------  --  
 72
    65
 73
     4
 40
20.0
 49
12.5
 49
-2.5
 49
2.5
 49
-2.5
  0
ENDTAB
  0
TABLE
  2
STYLE
  5
3
100
AcDbSymbolTable
 70
     1
  0
STYLE
  5
10
100
AcDbSymbolTableRecord
100
AcDbTextStyleTableRecord
  2
STANDARD
 70
     0
 40
0.0
 41
1.0
 50
0.0
 71
     0
 42
0.2
  3
txt
  4
bigfont.shx
  0
STYLE
  5
26
100
AcDbSymbolTableRecord
100
AcDbTextStyleTableRecord
  2
TATEGAKI
 70
    68
 40
0.0
 41
1.0
 50
0.0
 71
     0
 42
1.0
  3
txt
  4
bigfont.shx
  0
ENDTAB
  0
TABLE
  2
LAYER
 70
    5
  0
LAYER
  2
_1-1_1-1___
 70
   64
 62
    7
  6
CONTINUOUS
  0
LAYER
  2
_1-2_仕上
 70
   64
 62
    7
  6
CONTINUOUS
  0
LAYER
  2
_1-8_
 70
   64
 62
    7
  6
CONTINUOUS
  0
LAYER
  2
_1-d_
 70
   64
 62
    7
  6
CONTINUOUS
  0
LAYER
  2
ADD_LINE
 70
   64
 62
    7
  6
CONTINUOUS
  0
ENDTAB
  0
ENDSEC
  0
SECTION
  2
BLOCKS
  0
ENDSEC
  0
SECTION
  2
ENTITIES
  0
LINE
  8
_1-d_
  6
CONTINUOUS
 62
    7
 10
375.00007
 20
4136.5518
 11
2775
 21
4136.5518
  0
LINE
  8
_1-d_
  6
CONTINUOUS
 62
    7
 10
375.00007
 20
4151.5522
 11
2775
 21
4151.5522
  0
LINE
  8
_1-d_
  6
CONTINUOUS
 62
    7
 10
374.99952
 20
284.99982
 11
2775.0006
 21
284.99982
  0
LINE
  8
_1-d_
  6
CONTINUOUS
 62
    7
 10
374.99952
 20
134.9997
 11
374.99952
 21
404.99985
  0
LINE
  8
_1-d_
  6
CONTINUOUS
 62
    7
 10
374.99952
 20
134.9997
 11
2775.0006
 21
134.9997
  0
LINE
  8
_1-d_
  6
CONTINUOUS
 62
    7
 10
2775.0006
 20
404.99985
 11
2775.0006
 21
134.9997
  0
LINE
  8
_1-d_
  6
CONTINUOUS
 62
    7
 10
374.99952
 20
404.99985
 11
2775.0006
 21
404.99985
  0
LINE
  8
_1-d_
  6
CONTINUOUS
 62
    7
 10
1575
 20
404.99985
 11
1575
 21
134.9997
  0
LINE
  8
_1-d_
  6
CONTINUOUS
 62
    7
 10
975.00024
 20
134.9997
 11
975.00024
 21
284.99982
  0
LINE
  8
_1-d_
  6
CONTINUOUS
 62
    7
 10
1575
 20
284.99982
 11
1575
 21
404.99985
  0
LINE
  8
_1-d_
  6
CONTINUOUS
 62
    7
 10
1274.9996
 20
134.9997
 11
1274.9996
 21
284.99982
  0
LINE
  8
_1-d_
  6
CONTINUOUS
 62
    7
 10
427.50001
 20
134.9997
 11
427.50001
 21
284.99982
  0
LINE
  8
_1-d_
  6
CONTINUOUS
 62
    7
 10
1027.5
 20
134.9997
 11
1027.5
 21
284.99982
  0
LINE
  8
_1-d_
  6
CONTINUOUS
 62
    7
 10
1327.5002
 20
134.9997
 11
1327.5002
 21
284.99982
  0
LINE
  8
_1-d_
  6
CONTINUOUS
 62
    7
 10
1522.5
 20
284.99982
 11
1522.5
 21
404.99985
  0
LINE
  8
_1-d_
  6
CONTINUOUS
 62
    7
 10
2325.0006
 20
284.99982
 11
2325.0006
 21
404.99985
  0
LINE
  8
_1-d_
  6
CONTINUOUS
 62
    7
 10
2377.5002
 20
284.99982
 11
2377.5002
 21
404.99985
  0
LINE
  8
_1-2_仕上
  6
CONTINUOUS
 62
    3
 10
917.78374
 20
3726.8211
 11
1483.7837
 21
3726.8211
  0
LINE
  8
_1-8_
  6
CONTINUOUS
 62
    7
 10
783.78422
 20
3221.8227
 11
783.78422
 21
3856.8206
  0
LINE
  8
_1-8_
  6
CONTINUOUS
 62
    7
 10
917.78374
 20
4011.3511
 11
2049.7853
 21
4011.3496
  0
LINE
  8
_1-8_
  6
CONTINUOUS
 62
    7
 10
1101.2837
 20
3119.0697
 11
1866.2835
 21
3119.0697
  0
LINE
  8
_1-2_仕上
  6
CONTINUOUS
 62
    3
 10
917.78374
 20
3451.8218
 11
1483.7837
 21
3451.8218
  0
LINE
  8
_1-2_仕上
  6
CONTINUOUS
 62
    3
 10
1101.2837
 20
3316.8225
 11
1101.2837
 21
3271.8227
  0
LINE
  8
_1-2_仕上
  6
CONTINUOUS
 62
    3
 10
1101.2837
 20
3331.8226
 11
1101.2837
 21
3451.8218
  0
LINE
  8
_1-2_仕上
  6
CONTINUOUS
 62
    3
 10
917.78374
 20
3486.8215
 11
917.78374
 21
3451.8218
  0
LINE
  8
_1-2_仕上
  6
CONTINUOUS
 62
    3
 10
917.78374
 20
3546.8217
 11
917.78374
 21
3501.8215
  0
LINE
  8
_1-2_仕上
  6
CONTINUOUS
 62
    3
 10
1101.2837
 20
3271.8227
 11
1866.2839
 21
3271.8227
  0
LINE
  8
_1-2_仕上
  6
CONTINUOUS
 62
    3
 10
1101.2837
 20
3331.8226
 11
1483.7837
 21
3331.8226
  0
LINE
  8
_1-2_仕上
  6
CONTINUOUS
 62
    3
 10
1101.2837
 20
3316.8225
 11
1483.7837
 21
3316.8225
  0
LINE
  8
_1-2_仕上
  6
CONTINUOUS
 62
    3
 10
1101.2837
 20
3221.8227
 11
1483.7837
 21
3221.8227
  0
LINE
  8
_1-2_仕上
  6
CONTINUOUS
 62
    3
 10
1101.2837
 20
3256.8227
 11
1101.2837
 21
3221.8227
  0
LINE
  8
_1-2_仕上
  6
CONTINUOUS
 62
    3
 10
1101.2837
 20
3256.8227
 11
1866.2839
 21
3256.8205
  0
LINE
  8
_1-2_仕上
  6
CONTINUOUS
 62
    3
 10
917.78374
 20
3561.8217
 11
1483.7837
 21
3561.8217
  0
LINE
  8
_1-2_仕上
  6
CONTINUOUS
 62
    3
 10
917.78374
 20
3546.8217
 11
1483.7837
 21
3546.8217
  0
LINE
  8
_1-2_仕上
  6
CONTINUOUS
 62
    3
 10
917.78374
 20
3501.8215
 11
1483.7837
 21
3501.8215
  0
LINE
  8
_1-2_仕上
  6
CONTINUOUS
 62
    3
 10
917.78374
 20
3486.8215
 11
1483.7837
 21
3486.8215
  0
LINE
  8
_1-8_
  6
CONTINUOUS
 62
    7
 10
917.78374
 20
3777.8612
 11
917.78374
 21
4011.3511
  0
LINE
  8
_1-8_
  6
CONTINUOUS
 62
    7
 10
2049.7853
 20
3777.8601
 11
2049.7853
 21
4011.3496
  0
LINE
  8
_1-8_
  6
CONTINUOUS
 62
    7
 10
863.21677
 20
3856.8206
 11
783.78422
 21
3856.8206
  0
LINE
  8
_1-8_
  6
CONTINUOUS
 62
    7
 10
864.21853
 20
3221.8227
 11
783.78422
 21
3221.8227
  0
LINE
  8
_1-8_
  6
CONTINUOUS
 62
    7
 10
1866.2835
 20
3194.8264
 11
1866.2835
 21
3119.0697
  0
LINE
  8
_1-8_
  6
CONTINUOUS
 62
    7
 10
1101.2837
 20
3194.8264
 11
1101.2837
 21
3119.0697
  0
LINE
  8
_1-2_仕上
  6
CONTINUOUS
 62
    3
 10
1483.7837
 20
3856.8206
 11
895.13391
 21
3721.6186
  0
LINE
  8
_1-2_仕上
  6
CONTINUOUS
 62
    3
 10
917.78374
 20
3726.8211
 11
917.78374
 21
3561.8217
  0
LINE
  8
_1-2_仕上
  6
CONTINUOUS
 62
    3
 10
2049.7838
 20
3726.8211
 11
1483.7837
 21
3726.8211
  0
LINE
  8
_1-2_仕上
  6
CONTINUOUS
 62
    3
 10
2049.7838
 20
3451.8218
 11
1483.7837
 21
3451.8218
  0
LINE
  8
_1-2_仕上
  6
CONTINUOUS
 62
    3
 10
1866.2839
 20
3316.8225
 11
1866.2839
 21
3271.8227
  0
LINE
  8
_1-2_仕上
  6
CONTINUOUS
 62
    3
 10
1866.2839
 20
3331.8226
 11
1866.2839
 21
3451.8218
  0
LINE
  8
_1-2_仕上
  6
CONTINUOUS
 62
    3
 10
2049.7838
 20
3486.8215
 11
2049.7838
 21
3451.8218
  0
LINE
  8
_1-2_仕上
  6
CONTINUOUS
 62
    3
 10
2049.7838
 20
3546.8217
 11
2049.7838
 21
3501.8215
  0
LINE
  8
_1-2_仕上
  6
CONTINUOUS
 62
    3
 10
1866.2839
 20
3331.8226
 11
1483.7837
 21
3331.8226
  0
LINE
  8
_1-2_仕上
  6
CONTINUOUS
 62
    3
 10
1866.2839
 20
3316.8225
 11
1483.7837
 21
3316.8225
  0
LINE
  8
_1-2_仕上
  6
CONTINUOUS
 62
    3
 10
1866.2839
 20
3221.8227
 11
1483.7837
 21
3221.8227
  0
LINE
  8
_1-2_仕上
  6
CONTINUOUS
 62
    3
 10
1866.2839
 20
3256.8227
 11
1866.2839
 21
3221.8227
  0
LINE
  8
_1-2_仕上
  6
CONTINUOUS
 62
    3
 10
2049.7838
 20
3561.8217
 11
1483.7837
 21
3561.8217
  0
LINE
  8
_1-2_仕上
  6
CONTINUOUS
 62
    3
 10
2049.7838
 20
3546.8217
 11
1483.7837
 21
3546.8217
  0
LINE
  8
_1-2_仕上
  6
CONTINUOUS
 62
    3
 10
2049.7838
 20
3501.8215
 11
1483.7837
 21
3501.8215
  0
LINE
  8
_1-2_仕上
  6
CONTINUOUS
 62
    3
 10
2049.7838
 20
3486.8215
 11
1483.7837
 21
3486.8215
  0
LINE
  8
_1-2_仕上
  6
CONTINUOUS
 62
    3
 10
1483.7837
 20
3856.8206
 11
2072.4338
 21
3721.6186
  0
LINE
  8
_1-2_仕上
  6
CONTINUOUS
 62
    3
 10
2049.7838
 20
3726.8211
 11
2049.7838
 21
3561.8217
  0
LINE
  8
_1-8_
  6
CONTINUOUS
 62
    7
 10
2483.7833
 20
2330.941
 11
2483.7833
 21
2800.9398
  0
LINE
  8
_1-8_
  6
CONTINUOUS
 62
    7
 10
2048.782
 20
2330.941
 11
2483.7833
 21
2330.941
  0
LINE
  8
_1-8_
  6
CONTINUOUS
 62
    7
 10
2048.782
 20
2700.9405
 11
2483.7833
 21
2700.9405
  0
LINE
  8
_1-8_
  6
CONTINUOUS
 62
    7
 10
2048.782
 20
2800.9398
 11
2483.7833
 21
2800.9398
  0
LINE
  8
_1-2_仕上
  6
CONTINUOUS
 62
    3
 10
1033.7837
 20
841.08015
 11
1033.7837
 21
1741.0804
  0
LINE
  8
_1-2_仕上
  6
CONTINUOUS
 62
    3
 10
1033.7837
 20
1741.0804
 11
1933.7837
 21
1741.0804
  0
LINE
  8
_1-2_仕上
  6
CONTINUOUS
 62
    3
 10
1933.7837
 20
1741.0804
 11
1933.7837
 21
841.08015
  0
LINE
  8
_1-2_仕上
  6
CONTINUOUS
 62
    3
 10
1933.7837
 20
841.08015
 11
1033.7837
 21
841.08015
  0
LINE
  8
_1-2_仕上
  6
CONTINUOUS
 62
    3
 10
2173.7838
 20
601.0801
 11
2173.7838
 21
1981.0801
  0
LINE
  8
_1-2_仕上
  6
CONTINUOUS
 62
    3
 10
2173.7838
 20
1981.0801
 11
793.78373
 21
1981.0801
  0
LINE
  8
_1-2_仕上
  6
CONTINUOUS
 62
    3
 10
793.78373
 20
1981.0801
 11
793.78373
 21
601.0801
  0
LINE
  8
_1-2_仕上
  6
CONTINUOUS
 62
    3
 10
793.78373
 20
601.0801
 11
2173.7838
 21
601.0801
  0
LINE
  8
_1-8_
  6
CONTINUOUS
 62
    7
 10
483.78407
 20
601.0801
 11
483.78407
 21
1981.0801
  0
LINE
  8
_1-8_
  6
CONTINUOUS
 62
    7
 10
2483.7842
 20
841.08015
 11
2483.7842
 21
1741.0804
  0
LINE
  8
_1-8_
  6
CONTINUOUS
 62
    7
 10
1933.783
 20
2082.1962
 11
1033.8515
 21
2082.1962
  0
LINE
  8
_1-2_仕上
  6
CONTINUOUS
 62
    3
 10
1033.7837
 20
1741.0804
 11
1139.8499
 21
1635.0141
  0
LINE
  8
_1-2_仕上
  6
CONTINUOUS
 62
    3
 10
1933.7837
 20
1741.0804
 11
1827.7176
 21
1635.0141
  0
LINE
  8
_1-2_仕上
  6
CONTINUOUS
 62
    3
 10
1033.7837
 20
841.08015
 11
1139.8499
 21
947.14591
  0
LINE
  8
_1-2_仕上
  6
CONTINUOUS
 62
    3
 10
1933.7837
 20
841.08015
 11
1827.7176
 21
947.14591
  0
LINE
  8
_1-8_
  6
CONTINUOUS
 62
    7
 10
1127.5073
 20
1166.2867
 11
1840.0605
 21
1415.8716
  0
LINE
  8
_1-2_仕上
  6
CONTINUOUS
 62
    3
 10
1106.2837
 20
2700.9405
 11
1861.2836
 21
2700.9405
  0
LINE
  8
_1-2_仕上
  6
CONTINUOUS
 62
    3
 10
1106.2837
 20
2800.9398
 11
1861.2836
 21
2800.9398
  0
LINE
  8
_1-2_仕上
  6
CONTINUOUS
 62
    3
 10
1106.2837
 20
2700.9405
 11
1033.7845
 21
2330.941
  0
LINE
  8
_1-2_仕上
  6
CONTINUOUS
 62
    3
 10
1861.2836
 20
2700.9405
 11
1933.716
 21
2330.4681
  0
LINE
  8
_1-8_
  6
CONTINUOUS
 62
    7
 10
1861.2838
 20
2952.7026
 11
1106.2838
 21
2952.7026
  0
LINE
  8
_1-8_
  6
CONTINUOUS
 62
    7
 10
1933.783
 20
2251.3153
 11
1933.783
 21
2082.1962
  0
LINE
  8
_1-8_
  6
CONTINUOUS
 62
    7
 10
1033.8515
 20
2251.3153
 11
1033.8515
 21
2082.1962
  0
LINE
  8
_1-8_
  6
CONTINUOUS
 62
    7
 10
687.09164
 20
1981.0801
 11
483.78407
 21
1981.0801
  0
LINE
  8
_1-8_
  6
CONTINUOUS
 62
    7
 10
687.09164
 20
601.0801
 11
483.78407
 21
601.0801
  0
LINE
  8
_1-8_
  6
CONTINUOUS
 62
    7
 10
2279.568
 20
1741.0804
 11
2483.7842
 21
1741.0804
  0
LINE
  8
_1-8_
  6
CONTINUOUS
 62
    7
 10
2279.568
 20
841.08015
 11
2483.7842
 21
841.08015
  0
LINE
  8
_1-8_
  6
CONTINUOUS
 62
    7
 10
1861.2838
 20
2853.9444
 11
1861.2838
 21
2952.7026
  0
LINE
  8
_1-8_
  6
CONTINUOUS
 62
    7
 10
1106.2838
 20
2853.9444
 11
1106.2838
 21
2952.7026
  0
LINE
  8
_1-d_
  6
CONTINUOUS
 62
    7
 10
671.54171
 20
2390.8347
 11
811.14231
 21
2390.8347
  0
LINE
  8
_1-d_
  6
CONTINUOUS
 62
    7
 10
671.54171
 20
2390.8347
 11
811.14231
 21
2432.713
  0
LINE
  8
_1-d_
  6
CONTINUOUS
 62
    7
 10
811.14231
 20
2390.8347
 11
811.14231
 21
2432.713
  0
LINE
  8
_1-1_1-1___
  6
CENTER2
 62
    7
 10
2173.7838
 20
1291.0797
 11
793.78373
 21
1291.0797
  0
LINE
  8
_1-2_仕上
  6
CONTINUOUS
 62
    3
 10
1106.2837
 20
2763.94
 11
1106.2837
 21
2700.9405
  0
LINE
  8
_1-2_仕上
  6
CONTINUOUS
 62
    3
 10
1106.2837
 20
2800.9398
 11
1106.2837
 21
2775.94
  0
LINE
  8
_1-2_仕上
  6
CONTINUOUS
 62
    3
 10
1106.2837
 20
2775.94
 11
1861.2838
 21
2775.94
  0
LINE
  8
_1-2_仕上
  6
CONTINUOUS
 62
    3
 10
1861.2838
 20
2800.9398
 11
1861.2838
 21
2775.94
  0
LINE
  8
_1-2_仕上
  6
CONTINUOUS
 62
    3
 10
1106.2837
 20
2763.94
 11
1861.2836
 21
2763.94
  0
LINE
  8
_1-2_仕上
  6
CONTINUOUS
 62
    3
 10
1861.2836
 20
2763.94
 11
1861.2836
 21
2700.9405
  0
LINE
  8
_1-2_仕上
  6
CONTINUOUS
 62
    3
 10
1483.7837
 20
2465.9522
 11
793.78373
 21
2258.9603
  0
LINE
  8
_1-2_仕上
  6
CONTINUOUS
 62
    3
 10
2173.7838
 20
2258.5303
 11
1483.7837
 21
2465.9522
  0
LINE
  8
_1-1_1-1___
  6
CENTER2
 62
    7
 10
1483.7837
 20
3952.7027
 11
1483.7837
 21
522.97297
  0
ARC
  8
_1-2_仕上
  6
CONTINUOUS
 62
    3
 10
1101.2837
 20
3324.3225
 40
7.5000247
 50
90
 51
270
  0
ARC
  8
_1-2_仕上
  6
CONTINUOUS
 62
    3
 10
1101.2837
 20
3264.3223
 40
7.5000247
 50
90
 51
270
  0
ARC
  8
_1-2_仕上
  6
CONTINUOUS
 62
    3
 10
917.78374
 20
3554.3217
 40
7.5000247
 50
90
 51
270
  0
ARC
  8
_1-2_仕上
  6
CONTINUOUS
 62
    3
 10
917.78374
 20
3494.3215
 40
7.5000247
 50
90
 51
270
  0
ARC
  8
_1-2_仕上
  6
CONTINUOUS
 62
    3
 10
1866.2839
 20
3324.3225
 40
7.5000247
 50
270
 51
90
  0
ARC
  8
_1-2_仕上
  6
CONTINUOUS
 62
    3
 10
1866.2839
 20
3264.3223
 40
7.5000247
 50
270
 51
90
  0
ARC
  8
_1-2_仕上
  6
CONTINUOUS
 62
    3
 10
2049.7838
 20
3554.3217
 40
7.5000247
 50
270
 51
90
  0
ARC
  8
_1-2_仕上
  6
CONTINUOUS
 62
    3
 10
2049.7838
 20
3494.3215
 40
7.5000247
 50
270
 51
90
  0
CIRCLE
  8
_1-2_仕上
  6
CONTINUOUS
 62
    3
 10
1483.7837
 20
1291.0797
 40
377.49997
  0
ARC
  8
_1-2_仕上
  6
CONTINUOUS
 62
    3
 10
1106.2837
 20
2769.9402
 40
6.0001682
 50
270
 51
90
  0
ARC
  8
_1-2_仕上
  6
CONTINUOUS
 62
    3
 10
1861.2838
 20
2769.9402
 40
6.0001682
 50
90
 51
270
  0
TEXT
  8
_1-d_
 62
    7
 10
382.49967
 20
236.24985
 40
37.5
 41
1
 50
0
  1
図
  0
TEXT
  8
_1-d_
 62
    7
 10
382.49967
 20
146.24994
 40
37.5
 41
1
 50
0
  1
番
  0
TEXT
  8
_1-d_
 62
    7
 10
982.50065
 20
236.24985
 40
37.5
 41
1
 50
0
  1
承
  0
TEXT
  8
_1-d_
 62
    7
 10
982.50065
 20
146.24994
 40
37.5
 41
1
 50
0
  1
認
  0
TEXT
  8
_1-d_
 62
    7
 10
1530.0003
 20
356.24992
 40
37.5
 41
1
 50
0
  1
尺
  0
TEXT
  8
_1-d_
 62
    7
 10
1530.0003
 20
296.24967
 40
37.5
 41
1
 50
0.0000708
  1
度
  0
TEXT
  8
_1-d_
 62
    7
 10
1282.5001
 20
236.24985
 40
37.5
 41
1
 50
0
  1
製
  0
TEXT
  8
_1-d_
 62
    7
 10
1282.5001
 20
146.24994
 40
37.5
 41
1
 50
0
  1
図
  0
TEXT
  8
_1-d_
 62
    7
 10
2332.5
 20
356.24992
 40
37.5
 41
1
 50
0
  1
日
  0
TEXT
  8
_1-d_
 62
    7
 10
2332.5
 20
296.24967
 40
37.5
 41
1
 50
0.0000708
  1
付
  0
TEXT
  8
_1-d_
 62
    7
 10
1667.1394
 20
245.22338
 40
30
 41
1
 50
0
  1
株式
  0
TEXT
  8
_1-d_
 62
    7
 10
1667.1394
 20
212.7777
 40
30
 41
1
 50
0.0000196
  1
会社
  0
TEXT
  8
_1-d_
 62
    3
 10
1761.337
 20
214.87067
 40
60
 41
1
 50
0
  1
スズキベンチレーター
  0
TEXT
  8
_1-d_
 62
    7
 10
1856.8772
 20
141.03626
 40
30
 41
1
 50
0
  1
TEL(054)296-7000  FAX(054)296-7001
  0
TEXT
  8
_1-8_
 62
    3
 10
753.78412
 20
3505.5702
 40
45
 41
1
 50
90
  1
635
  0
TEXT
  8
_1-8_
 62
    3
 10
1426.2837
 20
4041.3519
 40
45
 41
1
 50
0
  1
1,130
  0
TEXT
  8
_1-8_
 62
    3
 10
1449.5093
 20
3137.9347
 40
45
 41
1
 50
0
  1
765
  0
TEXT
  8
_1-d_
 62
    3
 10
849.21513
 20
2416.2164
 40
45
 41
1
 50
0
  1
3
  0
TEXT
  8
_1-d_
 62
    3
 10
717.48385
 20
2332.4039
 40
45
 41
1
 50
0
  1
10
  0
TEXT
  8
_1-8_
 62
    3
 10
2550.5024
 20
1247.2593
 40
45
 41
1
 50
90
  1
900
  0
TEXT
  8
_1-8_
 62
    3
 10
1422.3093
 20
1317.227
 40
45
 41
1
 50
19.30378
  1
755φ
  0
TEXT
  8
_1-8_
 62
    3
 10
1438.8173
 20
2127.196
 40
45
 41
1
 50
0
  1
900
  0
TEXT
  8
_1-8_
 62
    3
 10
2583.7833
 20
2485.9407
 40
45
 41
1
 50
90
  1
370
  0
TEXT
  8
_1-8_
 62
    3
 10
2583.7833
 20
2720.9401
 40
45
 41
1
 50
90
  1
100
  0
TEXT
  8
_1-8_
 62
    3
 10
1423.0698
 20
2976.6539
 40
45
 41
1
 50
0
  1
755φ
  0
TEXT
  8
_1-8_
 62
    3
 10
438.7841
 20
1239.8298
 40
45
 41
1
 50
90
  1
≒　1,380
  0
TEXT
  8
_1-d_
 62
    3
 10
1626.5234
 20
315.15098
 40
60
 41
1
 50
0.000005
  1
１／１５
  0
TEXT
  8
_1-d_
 62
    7
 10
1853.5189
 20
177.96888
 40
30
 41
1
 50
0
  1
〒421-2114　静岡市葵区安倍口新田１５２番地
  0
TEXT
  8
_1-d_
 62
    3
 10
382.50011
 20
4189.052
 40
75
 41
1
 50
0
  1
ＳＴ－７５Ｌ　直付型（低騒音）立面、袴立面・平面
  0
TEXT
  8
_1-d_
 62
    7
 10
411.85875
 20
307.29068
 40
37.5
 41
1
 50
0
  1
ＳＴ－７５Ｌ　直付型（低騒音）立面、袴立面・平面
  0
TEXT
  8
_1-d_
 62
    3
 10
462.68888
 20
210.4532
 40
45
 41
1
 50
0
  1
75L-01
  0
POINT
  8
_1-8_
 62
    2
 10
783.78422
 20
3221.8227
  0
POINT
  8
_1-8_
 62
    2
 10
783.78422
 20
3856.8206
  0
POINT
  8
_1-8_
 62
    2
 10
917.78374
 20
4011.3511
  0
POINT
  8
_1-8_
 62
    2
 10
2049.7853
 20
4011.3496
  0
POINT
  8
_1-8_
 62
    2
 10
1101.2837
 20
3119.0697
  0
POINT
  8
_1-8_
 62
    2
 10
1866.2835
 20
3119.0697
  0
POINT
  8
_1-8_
 62
    2
 10
2483.7833
 20
2330.941
  0
POINT
  8
_1-8_
 62
    2
 10
2483.7833
 20
2700.9405
  0
POINT
  8
_1-8_
 62
    2
 10
2483.7833
 20
2800.9398
  0
POINT
  8
_1-8_
 62
    2
 10
483.78407
 20
601.0801
  0
POINT
  8
_1-8_
 62
    2
 10
483.78407
 20
1981.0801
  0
POINT
  8
_1-8_
 62
    2
 10
2483.7842
 20
841.08015
  0
POINT
  8
_1-8_
 62
    2
 10
2483.7842
 20
1741.0804
  0
POINT
  8
_1-8_
 62
    2
 10
1933.783
 20
2082.1962
  0
POINT
  8
_1-8_
 62
    2
 10
1033.8515
 20
2082.1962
  0
POINT
  8
_1-8_
 62
    2
 10
1127.5073
 20
1166.2867
  0
POINT
  8
_1-8_
 62
    2
 10
1840.0605
 20
1415.8716
  0
POINT
  8
_1-8_
 62
    2
 10
1861.2838
 20
2952.7026
  0
POINT
  8
_1-8_
 62
    2
 10
1106.2838
 20
2952.7026
  0
ENDSEC
  0
EOF
