  0
SECTION
  2
HEADER
  9
$ACADVER
  1
AC1009
  9
$INSBASE
 10
0
 20
0
 30
0
  9
$EXTMIN
 10
0
 20
0
  9
$EXTMAX
 10
4200
 20
2970
  9
$LIMMIN
 10
0
 20
0
  9
$LIMMAX
 10
4200
 20
2970
  9
$LTSCALE
 40
10
  0
ENDSEC
  0
SECTION
  2
TABLES
  0
TABLE
  2
LTYPE
 70
     9
  0
LTYPE
  2
CONTINUOUS
 70
    64
  3
実線
 72
    65
 73
     0
 40
0.0
  0
LTYPE
  2
DASHED1
 70
    64
  3
--  --  --  --  --  --  --  --  
 72
    65
 73
     2
 40
2.5
 49
1.25
 49
-1.25
  0
LTYPE
  2
DASHED2
 70
    64
  3
----    ----    ----    ----    
 72
    65
 73
     2
 40
5.0
 49
2.5
 49
-2.5
  0
LTYPE
  2
DASHED3
 70
    64
  3
------  ------  ------  ------  
 72
    65
 73
     2
 40
5.0
 49
3.75
 49
-1.25
  0
LTYPE
  2
CENTER1
 70
    64
  3
----- - ----- - ----- - ----- - 
 72
    65
 73
     4
 40
10.0
 49
6.25
 49
-1.25
 49
1.25
 49
-1.25
  0
LTYPE
  2
CENTER2
 70
    64
  3
----------  --  ----------  --  
 72
    65
 73
     4
 40
20.0
 49
12.5
 49
-2.5
 49
2.5
 49
-2.5
  0
LTYPE
  2
PHANTOM1
 70
    64
  3
--- - - --- - - --- - - --- - - 
 72
    65
 73
     6
 40
10.0
 49
3.25
 49
-1.25
 49
1.25
 49
-1.25
 49
1.25
 49
-1.25
  0
LTYPE
  2
PHANTOM2
 70
    64
  3
--------  -  -  --------  -  -  
 72
    65
 73
     6
 40
20.0
 49
10.0
 49
-2.5
 49
1.25
 49
-2.5
 49
1.25
 49
-2.5
  0
LTYPE
  2
DOT
 70
    64
  3
-   -   -   -   -   -   -   -   
 72
    65
 73
     2
 40
2.5
 49
0.625
 49
-1.875
  0
LTYPE
  2
DUMMY
 70
    64
  3
ダミー
 72
    65
 73
     0
 40
0.0
  0
LTYPE
  2
RAND1
 70
    64
  3
----- - ----- - ----- - ----- - 
 72
    65
 73
     4
 40
10.0
 49
6.25
 49
-1.25
 49
1.25
 49
-1.25
  0
LTYPE
  2
RAND2
 70
    64
  3
----------  --  ----------  --  
 72
    65
 73
     4
 40
20.0
 49
12.5
 49
-2.5
 49
2.5
 49
-2.5
  0
LTYPE
  2
RAND3
 70
    64
  3
--- - - --- - - --- - - --- - - 
 72
    65
 73
     6
 40
10.0
 49
3.25
 49
-1.25
 49
1.25
 49
-1.25
 49
1.25
 49
-1.25
  0
LTYPE
  2
RAND4
 70
    64
  3
--------  -  -  --------  -  -  
 72
    65
 73
     6
 40
20.0
 49
10.0
 49
-2.5
 49
1.25
 49
-2.5
 49
1.25
 49
-2.5
  0
LTYPE
  2
RAND5
 70
    64
  3
----- - ----- - ----- - ----- - 
 72
    65
 73
     4
 40
10.0
 49
6.25
 49
-1.25
 49
1.25
 49
-1.25
  0
LTYPE
  2
LONG1
 70
    64
  3
----------  --  ----------  --  
 72
    65
 73
     4
 40
20.0
 49
12.5
 49
-2.5
 49
2.5
 49
-2.5
  0
LTYPE
  2
LONG2
 70
    64
  3
--- - - --- - - --- - - --- - - 
 72
    65
 73
     6
 40
10.0
 49
3.25
 49
-1.25
 49
1.25
 49
-1.25
 49
1.25
 49
-1.25
  0
LTYPE
  2
LONG3
 70
    64
  3
--------  -  -  --------  -  -  
 72
    65
 73
     6
 40
20.0
 49
10.0
 49
-2.5
 49
1.25
 49
-2.5
 49
1.25
 49
-2.5
  0
LTYPE
  2
LONG4
 70
    64
  3
----- - ----- - ----- - ----- - 
 72
    65
 73
     4
 40
10.0
 49
6.25
 49
-1.25
 49
1.25
 49
-1.25
  0
LTYPE
  2
LONG5
 70
    64
  3
----------  --  ----------  --  
 72
    65
 73
     4
 40
20.0
 49
12.5
 49
-2.5
 49
2.5
 49
-2.5
  0
ENDTAB
  0
TABLE
  2
STYLE
  5
3
100
AcDbSymbolTable
 70
     1
  0
STYLE
  5
10
100
AcDbSymbolTableRecord
100
AcDbTextStyleTableRecord
  2
STANDARD
 70
     0
 40
0.0
 41
1.0
 50
0.0
 71
     0
 42
0.2
  3
txt
  4
bigfont.shx
  0
STYLE
  5
26
100
AcDbSymbolTableRecord
100
AcDbTextStyleTableRecord
  2
TATEGAKI
 70
    68
 40
0.0
 41
1.0
 50
0.0
 71
     0
 42
1.0
  3
txt
  4
bigfont.shx
  0
ENDTAB
  0
TABLE
  2
LAYER
 70
    7
  0
LAYER
  2
_0-1_基準線
 70
   64
 62
    7
  6
CONTINUOUS
  0
LAYER
  2
_0-2_躯体
 70
   64
 62
    7
  6
CONTINUOUS
  0
LAYER
  2
_0-3_軸組
 70
   64
 62
    7
  6
CONTINUOUS
  0
LAYER
  2
_0-4_仕上
 70
   64
 62
    7
  6
CONTINUOUS
  0
LAYER
  2
_0-8_寸法
 70
   64
 62
    7
  6
CONTINUOUS
  0
LAYER
  2
_0-d_文字
 70
   64
 62
    7
  6
CONTINUOUS
  0
LAYER
  2
ADD_LINE
 70
   64
 62
    7
  6
CONTINUOUS
  0
ENDTAB
  0
ENDSEC
  0
SECTION
  2
BLOCKS
  0
ENDSEC
  0
SECTION
  2
ENTITIES
  0
LINE
  8
_0-d_文字
  6
CONTINUOUS
 62
    7
 10
250.00003
 20
2757.7012
 11
1850
 21
2757.7012
  0
LINE
  8
_0-d_文字
  6
CONTINUOUS
 62
    7
 10
250.00003
 20
2767.7015
 11
1850
 21
2767.7015
  0
LINE
  8
_0-d_文字
  6
CONTINUOUS
 62
    7
 10
249.99966
 20
189.99988
 11
1850.0002
 21
189.99988
  0
LINE
  8
_0-d_文字
  6
CONTINUOUS
 62
    7
 10
249.99966
 20
89.999802
 11
249.99966
 21
269.9999
  0
LINE
  8
_0-d_文字
  6
CONTINUOUS
 62
    7
 10
249.99966
 20
89.999802
 11
1850.0002
 21
89.999802
  0
LINE
  8
_0-d_文字
  6
CONTINUOUS
 62
    7
 10
1850.0002
 20
269.9999
 11
1850.0002
 21
89.999802
  0
LINE
  8
_0-d_文字
  6
CONTINUOUS
 62
    7
 10
249.99966
 20
269.9999
 11
1850.0002
 21
269.9999
  0
LINE
  8
_0-d_文字
  6
CONTINUOUS
 62
    7
 10
1050
 20
269.9999
 11
1050
 21
89.999802
  0
LINE
  8
_0-d_文字
  6
CONTINUOUS
 62
    7
 10
650.00016
 20
89.999802
 11
650.00016
 21
189.99988
  0
LINE
  8
_0-d_文字
  6
CONTINUOUS
 62
    7
 10
1050
 20
189.99988
 11
1050
 21
269.9999
  0
LINE
  8
_0-d_文字
  6
CONTINUOUS
 62
    7
 10
849.99971
 20
89.999802
 11
849.99971
 21
189.99988
  0
LINE
  8
_0-d_文字
  6
CONTINUOUS
 62
    7
 10
285.00001
 20
89.999802
 11
285.00001
 21
189.99988
  0
LINE
  8
_0-d_文字
  6
CONTINUOUS
 62
    7
 10
685.00003
 20
89.999802
 11
685.00003
 21
189.99988
  0
LINE
  8
_0-d_文字
  6
CONTINUOUS
 62
    7
 10
885.00007
 20
89.999802
 11
885.00007
 21
189.99988
  0
LINE
  8
_0-d_文字
  6
CONTINUOUS
 62
    7
 10
1015
 20
189.99988
 11
1015
 21
269.9999
  0
LINE
  8
_0-d_文字
  6
CONTINUOUS
 62
    7
 10
1550.0004
 20
189.99988
 11
1550.0004
 21
269.9999
  0
LINE
  8
_0-d_文字
  6
CONTINUOUS
 62
    7
 10
1585.0001
 20
189.99988
 11
1585.0001
 21
269.9999
  0
LINE
  8
_0-1_基準線
  6
CENTER2
 62
    7
 10
1050
 20
2529.7297
 11
1050
 21
1427.027
  0
LINE
  8
_0-8_寸法
  6
CONTINUOUS
 62
    7
 10
570.00002
 20
1659.421
 11
330.53135
 21
1659.421
  0
LINE
  8
_0-8_寸法
  6
CONTINUOUS
 62
    7
 10
570.00002
 20
2370.6147
 11
1530
 21
2370.6147
  0
LINE
  8
_0-8_寸法
  6
CONTINUOUS
 62
    7
 10
570.00002
 20
2214.9402
 11
570.00002
 21
2370.6147
  0
LINE
  8
_0-8_寸法
  6
CONTINUOUS
 62
    7
 10
710.26561
 20
2269.421
 11
330.53135
 21
2269.421
  0
LINE
  8
_0-8_寸法
  6
CONTINUOUS
 62
    7
 10
1530
 20
2214.9402
 11
1530
 21
2370.6147
  0
LINE
  8
_0-2_躯体
  6
CONTINUOUS
 62
    3
 10
570.00002
 20
2000.1288
 11
570.00002
 21
1961.8988
  0
LINE
  8
_0-2_躯体
  6
CONTINUOUS
 62
    3
 10
570.00002
 20
1949.1557
 11
570.00002
 21
1919.4208
  0
LINE
  8
_0-2_躯体
  6
CONTINUOUS
 62
    3
 10
1360.05
 20
2042.5869
 11
1360.05
 21
2031.366
  0
LINE
  8
_0-2_躯体
  6
CONTINUOUS
 62
    3
 10
1493.4124
 20
1930.1548
 11
1493.4124
 21
1924.7435
  0
LINE
  8
_0-2_躯体
  6
CONTINUOUS
 62
    3
 10
1508.1825
 20
1926.5048
 11
1508.1825
 21
1923.9547
  0
LINE
  8
_0-2_躯体
  6
CONTINUOUS
 62
    3
 10
1352.8801
 20
2036.8235
 11
1363.9585
 21
2036.8235
  0
LINE
  8
_0-2_躯体
  6
CONTINUOUS
 62
    3
 10
1353.4077
 20
1806.5394
 11
1366.0682
 21
1806.5394
  0
LINE
  8
_0-2_躯体
  6
CONTINUOUS
 62
    3
 10
570.00002
 20
2159.4211
 11
1050
 21
2158.9792
  0
LINE
  8
_0-2_躯体
  6
CONTINUOUS
 62
    3
 10
570.00002
 20
2012.8719
 11
1050
 21
2012.8719
  0
LINE
  8
_0-2_躯体
  6
CONTINUOUS
 62
    3
 10
570.00002
 20
2000.1288
 11
1050
 21
2000.1288
  0
LINE
  8
_0-2_躯体
  6
CONTINUOUS
 62
    3
 10
570.00002
 20
1961.8988
 11
1050
 21
1961.8988
  0
LINE
  8
_0-2_躯体
  6
CONTINUOUS
 62
    3
 10
570.00002
 20
1949.1557
 11
1050
 21
1949.1557
  0
LINE
  8
_0-2_躯体
  6
CONTINUOUS
 62
    3
 10
570.00002
 20
1919.4208
 11
1050
 21
1919.4208
  0
LINE
  8
_0-3_軸組
  6
CONTINUOUS
 62
    3
 10
1071.7952
 20
1983.403
 11
1077.5311
 21
1986.9285
  0
LINE
  8
_0-3_軸組
  6
CONTINUOUS
 62
    3
 10
1077.5311
 20
1986.9285
 11
1083.24
 21
1990.5243
  0
LINE
  8
_0-3_軸組
  6
CONTINUOUS
 62
    3
 10
1083.24
 20
1990.5243
 11
1088.895
 21
1994.2542
  0
LINE
  8
_0-3_軸組
  6
CONTINUOUS
 62
    3
 10
1088.895
 20
1994.2542
 11
1094.4325
 21
1998.1915
  0
LINE
  8
_0-3_軸組
  6
CONTINUOUS
 62
    3
 10
1094.4325
 20
1998.1915
 11
1099.7532
 21
2002.4153
  0
LINE
  8
_0-3_軸組
  6
CONTINUOUS
 62
    3
 10
1099.7532
 20
2002.4153
 11
1104.7433
 21
2006.9954
  0
LINE
  8
_0-3_軸組
  6
CONTINUOUS
 62
    3
 10
1104.7433
 20
2006.9954
 11
1109.2952
 21
2012.0129
  0
LINE
  8
_0-3_軸組
  6
CONTINUOUS
 62
    3
 10
1109.2952
 20
2012.0129
 11
1113.2998
 21
2017.5378
  0
LINE
  8
_0-3_軸組
  6
CONTINUOUS
 62
    3
 10
1113.2998
 20
2017.5378
 11
1116.7914
 21
2023.514
  0
LINE
  8
_0-3_軸組
  6
CONTINUOUS
 62
    3
 10
1116.7914
 20
2023.514
 11
1120.091
 21
2029.6168
  0
LINE
  8
_0-3_軸組
  6
CONTINUOUS
 62
    3
 10
1120.091
 20
2029.6168
 11
1123.5331
 21
2035.5019
  0
LINE
  8
_0-3_軸組
  6
CONTINUOUS
 62
    3
 10
1123.5331
 20
2035.5019
 11
1127.4711
 21
2040.8243
  0
LINE
  8
_0-3_軸組
  6
CONTINUOUS
 62
    3
 10
1127.4711
 20
2040.8243
 11
1132.2383
 21
2045.2372
  0
LINE
  8
_0-3_軸組
  6
CONTINUOUS
 62
    3
 10
1132.2383
 20
2045.2372
 11
1137.9398
 21
2048.6489
  0
LINE
  8
_0-3_軸組
  6
CONTINUOUS
 62
    3
 10
1137.9398
 20
2048.6489
 11
1144.228
 21
2051.4365
  0
LINE
  8
_0-3_軸組
  6
CONTINUOUS
 62
    3
 10
1144.228
 20
2051.4365
 11
1147.2042
 21
2052.6257
  0
LINE
  8
_0-3_軸組
  6
CONTINUOUS
 62
    3
 10
1144.228
 20
2051.4365
 11
1148.3679
 21
2052.0947
  0
LINE
  8
_0-3_軸組
  6
CONTINUOUS
 62
    3
 10
1148.3679
 20
2052.0947
 11
1152.5457
 21
2052.6668
  0
LINE
  8
_0-3_軸組
  6
CONTINUOUS
 62
    3
 10
1152.5457
 20
2052.6668
 11
1156.7932
 21
2053.0771
  0
LINE
  8
_0-3_軸組
  6
CONTINUOUS
 62
    3
 10
1156.7932
 20
2053.0771
 11
1161.1437
 21
2053.232
  0
LINE
  8
_0-3_軸組
  6
CONTINUOUS
 62
    3
 10
1161.1437
 20
2053.232
 11
1165.6271
 21
2053.0563
  0
LINE
  8
_0-3_軸組
  6
CONTINUOUS
 62
    3
 10
1165.6271
 20
2053.0563
 11
1170.1134
 21
2052.4025
  0
LINE
  8
_0-3_軸組
  6
CONTINUOUS
 62
    3
 10
1170.1134
 20
2052.4025
 11
1174.2991
 21
2051.0921
  0
LINE
  8
_0-3_軸組
  6
CONTINUOUS
 62
    3
 10
1174.2991
 20
2051.0921
 11
1177.8667
 21
2048.9191
  0
LINE
  8
_0-3_軸組
  6
CONTINUOUS
 62
    3
 10
1177.8667
 20
2048.9191
 11
1180.5593
 21
2045.7439
  0
LINE
  8
_0-3_軸組
  6
CONTINUOUS
 62
    3
 10
1180.5593
 20
2045.7439
 11
1182.6579
 21
2041.9314
  0
LINE
  8
_0-3_軸組
  6
CONTINUOUS
 62
    3
 10
1069.5432
 20
1967.647
 11
1076.2652
 21
1968.6447
  0
LINE
  8
_0-3_軸組
  6
CONTINUOUS
 62
    3
 10
1076.2652
 20
1968.6447
 11
1082.9453
 21
1969.7745
  0
LINE
  8
_0-3_軸組
  6
CONTINUOUS
 62
    3
 10
1082.9453
 20
1969.7745
 11
1089.5522
 21
1971.1542
  0
LINE
  8
_0-3_軸組
  6
CONTINUOUS
 62
    3
 10
1089.5522
 20
1971.1542
 11
1096.0406
 21
1972.9204
  0
LINE
  8
_0-3_軸組
  6
CONTINUOUS
 62
    3
 10
1096.0406
 20
1972.9204
 11
1102.3768
 21
1975.1929
  0
LINE
  8
_0-3_軸組
  6
CONTINUOUS
 62
    3
 10
1102.3768
 20
1975.1929
 11
1108.5252
 21
1978.0048
  0
LINE
  8
_0-3_軸組
  6
CONTINUOUS
 62
    3
 10
1108.5252
 20
1978.0048
 11
1114.4593
 21
1981.3007
  0
LINE
  8
_0-3_軸組
  6
CONTINUOUS
 62
    3
 10
1114.4593
 20
1981.3007
 11
1120.1464
 21
1985.0425
  0
LINE
  8
_0-3_軸組
  6
CONTINUOUS
 62
    3
 10
1120.1464
 20
1985.0425
 11
1125.5599
 21
1989.1639
  0
LINE
  8
_0-3_軸組
  6
CONTINUOUS
 62
    3
 10
1125.5599
 20
1989.1639
 11
1130.6745
 21
1993.6252
  0
LINE
  8
_0-3_軸組
  6
CONTINUOUS
 62
    3
 10
1130.6745
 20
1993.6252
 11
1135.5283
 21
1998.3459
  0
LINE
  8
_0-3_軸組
  6
CONTINUOUS
 62
    3
 10
1135.5283
 20
1998.3459
 11
1140.2197
 21
2003.2175
  0
LINE
  8
_0-3_軸組
  6
CONTINUOUS
 62
    3
 10
1140.2197
 20
2003.2175
 11
1144.8518
 21
2008.1336
  0
LINE
  8
_0-3_軸組
  6
CONTINUOUS
 62
    3
 10
1144.8518
 20
2008.1336
 11
1149.5227
 21
2012.9849
  0
LINE
  8
_0-3_軸組
  6
CONTINUOUS
 62
    3
 10
1149.5227
 20
2012.9849
 11
1154.3386
 21
2017.6655
  0
LINE
  8
_0-3_軸組
  6
CONTINUOUS
 62
    3
 10
1154.3386
 20
2017.6655
 11
1159.3919
 21
2022.0823
  0
LINE
  8
_0-3_軸組
  6
CONTINUOUS
 62
    3
 10
1159.3919
 20
2022.0823
 11
1164.6762
 21
2026.2323
  0
LINE
  8
_0-3_軸組
  6
CONTINUOUS
 62
    3
 10
1164.6762
 20
2026.2323
 11
1170.1488
 21
2030.178
  0
LINE
  8
_0-3_軸組
  6
CONTINUOUS
 62
    3
 10
1170.1488
 20
2030.178
 11
1175.7521
 21
2033.9713
  0
LINE
  8
_0-3_軸組
  6
CONTINUOUS
 62
    3
 10
1175.7521
 20
2033.9713
 11
1181.4432
 21
2037.6685
  0
LINE
  8
_0-3_軸組
  6
CONTINUOUS
 62
    3
 10
1181.4432
 20
2037.6685
 11
1185.472
 21
2040.2434
  0
LINE
  8
_0-3_軸組
  6
CONTINUOUS
 62
    3
 10
1185.472
 20
2040.2434
 11
1191.7595
 21
2042.8519
  0
LINE
  8
_0-3_軸組
  6
CONTINUOUS
 62
    3
 10
1191.7595
 20
2042.8519
 11
1198.0825
 21
2045.2867
  0
LINE
  8
_0-3_軸組
  6
CONTINUOUS
 62
    3
 10
1198.0825
 20
2045.2867
 11
1204.4806
 21
2047.3766
  0
LINE
  8
_0-3_軸組
  6
CONTINUOUS
 62
    3
 10
1204.4806
 20
2047.3766
 11
1210.9902
 21
2048.9518
  0
LINE
  8
_0-3_軸組
  6
CONTINUOUS
 62
    3
 10
1210.9902
 20
2048.9518
 11
1217.6273
 21
2049.9163
  0
LINE
  8
_0-3_軸組
  6
CONTINUOUS
 62
    3
 10
1217.6273
 20
2049.9163
 11
1224.3604
 21
2050.3394
  0
LINE
  8
_0-3_軸組
  6
CONTINUOUS
 62
    3
 10
1224.3604
 20
2050.3394
 11
1231.1504
 21
2050.3151
  0
LINE
  8
_0-3_軸組
  6
CONTINUOUS
 62
    3
 10
1231.1504
 20
2050.3151
 11
1237.9599
 21
2049.9331
  0
LINE
  8
_0-3_軸組
  6
CONTINUOUS
 62
    3
 10
1237.9599
 20
2049.9331
 11
1244.7571
 21
2049.2883
  0
LINE
  8
_0-3_軸組
  6
CONTINUOUS
 62
    3
 10
1244.7571
 20
2049.2883
 11
1251.5018
 21
2048.4589
  0
LINE
  8
_0-3_軸組
  6
CONTINUOUS
 62
    3
 10
1251.5018
 20
2048.4589
 11
1258.1881
 21
2047.427
  0
LINE
  8
_0-3_軸組
  6
CONTINUOUS
 62
    3
 10
1258.1881
 20
2047.427
 11
1264.8166
 21
2046.1715
  0
LINE
  8
_0-3_軸組
  6
CONTINUOUS
 62
    3
 10
1264.8166
 20
2046.1715
 11
1271.3782
 21
2044.6483
  0
LINE
  8
_0-3_軸組
  6
CONTINUOUS
 62
    3
 10
1271.3782
 20
2044.6483
 11
1277.8774
 21
2042.8306
  0
LINE
  8
_0-3_軸組
  6
CONTINUOUS
 62
    3
 10
1277.8774
 20
2042.8306
 11
1284.3114
 21
2040.6789
  0
LINE
  8
_0-3_軸組
  6
CONTINUOUS
 62
    3
 10
1284.3114
 20
2040.6789
 11
1290.6532
 21
2038.1629
  0
LINE
  8
_0-3_軸組
  6
CONTINUOUS
 62
    3
 10
1290.6532
 20
2038.1629
 11
1296.8447
 21
2035.2545
  0
LINE
  8
_0-3_軸組
  6
CONTINUOUS
 62
    3
 10
1296.8447
 20
2035.2545
 11
1302.7946
 21
2031.9353
  0
LINE
  8
_0-3_軸組
  6
CONTINUOUS
 62
    3
 10
1302.7946
 20
2031.9353
 11
1308.4278
 21
2028.1732
  0
LINE
  8
_0-3_軸組
  6
CONTINUOUS
 62
    3
 10
1308.4278
 20
2028.1732
 11
1313.6597
 21
2023.943
  0
LINE
  8
_0-3_軸組
  6
CONTINUOUS
 62
    3
 10
1313.6597
 20
2023.943
 11
1318.4192
 21
2019.2313
  0
LINE
  8
_0-3_軸組
  6
CONTINUOUS
 62
    3
 10
1318.4192
 20
2019.2313
 11
1322.768
 21
2014.1068
  0
LINE
  8
_0-3_軸組
  6
CONTINUOUS
 62
    3
 10
1322.768
 20
2014.1068
 11
1326.8141
 21
2008.6824
  0
LINE
  8
_0-3_軸組
  6
CONTINUOUS
 62
    3
 10
1326.8141
 20
2008.6824
 11
1330.6717
 21
2003.0749
  0
LINE
  8
_0-3_軸組
  6
CONTINUOUS
 62
    3
 10
1330.6717
 20
2003.0749
 11
1332.913
 21
1999.7256
  0
LINE
  8
_0-3_軸組
  6
CONTINUOUS
 62
    3
 10
1330.6717
 20
2003.0749
 11
1333.6877
 21
1996.829
  0
LINE
  8
_0-3_軸組
  6
CONTINUOUS
 62
    3
 10
1333.6877
 20
1996.829
 11
1336.5442
 21
1990.5545
  0
LINE
  8
_0-3_軸組
  6
CONTINUOUS
 62
    3
 10
1336.5442
 20
1990.5545
 11
1339.0844
 21
1984.2368
  0
LINE
  8
_0-3_軸組
  6
CONTINUOUS
 62
    3
 10
1339.0844
 20
1984.2368
 11
1341.1483
 21
1977.8405
  0
LINE
  8
_0-3_軸組
  6
CONTINUOUS
 62
    3
 10
1341.1483
 20
1977.8405
 11
1342.5777
 21
1971.3482
  0
LINE
  8
_0-3_軸組
  6
CONTINUOUS
 62
    3
 10
1342.5777
 20
1971.3482
 11
1343.2203
 21
1964.7341
  0
LINE
  8
_0-3_軸組
  6
CONTINUOUS
 62
    3
 10
1343.2203
 20
1964.7341
 11
1343.0363
 21
1958.025
  0
LINE
  8
_0-3_軸組
  6
CONTINUOUS
 62
    3
 10
1343.0363
 20
1958.025
 11
1342.1368
 21
1951.2863
  0
LINE
  8
_0-3_軸組
  6
CONTINUOUS
 62
    3
 10
1342.1368
 20
1951.2863
 11
1340.6386
 21
1944.5955
  0
LINE
  8
_0-3_軸組
  6
CONTINUOUS
 62
    3
 10
1340.6386
 20
1944.5955
 11
1338.6442
 21
1938.0304
  0
LINE
  8
_0-3_軸組
  6
CONTINUOUS
 62
    3
 10
1338.6442
 20
1938.0304
 11
1336.1864
 21
1931.6806
  0
LINE
  8
_0-3_軸組
  6
CONTINUOUS
 62
    3
 10
1336.1864
 20
1931.6806
 11
1333.1995
 21
1925.6362
  0
LINE
  8
_0-3_軸組
  6
CONTINUOUS
 62
    3
 10
1333.1995
 20
1925.6362
 11
1329.6114
 21
1919.9911
  0
LINE
  8
_0-3_軸組
  6
CONTINUOUS
 62
    3
 10
1329.6114
 20
1919.9911
 11
1325.4304
 21
1914.7775
  0
LINE
  8
_0-3_軸組
  6
CONTINUOUS
 62
    3
 10
1325.4304
 20
1914.7775
 11
1320.7825
 21
1909.9
  0
LINE
  8
_0-3_軸組
  6
CONTINUOUS
 62
    3
 10
1320.7825
 20
1909.9
 11
1315.8142
 21
1905.257
  0
LINE
  8
_0-3_軸組
  6
CONTINUOUS
 62
    3
 10
1315.8142
 20
1905.257
 11
1310.6652
 21
1900.7492
  0
LINE
  8
_0-3_軸組
  6
CONTINUOUS
 62
    3
 10
1310.6652
 20
1900.7492
 11
1309.2763
 21
1899.5555
  0
LINE
  8
_0-3_軸組
  6
CONTINUOUS
 62
    3
 10
1310.6652
 20
1900.7492
 11
1304.7543
 21
1897.4354
  0
LINE
  8
_0-3_軸組
  6
CONTINUOUS
 62
    3
 10
1304.7543
 20
1897.4354
 11
1298.8217
 21
1894.1836
  0
LINE
  8
_0-3_軸組
  6
CONTINUOUS
 62
    3
 10
1298.8217
 20
1894.1836
 11
1292.8404
 21
1891.0495
  0
LINE
  8
_0-3_軸組
  6
CONTINUOUS
 62
    3
 10
1292.8404
 20
1891.0495
 11
1286.7766
 21
1888.0936
  0
LINE
  8
_0-3_軸組
  6
CONTINUOUS
 62
    3
 10
1286.7766
 20
1888.0936
 11
1280.6158
 21
1885.3732
  0
LINE
  8
_0-3_軸組
  6
CONTINUOUS
 62
    3
 10
1280.6158
 20
1885.3732
 11
1274.3232
 21
1882.9478
  0
LINE
  8
_0-3_軸組
  6
CONTINUOUS
 62
    3
 10
1274.3232
 20
1882.9478
 11
1267.8982
 21
1880.8517
  0
LINE
  8
_0-3_軸組
  6
CONTINUOUS
 62
    3
 10
1267.8982
 20
1880.8517
 11
1261.3663
 21
1879.0921
  0
LINE
  8
_0-3_軸組
  6
CONTINUOUS
 62
    3
 10
1261.3663
 20
1879.0921
 11
1254.7537
 21
1877.6674
  0
LINE
  8
_0-3_軸組
  6
CONTINUOUS
 62
    3
 10
1254.7537
 20
1877.6674
 11
1248.0802
 21
1876.5771
  0
LINE
  8
_0-3_軸組
  6
CONTINUOUS
 62
    3
 10
1248.0802
 20
1876.5771
 11
1241.3773
 21
1875.814
  0
LINE
  8
_0-3_軸組
  6
CONTINUOUS
 62
    3
 10
1241.3773
 20
1875.814
 11
1234.6527
 21
1875.3204
  0
LINE
  8
_0-3_軸組
  6
CONTINUOUS
 62
    3
 10
1234.6527
 20
1875.3204
 11
1227.9099
 21
1875.0326
  0
LINE
  8
_0-3_軸組
  6
CONTINUOUS
 62
    3
 10
1227.9099
 20
1875.0326
 11
1221.1528
 21
1874.8762
  0
LINE
  8
_0-3_軸組
  6
CONTINUOUS
 62
    3
 10
1221.1528
 20
1874.8762
 11
1215.2954
 21
1874.7938
  0
LINE
  8
_0-3_軸組
  6
CONTINUOUS
 62
    3
 10
1139.7926
 20
1874.173
 11
1146.1132
 21
1871.6152
  0
LINE
  8
_0-3_軸組
  6
CONTINUOUS
 62
    3
 10
1146.1132
 20
1871.6152
 11
1152.4692
 21
1869.0864
  0
LINE
  8
_0-3_軸組
  6
CONTINUOUS
 62
    3
 10
1152.4692
 20
1869.0864
 11
1158.8853
 21
1866.7562
  0
LINE
  8
_0-3_軸組
  6
CONTINUOUS
 62
    3
 10
1158.8853
 20
1866.7562
 11
1165.3631
 21
1864.8133
  0
LINE
  8
_0-3_軸組
  6
CONTINUOUS
 62
    3
 10
1165.3631
 20
1864.8133
 11
1171.9205
 21
1863.4433
  0
LINE
  8
_0-3_軸組
  6
CONTINUOUS
 62
    3
 10
1171.9205
 20
1863.4433
 11
1178.5704
 21
1862.8293
  0
LINE
  8
_0-3_軸組
  6
CONTINUOUS
 62
    3
 10
1178.5704
 20
1862.8293
 11
1185.2988
 21
1862.9256
  0
LINE
  8
_0-3_軸組
  6
CONTINUOUS
 62
    3
 10
1185.2988
 20
1862.9256
 11
1192.0752
 21
1863.4252
  0
LINE
  8
_0-3_軸組
  6
CONTINUOUS
 62
    3
 10
1192.0752
 20
1863.4252
 11
1193.3488
 21
1863.5375
  0
LINE
  8
_0-3_軸組
  6
CONTINUOUS
 62
    3
 10
1192.0752
 20
1863.4252
 11
1197.6169
 21
1864.6612
  0
LINE
  8
_0-3_軸組
  6
CONTINUOUS
 62
    3
 10
1197.6169
 20
1864.6612
 11
1202.9353
 21
1866.371
  0
LINE
  8
_0-3_軸組
  6
CONTINUOUS
 62
    3
 10
1202.9353
 20
1866.371
 11
1207.8156
 21
1869.0337
  0
LINE
  8
_0-3_軸組
  6
CONTINUOUS
 62
    3
 10
1207.8156
 20
1869.0337
 11
1211.9758
 21
1872.8542
  0
LINE
  8
_0-3_軸組
  6
CONTINUOUS
 62
    3
 10
1211.9758
 20
1872.8542
 11
1215.0604
 21
1877.6426
  0
LINE
  8
_0-3_軸組
  6
CONTINUOUS
 62
    3
 10
1215.0604
 20
1877.6426
 11
1216.7405
 21
1883.1177
  0
LINE
  8
_0-3_軸組
  6
CONTINUOUS
 62
    3
 10
1216.7405
 20
1883.1177
 11
1216.8642
 21
1888.7805
  0
LINE
  8
_0-3_軸組
  6
CONTINUOUS
 62
    3
 10
1216.8642
 20
1888.7805
 11
1215.366
 21
1894.0861
  0
LINE
  8
_0-3_軸組
  6
CONTINUOUS
 62
    3
 10
1215.366
 20
1894.0861
 11
1212.5652
 21
1898.9122
  0
LINE
  8
_0-3_軸組
  6
CONTINUOUS
 62
    3
 10
1212.5652
 20
1898.9122
 11
1209.1065
 21
1903.4943
  0
LINE
  8
_0-3_軸組
  6
CONTINUOUS
 62
    3
 10
1079.2669
 20
1958.9124
 11
1086.0779
 21
1957.7524
  0
LINE
  8
_0-3_軸組
  6
CONTINUOUS
 62
    3
 10
1086.0779
 20
1957.7524
 11
1092.8654
 21
1956.7893
  0
LINE
  8
_0-3_軸組
  6
CONTINUOUS
 62
    3
 10
1092.8654
 20
1956.7893
 11
1099.604
 21
1956.2168
  0
LINE
  8
_0-3_軸組
  6
CONTINUOUS
 62
    3
 10
1099.604
 20
1956.2168
 11
1106.2697
 21
1956.2271
  0
LINE
  8
_0-3_軸組
  6
CONTINUOUS
 62
    3
 10
1106.2697
 20
1956.2271
 11
1112.8375
 21
1957.0115
  0
LINE
  8
_0-3_軸組
  6
CONTINUOUS
 62
    3
 10
1112.8375
 20
1957.0115
 11
1119.3091
 21
1958.6045
  0
LINE
  8
_0-3_軸組
  6
CONTINUOUS
 62
    3
 10
1119.3091
 20
1958.6045
 11
1125.698
 21
1960.7904
  0
LINE
  8
_0-3_軸組
  6
CONTINUOUS
 62
    3
 10
1125.698
 20
1960.7904
 11
1132.0349
 21
1963.3549
  0
LINE
  8
_0-3_軸組
  6
CONTINUOUS
 62
    3
 10
1132.0349
 20
1963.3549
 11
1138.3327
 21
1966.0649
  0
LINE
  8
_0-3_軸組
  6
CONTINUOUS
 62
    3
 10
1138.3327
 20
1966.0649
 11
1144.6237
 21
1968.7253
  0
LINE
  8
_0-3_軸組
  6
CONTINUOUS
 62
    3
 10
1144.6237
 20
1968.7253
 11
1150.9081
 21
1971.2858
  0
LINE
  8
_0-3_軸組
  6
CONTINUOUS
 62
    3
 10
1150.9081
 20
1971.2858
 11
1157.1916
 21
1973.7701
  0
LINE
  8
_0-3_軸組
  6
CONTINUOUS
 62
    3
 10
1157.1916
 20
1973.7701
 11
1163.4687
 21
1976.1926
  0
LINE
  8
_0-3_軸組
  6
CONTINUOUS
 62
    3
 10
1163.4687
 20
1976.1926
 11
1169.7457
 21
1978.5705
  0
LINE
  8
_0-3_軸組
  6
CONTINUOUS
 62
    3
 10
1169.7457
 20
1978.5705
 11
1176.0238
 21
1980.9266
  0
LINE
  8
_0-3_軸組
  6
CONTINUOUS
 62
    3
 10
1176.0238
 20
1980.9266
 11
1175.9367
 21
1975.1444
  0
LINE
  8
_0-3_軸組
  6
CONTINUOUS
 62
    3
 10
1175.9367
 20
1975.1444
 11
1175.853
 21
1969.3687
  0
LINE
  8
_0-3_軸組
  6
CONTINUOUS
 62
    3
 10
1175.853
 20
1969.3687
 11
1175.7699
 21
1963.5855
  0
LINE
  8
_0-3_軸組
  6
CONTINUOUS
 62
    3
 10
1175.7699
 20
1963.5855
 11
1175.6826
 21
1957.8088
  0
LINE
  8
_0-3_軸組
  6
CONTINUOUS
 62
    3
 10
1175.6826
 20
1957.8088
 11
1175.6002
 21
1952.0325
  0
LINE
  8
_0-3_軸組
  6
CONTINUOUS
 62
    3
 10
1175.6002
 20
1952.0325
 11
1175.5168
 21
1946.2499
  0
LINE
  8
_0-3_軸組
  6
CONTINUOUS
 62
    3
 10
1175.5168
 20
1946.2499
 11
1175.4297
 21
1940.4741
  0
LINE
  8
_0-3_軸組
  6
CONTINUOUS
 62
    3
 10
1175.4297
 20
1940.4741
 11
1175.3463
 21
1934.692
  0
LINE
  8
_0-3_軸組
  6
CONTINUOUS
 62
    3
 10
1175.3463
 20
1934.692
 11
1175.2607
 21
1928.9142
  0
LINE
  8
_0-3_軸組
  6
CONTINUOUS
 62
    3
 10
1175.2607
 20
1928.9142
 11
1175.176
 21
1923.1336
  0
LINE
  8
_0-3_軸組
  6
CONTINUOUS
 62
    3
 10
1209.1065
 20
1903.4943
 11
1207.7248
 21
1904.7126
  0
LINE
  8
_0-3_軸組
  6
CONTINUOUS
 62
    3
 10
1207.7248
 20
1904.7126
 11
1205.7386
 21
1906.1854
  0
LINE
  8
_0-3_軸組
  6
CONTINUOUS
 62
    3
 10
1205.7386
 20
1906.1854
 11
1203.2271
 21
1907.87
  0
LINE
  8
_0-3_軸組
  6
CONTINUOUS
 62
    3
 10
1203.2271
 20
1907.87
 11
1200.2583
 21
1909.7263
  0
LINE
  8
_0-3_軸組
  6
CONTINUOUS
 62
    3
 10
1200.2583
 20
1909.7263
 11
1196.8735
 21
1911.7172
  0
LINE
  8
_0-3_軸組
  6
CONTINUOUS
 62
    3
 10
1196.8735
 20
1911.7172
 11
1193.1337
 21
1913.8169
  0
LINE
  8
_0-3_軸組
  6
CONTINUOUS
 62
    3
 10
1193.1337
 20
1913.8169
 11
1189.0742
 21
1915.9994
  0
LINE
  8
_0-3_軸組
  6
CONTINUOUS
 62
    3
 10
1189.0742
 20
1915.9994
 11
1184.726
 21
1918.2407
  0
LINE
  8
_0-3_軸組
  6
CONTINUOUS
 62
    3
 10
1184.726
 20
1918.2407
 11
1180.1283
 21
1920.5241
  0
LINE
  8
_0-3_軸組
  6
CONTINUOUS
 62
    3
 10
1180.1283
 20
1920.5241
 11
1175.3055
 21
1922.8327
  0
LINE
  8
_0-3_軸組
  6
CONTINUOUS
 62
    3
 10
1175.3055
 20
1922.8327
 11
1170.2757
 21
1925.1502
  0
LINE
  8
_0-3_軸組
  6
CONTINUOUS
 62
    3
 10
1170.2757
 20
1925.1502
 11
1165.0721
 21
1927.4707
  0
LINE
  8
_0-3_軸組
  6
CONTINUOUS
 62
    3
 10
1165.0721
 20
1927.4707
 11
1159.7061
 21
1929.7788
  0
LINE
  8
_0-3_軸組
  6
CONTINUOUS
 62
    3
 10
1159.7061
 20
1929.7788
 11
1154.207
 21
1932.0691
  0
LINE
  8
_0-3_軸組
  6
CONTINUOUS
 62
    3
 10
1154.207
 20
1932.0691
 11
1148.5894
 21
1934.3352
  0
LINE
  8
_0-3_軸組
  6
CONTINUOUS
 62
    3
 10
1148.5894
 20
1934.3352
 11
1142.8745
 21
1936.5666
  0
LINE
  8
_0-3_軸組
  6
CONTINUOUS
 62
    3
 10
1142.8745
 20
1936.5666
 11
1137.0832
 21
1938.7619
  0
LINE
  8
_0-3_軸組
  6
CONTINUOUS
 62
    3
 10
1137.0832
 20
1938.7619
 11
1131.2391
 21
1940.9146
  0
LINE
  8
_0-3_軸組
  6
CONTINUOUS
 62
    3
 10
1131.2391
 20
1940.9146
 11
1125.3684
 21
1943.0247
  0
LINE
  8
_0-3_軸組
  6
CONTINUOUS
 62
    3
 10
1125.3684
 20
1943.0247
 11
1119.4907
 21
1945.078
  0
LINE
  8
_0-3_軸組
  6
CONTINUOUS
 62
    3
 10
1119.4907
 20
1945.078
 11
1113.6308
 21
1947.0758
  0
LINE
  8
_0-3_軸組
  6
CONTINUOUS
 62
    3
 10
1113.6308
 20
1947.0758
 11
1107.817
 21
1949.0172
  0
LINE
  8
_0-3_軸組
  6
CONTINUOUS
 62
    3
 10
1107.817
 20
1949.0172
 11
1102.0813
 21
1950.8894
  0
LINE
  8
_0-3_軸組
  6
CONTINUOUS
 62
    3
 10
1102.0813
 20
1950.8894
 11
1096.4456
 21
1952.6942
  0
LINE
  8
_0-3_軸組
  6
CONTINUOUS
 62
    3
 10
1096.4456
 20
1952.6942
 11
1090.946
 21
1954.4228
  0
LINE
  8
_0-3_軸組
  6
CONTINUOUS
 62
    3
 10
1090.946
 20
1954.4228
 11
1085.6125
 21
1956.0673
  0
LINE
  8
_0-3_軸組
  6
CONTINUOUS
 62
    3
 10
1085.6125
 20
1956.0673
 11
1080.4736
 21
1957.6207
  0
LINE
  8
_0-3_軸組
  6
CONTINUOUS
 62
    3
 10
1080.4736
 20
1957.6207
 11
1075.5565
 21
1959.0801
  0
LINE
  8
_0-3_軸組
  6
CONTINUOUS
 62
    3
 10
1075.5565
 20
1959.0801
 11
1070.8945
 21
1960.4321
  0
LINE
  8
_0-3_軸組
  6
CONTINUOUS
 62
    3
 10
1176.0238
 20
1980.9266
 11
1176.1039
 21
1980.9543
  0
LINE
  8
_0-3_軸組
  6
CONTINUOUS
 62
    3
 10
1084.133
 20
1860.666
 11
1084.133
 21
1847.3963
  0
LINE
  8
_0-3_軸組
  6
CONTINUOUS
 62
    3
 10
1084.133
 20
1847.3963
 11
1124.4568
 21
1847.3963
  0
LINE
  8
_0-3_軸組
  6
CONTINUOUS
 62
    3
 10
1124.4568
 20
1860.666
 11
1124.4568
 21
1847.3963
  0
LINE
  8
_0-3_軸組
  6
CONTINUOUS
 62
    3
 10
1084.133
 20
1860.666
 11
1124.4568
 21
1860.666
  0
LINE
  8
_0-3_軸組
  6
CONTINUOUS
 62
    3
 10
1105.5722
 20
1860.666
 11
1105.5722
 21
1887.1162
  0
LINE
  8
_0-3_軸組
  6
CONTINUOUS
 62
    3
 10
1096.5763
 20
1896.1087
 11
1050
 21
1896.1087
  0
LINE
  8
_0-3_軸組
  6
CONTINUOUS
 62
    3
 10
1065.4498
 20
1996.4569
 11
1065.4498
 21
1952.9199
  0
LINE
  8
_0-3_軸組
  6
CONTINUOUS
 62
    3
 10
1071.7952
 20
1983.403
 11
1071.1365
 21
1983.0308
  0
LINE
  8
_0-3_軸組
  6
CONTINUOUS
 62
    3
 10
1071.1365
 20
1983.0308
 11
1070.4625
 21
1982.6399
  0
LINE
  8
_0-3_軸組
  6
CONTINUOUS
 62
    3
 10
1070.4625
 20
1982.6399
 11
1069.7795
 21
1982.2296
  0
LINE
  8
_0-3_軸組
  6
CONTINUOUS
 62
    3
 10
1069.7795
 20
1982.2296
 11
1069.0828
 21
1981.8
  0
LINE
  8
_0-3_軸組
  6
CONTINUOUS
 62
    3
 10
1069.0828
 20
1981.8
 11
1068.3719
 21
1981.3571
  0
LINE
  8
_0-3_軸組
  6
CONTINUOUS
 62
    3
 10
1068.3719
 20
1981.3571
 11
1067.6486
 21
1980.891
  0
LINE
  8
_0-3_軸組
  6
CONTINUOUS
 62
    3
 10
1067.6486
 20
1980.891
 11
1066.9137
 21
1980.4089
  0
LINE
  8
_0-3_軸組
  6
CONTINUOUS
 62
    3
 10
1066.9137
 20
1980.4089
 11
1066.1635
 21
1979.9057
  0
LINE
  8
_0-3_軸組
  6
CONTINUOUS
 62
    3
 10
1066.1635
 20
1979.9057
 11
1065.4033
 21
1979.388
  0
LINE
  8
_0-3_軸組
  6
CONTINUOUS
 62
    3
 10
1069.5432
 20
1967.647
 11
1069.055
 21
1967.5535
  0
LINE
  8
_0-3_軸組
  6
CONTINUOUS
 62
    3
 10
1069.055
 20
1967.5535
 11
1068.573
 21
1967.4664
  0
LINE
  8
_0-3_軸組
  6
CONTINUOUS
 62
    3
 10
1068.573
 20
1967.4664
 11
1068.0999
 21
1967.3798
  0
LINE
  8
_0-3_軸組
  6
CONTINUOUS
 62
    3
 10
1068.0999
 20
1967.3798
 11
1067.6318
 21
1967.2956
  0
LINE
  8
_0-3_軸組
  6
CONTINUOUS
 62
    3
 10
1067.6318
 20
1967.2956
 11
1067.1735
 21
1967.2155
  0
LINE
  8
_0-3_軸組
  6
CONTINUOUS
 62
    3
 10
1067.1735
 20
1967.2155
 11
1066.719
 21
1967.1402
  0
LINE
  8
_0-3_軸組
  6
CONTINUOUS
 62
    3
 10
1066.719
 20
1967.1402
 11
1066.2736
 21
1967.0695
  0
LINE
  8
_0-3_軸組
  6
CONTINUOUS
 62
    3
 10
1066.2736
 20
1967.0695
 11
1065.8334
 21
1967.0007
  0
LINE
  8
_0-3_軸組
  6
CONTINUOUS
 62
    3
 10
1065.8334
 20
1967.0007
 11
1065.4033
 21
1966.9344
  0
LINE
  8
_0-3_軸組
  6
CONTINUOUS
 62
    3
 10
1079.2669
 20
1958.9124
 11
1077.4106
 21
1959.3053
  0
LINE
  8
_0-3_軸組
  6
CONTINUOUS
 62
    3
 10
1077.4106
 20
1959.3053
 11
1075.6293
 21
1959.6859
  0
LINE
  8
_0-3_軸組
  6
CONTINUOUS
 62
    3
 10
1075.6293
 20
1959.6859
 11
1073.9301
 21
1960.055
  0
LINE
  8
_0-3_軸組
  6
CONTINUOUS
 62
    3
 10
1073.9301
 20
1960.055
 11
1072.3096
 21
1960.4114
  0
LINE
  8
_0-3_軸組
  6
CONTINUOUS
 62
    3
 10
1072.3096
 20
1960.4114
 11
1070.7683
 21
1960.7548
  0
LINE
  8
_0-3_軸組
  6
CONTINUOUS
 62
    3
 10
1070.7683
 20
1960.7548
 11
1069.3084
 21
1961.0883
  0
LINE
  8
_0-3_軸組
  6
CONTINUOUS
 62
    3
 10
1069.3084
 20
1961.0883
 11
1067.9265
 21
1961.4075
  0
LINE
  8
_0-3_軸組
  6
CONTINUOUS
 62
    3
 10
1067.9265
 20
1961.4075
 11
1066.6247
 21
1961.7159
  0
LINE
  8
_0-3_軸組
  6
CONTINUOUS
 62
    3
 10
1066.6247
 20
1961.7159
 11
1065.4033
 21
1962.0108
  0
LINE
  8
_0-3_軸組
  6
CONTINUOUS
 62
    3
 10
1070.8945
 20
1960.4321
 11
1070.168
 21
1960.6301
  0
LINE
  8
_0-3_軸組
  6
CONTINUOUS
 62
    3
 10
1070.168
 20
1960.6301
 11
1069.4707
 21
1960.8206
  0
LINE
  8
_0-3_軸組
  6
CONTINUOUS
 62
    3
 10
1069.4707
 20
1960.8206
 11
1068.8041
 21
1961.0082
  0
LINE
  8
_0-3_軸組
  6
CONTINUOUS
 62
    3
 10
1068.8041
 20
1961.0082
 11
1068.1682
 21
1961.1893
  0
LINE
  8
_0-3_軸組
  6
CONTINUOUS
 62
    3
 10
1068.1682
 20
1961.1893
 11
1067.5655
 21
1961.363
  0
LINE
  8
_0-3_軸組
  6
CONTINUOUS
 62
    3
 10
1067.5655
 20
1961.363
 11
1066.9894
 21
1961.5283
  0
LINE
  8
_0-3_軸組
  6
CONTINUOUS
 62
    3
 10
1066.9894
 20
1961.5283
 11
1066.445
 21
1961.6906
  0
LINE
  8
_0-3_軸組
  6
CONTINUOUS
 62
    3
 10
1066.445
 20
1961.6906
 11
1065.9316
 21
1961.848
  0
LINE
  8
_0-3_軸組
  6
CONTINUOUS
 62
    3
 10
1065.9316
 20
1961.848
 11
1065.4498
 21
1962.0014
  0
LINE
  8
_0-3_軸組
  6
CONTINUOUS
 62
    3
 10
1059.5016
 20
2002.4078
 11
1050
 21
2002.4078
  0
LINE
  8
_0-3_軸組
  6
CONTINUOUS
 62
    3
 10
1059.5016
 20
1910.9946
 11
1050
 21
1910.9946
  0
LINE
  8
_0-3_軸組
  6
CONTINUOUS
 62
    3
 10
1054.9633
 20
1941.989
 11
1058.4099
 21
1938.0987
  0
LINE
  8
_0-3_軸組
  6
CONTINUOUS
 62
    3
 10
1058.4099
 20
1938.0987
 11
1062.1975
 21
1934.057
  0
LINE
  8
_0-3_軸組
  6
CONTINUOUS
 62
    3
 10
1062.1975
 20
1934.057
 11
1066.2718
 21
1929.9119
  0
LINE
  8
_0-3_軸組
  6
CONTINUOUS
 62
    3
 10
1066.2718
 20
1929.9119
 11
1070.5795
 21
1925.7054
  0
LINE
  8
_0-3_軸組
  6
CONTINUOUS
 62
    3
 10
1070.5795
 20
1925.7054
 11
1075.0723
 21
1921.4777
  0
LINE
  8
_0-3_軸組
  6
CONTINUOUS
 62
    3
 10
1075.0723
 20
1921.4777
 11
1079.7044
 21
1917.2668
  0
LINE
  8
_0-3_軸組
  6
CONTINUOUS
 62
    3
 10
1079.7044
 20
1917.2668
 11
1084.4324
 21
1913.1053
  0
LINE
  8
_0-3_軸組
  6
CONTINUOUS
 62
    3
 10
1084.4324
 20
1913.1053
 11
1089.2177
 21
1909.0235
  0
LINE
  8
_0-3_軸組
  6
CONTINUOUS
 62
    3
 10
1089.2177
 20
1909.0235
 11
1094.0225
 21
1905.0502
  0
LINE
  8
_0-3_軸組
  6
CONTINUOUS
 62
    3
 10
1094.0225
 20
1905.0502
 11
1098.8154
 21
1901.2089
  0
LINE
  8
_0-3_軸組
  6
CONTINUOUS
 62
    3
 10
1098.8154
 20
1901.2089
 11
1103.564
 21
1897.5211
  0
LINE
  8
_0-3_軸組
  6
CONTINUOUS
 62
    3
 10
1103.564
 20
1897.5211
 11
1108.2436
 21
1894.0044
  0
LINE
  8
_0-3_軸組
  6
CONTINUOUS
 62
    3
 10
1108.2436
 20
1894.0044
 11
1112.8286
 21
1890.6749
  0
LINE
  8
_0-3_軸組
  6
CONTINUOUS
 62
    3
 10
1112.8286
 20
1890.6749
 11
1117.2999
 21
1887.5423
  0
LINE
  8
_0-3_軸組
  6
CONTINUOUS
 62
    3
 10
1117.2999
 20
1887.5423
 11
1121.639
 21
1884.6171
  0
LINE
  8
_0-3_軸組
  6
CONTINUOUS
 62
    3
 10
1121.639
 20
1884.6171
 11
1125.8321
 21
1881.9035
  0
LINE
  8
_0-3_軸組
  6
CONTINUOUS
 62
    3
 10
1125.8321
 20
1881.9035
 11
1129.8686
 21
1879.4039
  0
LINE
  8
_0-3_軸組
  6
CONTINUOUS
 62
    3
 10
1129.8686
 20
1879.4039
 11
1133.7398
 21
1877.1188
  0
LINE
  8
_0-3_軸組
  6
CONTINUOUS
 62
    3
 10
1133.7398
 20
1877.1188
 11
1137.4402
 21
1875.042
  0
LINE
  8
_0-3_軸組
  6
CONTINUOUS
 62
    3
 10
1137.4402
 20
1875.042
 11
1137.7117
 21
1874.9235
  0
LINE
  8
_0-3_軸組
  6
CONTINUOUS
 62
    3
 10
1137.7117
 20
1874.9235
 11
1137.9821
 21
1874.8097
  0
LINE
  8
_0-3_軸組
  6
CONTINUOUS
 62
    3
 10
1137.9821
 20
1874.8097
 11
1138.2494
 21
1874.7018
  0
LINE
  8
_0-3_軸組
  6
CONTINUOUS
 62
    3
 10
1138.2494
 20
1874.7018
 11
1138.5134
 21
1874.5996
  0
LINE
  8
_0-3_軸組
  6
CONTINUOUS
 62
    3
 10
1138.5134
 20
1874.5996
 11
1138.7749
 21
1874.5033
  0
LINE
  8
_0-3_軸組
  6
CONTINUOUS
 62
    3
 10
1138.7749
 20
1874.5033
 11
1139.0335
 21
1874.4123
  0
LINE
  8
_0-3_軸組
  6
CONTINUOUS
 62
    3
 10
1139.0335
 20
1874.4123
 11
1139.2894
 21
1874.3267
  0
LINE
  8
_0-3_軸組
  6
CONTINUOUS
 62
    3
 10
1139.2894
 20
1874.3267
 11
1139.5422
 21
1874.2475
  0
LINE
  8
_0-3_軸組
  6
CONTINUOUS
 62
    3
 10
1139.5422
 20
1874.2475
 11
1139.7926
 21
1874.173
  0
LINE
  8
_0-3_軸組
  6
CONTINUOUS
 62
    3
 10
1054.9633
 20
1941.989
 11
1057.0008
 21
1943.0005
  0
LINE
  8
_0-3_軸組
  6
CONTINUOUS
 62
    3
 10
1057.0008
 20
1943.0005
 11
1058.8199
 21
1944.0635
  0
LINE
  8
_0-3_軸組
  6
CONTINUOUS
 62
    3
 10
1058.8199
 20
1944.0635
 11
1060.4209
 21
1945.1765
  0
LINE
  8
_0-3_軸組
  6
CONTINUOUS
 62
    3
 10
1060.4209
 20
1945.1765
 11
1061.8038
 21
1946.3404
  0
LINE
  8
_0-3_軸組
  6
CONTINUOUS
 62
    3
 10
1061.8038
 20
1946.3404
 11
1062.969
 21
1947.5549
  0
LINE
  8
_0-3_軸組
  6
CONTINUOUS
 62
    3
 10
1062.969
 20
1947.5549
 11
1063.9162
 21
1948.8203
  0
LINE
  8
_0-3_軸組
  6
CONTINUOUS
 62
    3
 10
1063.9162
 20
1948.8203
 11
1064.6452
 21
1950.1362
  0
LINE
  8
_0-3_軸組
  6
CONTINUOUS
 62
    3
 10
1064.6452
 20
1950.1362
 11
1065.1569
 21
1951.5025
  0
LINE
  8
_0-3_軸組
  6
CONTINUOUS
 62
    3
 10
1065.1569
 20
1951.5025
 11
1065.4498
 21
1952.9199
  0
LINE
  8
_0-3_軸組
  6
CONTINUOUS
 62
    3
 10
1065.4516
 20
1916.9451
 11
1065.4516
 21
1930.7463
  0
LINE
  8
_0-3_軸組
  6
CONTINUOUS
 62
    3
 10
1142.7204
 20
1968.2982
 11
1131.0038
 21
1994.1206
  0
LINE
  8
_0-3_軸組
  6
CONTINUOUS
 62
    3
 10
1097.6133
 20
1829.019
 11
1050
 21
1829.019
  0
LINE
  8
_0-3_軸組
  6
CONTINUOUS
 62
    3
 10
1105.5722
 20
1836.978
 11
1105.5722
 21
1847.3963
  0
LINE
  8
_0-3_軸組
  6
CONTINUOUS
 62
    3
 10
1093.6332
 20
1821.8627
 11
1050
 21
1821.8627
  0
LINE
  8
_0-3_軸組
  6
CONTINUOUS
 62
    3
 10
1097.6133
 20
1825.8423
 11
1097.6133
 21
1829.019
  0
LINE
  8
_0-2_躯体
  6
CONTINUOUS
 62
    3
 10
1050
 20
2069.6855
 11
1357.4999
 21
2069.6855
  0
LINE
  8
_0-2_躯体
  6
CONTINUOUS
 62
    3
 10
1508.1825
 20
1926.5048
 11
1480.7326
 21
1926.5048
  0
LINE
  8
_0-2_躯体
  6
CONTINUOUS
 62
    3
 10
1524.8738
 20
1970.3939
 11
1524.8738
 21
1923.9547
  0
LINE
  8
_0-2_躯体
  6
CONTINUOUS
 62
    3
 10
1521.7796
 20
1959.1587
 11
1534.4401
 21
1959.1587
  0
LINE
  8
_0-2_躯体
  6
CONTINUOUS
 62
    3
 10
570.00002
 20
2159.4211
 11
570.00002
 21
2012.8719
  0
LINE
  8
_0-2_躯体
  6
CONTINUOUS
 62
    3
 10
1530
 20
1983.1371
 11
1357.4999
 21
1983.1371
  0
LINE
  8
_0-2_躯体
  6
CONTINUOUS
 62
    3
 10
1530
 20
1970.3939
 11
1357.4999
 21
1970.3939
  0
LINE
  8
_0-2_躯体
  6
CONTINUOUS
 62
    3
 10
1357.4999
 20
2056.9423
 11
1050
 21
2056.9423
  0
LINE
  8
_0-2_躯体
  6
CONTINUOUS
 62
    3
 10
1357.4999
 20
2030.2094
 11
1479.7735
 21
1923.9547
  0
LINE
  8
_0-2_躯体
  6
CONTINUOUS
 62
    3
 10
1360.05
 20
2031.366
 11
1480.7326
 21
1926.5048
  0
LINE
  8
_0-2_躯体
  6
CONTINUOUS
 62
    3
 10
742.49985
 20
1919.4208
 11
742.49985
 21
1833.402
  0
LINE
  8
_0-2_躯体
  6
CONTINUOUS
 62
    3
 10
1105.5722
 20
1833.402
 11
1357.4999
 21
1833.402
  0
LINE
  8
_0-2_躯体
  6
CONTINUOUS
 62
    3
 10
742.49985
 20
1820.6588
 11
1050
 21
1820.6588
  0
LINE
  8
_0-2_躯体
  6
CONTINUOUS
 62
    3
 10
742.49985
 20
1833.402
 11
1050
 21
1833.402
  0
LINE
  8
_0-8_寸法
  6
CONTINUOUS
 62
    7
 10
330.53135
 20
1659.421
 11
330.53135
 21
2269.421
  0
LINE
  8
_0-2_躯体
  6
CONTINUOUS
 62
    3
 10
639.99988
 20
1719.4208
 11
639.99988
 21
1659.421
  0
LINE
  8
_0-2_躯体
  6
CONTINUOUS
 62
    3
 10
1460.0001
 20
1719.4208
 11
1460.0001
 21
1659.421
  0
LINE
  8
_0-2_躯体
  6
CONTINUOUS
 62
    3
 10
1460.0001
 20
1719.4208
 11
639.99988
 21
1719.4208
  0
LINE
  8
_0-2_躯体
  6
CONTINUOUS
 62
    3
 10
1460.0001
 20
1659.421
 11
639.99988
 21
1659.421
  0
LINE
  8
_0-8_寸法
  6
CONTINUOUS
 62
    7
 10
639.99988
 20
1472.7472
 11
1460.0001
 21
1472.7472
  0
LINE
  8
_0-8_寸法
  6
CONTINUOUS
 62
    7
 10
639.99988
 20
1628.4253
 11
639.99988
 21
1472.7472
  0
LINE
  8
_0-8_寸法
  6
CONTINUOUS
 62
    7
 10
1460.0001
 20
1628.4253
 11
1460.0001
 21
1472.7472
  0
LINE
  8
_0-8_寸法
  6
CONTINUOUS
 62
    7
 10
1718.9189
 20
1659.421
 11
1718.9189
 21
1719.421
  0
LINE
  8
_0-8_寸法
  6
CONTINUOUS
 62
    7
 10
1564.8648
 20
1659.421
 11
1718.9189
 21
1659.421
  0
LINE
  8
_0-8_寸法
  6
CONTINUOUS
 62
    7
 10
1718.9189
 20
1719.421
 11
1718.9189
 21
1919.4208
  0
LINE
  8
_0-8_寸法
  6
CONTINUOUS
 62
    7
 10
1564.8648
 20
1919.6857
 11
1718.9189
 21
1919.4208
  0
LINE
  8
_0-8_寸法
  6
CONTINUOUS
 62
    7
 10
1718.9189
 20
1919.4208
 11
1718.9189
 21
2158.9792
  0
LINE
  8
_0-8_寸法
  6
CONTINUOUS
 62
    7
 10
1564.8648
 20
2158.9792
 11
1718.9189
 21
2158.9792
  0
LINE
  8
_0-8_寸法
  6
CONTINUOUS
 62
    7
 10
1718.9189
 20
2158.9792
 11
1718.9189
 21
2269.421
  0
LINE
  8
_0-8_寸法
  6
CONTINUOUS
 62
    7
 10
1564.8648
 20
2269.421
 11
1718.9189
 21
2269.421
  0
LINE
  8
_0-2_躯体
  6
CONTINUOUS
 62
    3
 10
1050
 20
1820.6588
 11
1357.4999
 21
1820.6588
  0
LINE
  8
_0-2_躯体
  6
CONTINUOUS
 62
    3
 10
742.49985
 20
1820.6588
 11
742.49985
 21
1765.3095
  0
LINE
  8
_0-2_躯体
  6
CONTINUOUS
 62
    3
 10
1357.4999
 20
1820.6588
 11
1357.4999
 21
1765.3095
  0
LINE
  8
_0-2_躯体
  6
CONTINUOUS
 62
    3
 10
1272.6431
 20
2218.1092
 11
1050
 21
2218.1092
  0
LINE
  8
_0-2_躯体
  6
CONTINUOUS
 62
    3
 10
1357.4999
 20
2056.9423
 11
1357.4999
 21
1833.4025
  0
LINE
  8
_0-2_躯体
  6
CONTINUOUS
 62
    3
 10
639.99988
 20
1719.4208
 11
783.00005
 21
1783.3362
  0
LINE
  8
_0-2_躯体
  6
CONTINUOUS
 62
    3
 10
783.00005
 20
1783.3362
 11
783.00005
 21
1719.4208
  0
LINE
  8
_0-2_躯体
  6
CONTINUOUS
 62
    3
 10
1357.5001
 20
1820.6588
 11
1357.5001
 21
1719.4208
  0
LINE
  8
_0-2_躯体
  6
CONTINUOUS
 62
    3
 10
1460.0001
 20
1719.4208
 11
1357.5001
 21
1765.3095
  0
LINE
  8
_0-2_躯体
  6
CONTINUOUS
 62
    3
 10
1050
 20
2269.421
 11
550.80024
 21
2155.0212
  0
LINE
  8
_0-2_躯体
  6
CONTINUOUS
 62
    3
 10
1050
 20
2269.421
 11
1549.1996
 21
2155.0212
  0
LINE
  8
_0-2_躯体
  6
CONTINUOUS
 62
    3
 10
1529.9999
 20
2159.4211
 11
1529.9999
 21
2012.8719
  0
LINE
  8
_0-8_寸法
  6
CONTINUOUS
 62
    7
 10
1564.8648
 20
1719.4208
 11
1718.9189
 21
1719.4208
  0
LINE
  8
_0-2_躯体
  6
CONTINUOUS
 62
    3
 10
1050
 20
2089.5684
 11
1272.6431
 21
2218.1092
  0
LINE
  8
_0-4_仕上
  6
CONTINUOUS
 62
    2
 10
1325.4924
 20
2206.2875
 11
1050
 21
2069.6855
  0
LINE
  8
_0-2_躯体
  6
CONTINUOUS
 62
    3
 10
1529.9999
 20
2159.4211
 11
1170.4172
 21
2159.0901
  0
LINE
  8
_0-2_躯体
  6
CONTINUOUS
 62
    3
 10
1524.8738
 20
1932.164
 11
1357.4999
 21
1932.164
  0
LINE
  8
_0-2_躯体
  6
CONTINUOUS
 62
    3
 10
1362.7498
 20
1919.4208
 11
1530
 21
1919.4208
  0
LINE
  8
_0-2_躯体
  6
CONTINUOUS
 62
    3
 10
1524.8738
 20
1923.9547
 11
1357.4999
 21
1923.9547
  0
LINE
  8
_0-2_躯体
  6
CONTINUOUS
 62
    3
 10
1362.7498
 20
1919.4208
 11
1362.7498
 21
1787.4024
  0
LINE
  8
_0-2_躯体
  6
CONTINUOUS
 62
    3
 10
1529.9999
 20
1970.3939
 11
1529.9999
 21
1919.4208
  0
LINE
  8
_0-2_躯体
  6
CONTINUOUS
 62
    3
 10
1529.9999
 20
2000.1288
 11
1529.9999
 21
1970.3939
  0
ARC
  8
_0-2_躯体
  6
CONTINUOUS
 62
    3
 10
570.00002
 20
2006.5004
 40
6.3715971
 50
90
 51
270
  0
ARC
  8
_0-2_躯体
  6
CONTINUOUS
 62
    3
 10
570.00002
 20
1955.5273
 40
6.3715971
 50
90
 51
270
  0
ARC
  8
_0-2_躯体
  6
CONTINUOUS
 62
    3
 10
1357.4999
 20
1827.0309
 40
6.3715971
 50
270
 51
90
  0
ARC
  8
_0-2_躯体
  6
CONTINUOUS
 62
    3
 10
742.49985
 20
1827.0309
 40
6.3715971
 50
90
 51
270
  0
ARC
  8
_0-3_軸組
  6
CONTINUOUS
 62
    3
 10
1096.5763
 20
1887.1162
 40
8.9937387
 50
0
 51
90
  0
ARC
  8
_0-3_軸組
  6
CONTINUOUS
 62
    3
 10
1059.5016
 20
1916.9451
 40
5.9493565
 50
270
 51
0
  0
ARC
  8
_0-3_軸組
  6
CONTINUOUS
 62
    3
 10
1059.5016
 20
1996.4569
 40
5.9493565
 50
0
 51
90
  0
ARC
  8
_0-3_軸組
  6
CONTINUOUS
 62
    3
 10
1097.6133
 20
1836.978
 40
7.9590589
 50
270
 51
0
  0
ARC
  8
_0-3_軸組
  6
CONTINUOUS
 62
    3
 10
1093.6332
 20
1825.8423
 40
3.9795294
 50
270
 51
0
  0
ARC
  8
_0-2_躯体
  6
CONTINUOUS
 62
    3
 10
1357.4999
 20
2063.3139
 40
6.3715971
 50
270
 51
90
  0
ARC
  8
_0-2_躯体
  6
CONTINUOUS
 62
    3
 10
1529.9999
 20
2006.5004
 40
6.3715971
 50
270
 51
90
  0
ARC
  8
_0-2_躯体
  6
CONTINUOUS
 62
    3
 10
1529.9999
 20
1955.5273
 40
6.3715971
 50
270
 51
90
  0
ARC
  8
_0-4_仕上
  6
DASHED3
 62
    2
 10
1050
 20
2069.6855
 40
307.4999
 50
357.62492
 51
26.374359
  0
TEXT
  8
_0-d_文字
 62
    7
 10
254.99978
 20
157.4999
 40
25
 41
1
 50
0
  1
図
  0
TEXT
  8
_0-d_文字
 62
    7
 10
254.99978
 20
97.499958
 40
25
 41
1
 50
0
  1
番
  0
TEXT
  8
_0-d_文字
 62
    7
 10
655.00043
 20
157.4999
 40
25
 41
1
 50
0
  1
承
  0
TEXT
  8
_0-d_文字
 62
    7
 10
655.00043
 20
97.499958
 40
25
 41
1
 50
0
  1
認
  0
TEXT
  8
_0-d_文字
 62
    7
 10
1020.0002
 20
237.49993
 40
25
 41
1
 50
0
  1
尺
  0
TEXT
  8
_0-d_文字
 62
    7
 10
1020.0002
 20
197.49977
 40
25
 41
1
 50
0.0000708
  1
度
  0
TEXT
  8
_0-d_文字
 62
    7
 10
855.0001
 20
157.4999
 40
25
 41
1
 50
0
  1
製
  0
TEXT
  8
_0-d_文字
 62
    7
 10
855.0001
 20
97.499958
 40
25
 41
1
 50
0
  1
図
  0
TEXT
  8
_0-d_文字
 62
    7
 10
1555
 20
237.49993
 40
25
 41
1
 50
0
  1
日
  0
TEXT
  8
_0-d_文字
 62
    7
 10
1555
 20
197.49977
 40
25
 41
1
 50
0.0000708
  1
付
  0
TEXT
  8
_0-d_文字
 62
    7
 10
1111.4263
 20
163.48225
 40
20
 41
1
 50
0
  1
株式
  0
TEXT
  8
_0-d_文字
 62
    7
 10
1111.4263
 20
141.85179
 40
20
 41
1
 50
0.0000196
  1
会社
  0
TEXT
  8
_0-d_文字
 62
    3
 10
1174.2246
 20
143.24711
 40
40
 41
1
 50
0
  1
スズキベンチレーター
  0
TEXT
  8
_0-d_文字
 62
    7
 10
1237.9181
 20
94.024178
 40
20
 41
1
 50
0
  1
TEL(054)296-7000  FAX(054)296-7001
  0
TEXT
  8
_0-d_文字
 62
    3
 10
1084.3489
 20
210.10064
 40
40
 41
1
 50
0.000005
  1
１／１０
  0
TEXT
  8
_0-8_寸法
 62
    3
 10
1013.7498
 20
2413.5807
 40
30
 41
1
 50
0
  1
  960
  0
TEXT
  8
_0-8_寸法
 62
    3
 10
1001.6458
 20
1482.3137
 40
30
 41
1
 50
0
  1
820*820
  0
TEXT
  8
_0-8_寸法
 62
    3
 10
1708.9188
 20
1675.6711
 40
30
 41
1
 50
90
  1
60
  0
TEXT
  8
_0-8_寸法
 62
    3
 10
1708.9188
 20
2192.9502
 40
30
 41
1
 50
90
  1
110
  0
TEXT
  8
_0-8_寸法
 62
    3
 10
1708.9188
 20
1783.0385
 40
30
 41
1
 50
90
  1
200
  0
TEXT
  8
_0-8_寸法
 62
    3
 10
1708.9188
 20
2002.8176
 40
30
 41
1
 50
90
  1
240
  0
TEXT
  8
_0-8_寸法
 62
    3
 10
287.56664
 20
1948.4369
 40
30
 41
1
 50
90
  1
610
  0
TEXT
  8
_0-d_文字
 62
    7
 10
1235.6792
 20
118.64592
 40
20
 41
1
 50
0
  1
〒421-2114　静岡市葵区安倍口新田１５２番地
  0
TEXT
  8
_0-d_文字
 62
    3
 10
255.00004
 20
2792.7013
 40
50
 41
1
 50
0
  1
ＳＴ－６０Ｌ　架台型（低騒音）ダンパー付　断面
  0
TEXT
  8
_0-d_文字
 62
    7
 10
280.67563
 20
215.81081
 40
25
 41
1
 50
0
  1
ＳＴ－６０Ｌ　架台型（低騒音）ダンパー付　断面
  0
TEXT
  8
_0-d_文字
 62
    3
 10
308.45925
 20
140.30213
 40
30
 41
1
 50
0
  1
60L-03b
  0
POINT
  8
_0-8_寸法
 62
    2
 10
330.53135
 20
1659.421
  0
POINT
  8
_0-8_寸法
 62
    2
 10
330.53135
 20
2269.421
  0
POINT
  8
_0-8_寸法
 62
    2
 10
570.00002
 20
2370.6147
  0
POINT
  8
_0-8_寸法
 62
    2
 10
1530
 20
2370.6147
  0
POINT
  8
_0-8_寸法
 62
    2
 10
639.99988
 20
1472.7472
  0
POINT
  8
_0-8_寸法
 62
    2
 10
1460.0001
 20
1472.7472
  0
POINT
  8
_0-8_寸法
 62
    2
 10
1718.9189
 20
1659.421
  0
POINT
  8
_0-8_寸法
 62
    2
 10
1718.9189
 20
1919.4208
  0
POINT
  8
_0-8_寸法
 62
    2
 10
1718.9189
 20
2158.9792
  0
POINT
  8
_0-8_寸法
 62
    2
 10
1718.9189
 20
2269.421
  0
POINT
  8
_0-8_寸法
 62
    2
 10
1718.9189
 20
1719.4208
  0
ENDSEC
  0
EOF
