  0
SECTION
  2
HEADER
  9
$ACADVER
  1
AC1009
  9
$INSBASE
 10
0
 20
0
 30
0
  9
$EXTMIN
 10
0
 20
0
  9
$EXTMAX
 10
4200
 20
2970
  9
$LIMMIN
 10
0
 20
0
  9
$LIMMAX
 10
4200
 20
2970
  9
$LTSCALE
 40
10
  0
ENDSEC
  0
SECTION
  2
TABLES
  0
TABLE
  2
LTYPE
 70
     9
  0
LTYPE
  2
CONTINUOUS
 70
    64
  3
実線
 72
    65
 73
     0
 40
0.0
  0
LTYPE
  2
DASHED1
 70
    64
  3
--  --  --  --  --  --  --  --  
 72
    65
 73
     2
 40
2.5
 49
1.25
 49
-1.25
  0
LTYPE
  2
DASHED2
 70
    64
  3
----    ----    ----    ----    
 72
    65
 73
     2
 40
5.0
 49
2.5
 49
-2.5
  0
LTYPE
  2
DASHED3
 70
    64
  3
------  ------  ------  ------  
 72
    65
 73
     2
 40
5.0
 49
3.75
 49
-1.25
  0
LTYPE
  2
CENTER1
 70
    64
  3
----- - ----- - ----- - ----- - 
 72
    65
 73
     4
 40
10.0
 49
6.25
 49
-1.25
 49
1.25
 49
-1.25
  0
LTYPE
  2
CENTER2
 70
    64
  3
----------  --  ----------  --  
 72
    65
 73
     4
 40
20.0
 49
12.5
 49
-2.5
 49
2.5
 49
-2.5
  0
LTYPE
  2
PHANTOM1
 70
    64
  3
--- - - --- - - --- - - --- - - 
 72
    65
 73
     6
 40
10.0
 49
3.25
 49
-1.25
 49
1.25
 49
-1.25
 49
1.25
 49
-1.25
  0
LTYPE
  2
PHANTOM2
 70
    64
  3
--------  -  -  --------  -  -  
 72
    65
 73
     6
 40
20.0
 49
10.0
 49
-2.5
 49
1.25
 49
-2.5
 49
1.25
 49
-2.5
  0
LTYPE
  2
DOT
 70
    64
  3
-   -   -   -   -   -   -   -   
 72
    65
 73
     2
 40
2.5
 49
0.625
 49
-1.875
  0
LTYPE
  2
DUMMY
 70
    64
  3
ダミー
 72
    65
 73
     0
 40
0.0
  0
LTYPE
  2
RAND1
 70
    64
  3
----- - ----- - ----- - ----- - 
 72
    65
 73
     4
 40
10.0
 49
6.25
 49
-1.25
 49
1.25
 49
-1.25
  0
LTYPE
  2
RAND2
 70
    64
  3
----------  --  ----------  --  
 72
    65
 73
     4
 40
20.0
 49
12.5
 49
-2.5
 49
2.5
 49
-2.5
  0
LTYPE
  2
RAND3
 70
    64
  3
--- - - --- - - --- - - --- - - 
 72
    65
 73
     6
 40
10.0
 49
3.25
 49
-1.25
 49
1.25
 49
-1.25
 49
1.25
 49
-1.25
  0
LTYPE
  2
RAND4
 70
    64
  3
--------  -  -  --------  -  -  
 72
    65
 73
     6
 40
20.0
 49
10.0
 49
-2.5
 49
1.25
 49
-2.5
 49
1.25
 49
-2.5
  0
LTYPE
  2
RAND5
 70
    64
  3
----- - ----- - ----- - ----- - 
 72
    65
 73
     4
 40
10.0
 49
6.25
 49
-1.25
 49
1.25
 49
-1.25
  0
LTYPE
  2
LONG1
 70
    64
  3
----------  --  ----------  --  
 72
    65
 73
     4
 40
20.0
 49
12.5
 49
-2.5
 49
2.5
 49
-2.5
  0
LTYPE
  2
LONG2
 70
    64
  3
--- - - --- - - --- - - --- - - 
 72
    65
 73
     6
 40
10.0
 49
3.25
 49
-1.25
 49
1.25
 49
-1.25
 49
1.25
 49
-1.25
  0
LTYPE
  2
LONG3
 70
    64
  3
--------  -  -  --------  -  -  
 72
    65
 73
     6
 40
20.0
 49
10.0
 49
-2.5
 49
1.25
 49
-2.5
 49
1.25
 49
-2.5
  0
LTYPE
  2
LONG4
 70
    64
  3
----- - ----- - ----- - ----- - 
 72
    65
 73
     4
 40
10.0
 49
6.25
 49
-1.25
 49
1.25
 49
-1.25
  0
LTYPE
  2
LONG5
 70
    64
  3
----------  --  ----------  --  
 72
    65
 73
     4
 40
20.0
 49
12.5
 49
-2.5
 49
2.5
 49
-2.5
  0
ENDTAB
  0
TABLE
  2
STYLE
  5
3
100
AcDbSymbolTable
 70
     1
  0
STYLE
  5
10
100
AcDbSymbolTableRecord
100
AcDbTextStyleTableRecord
  2
STANDARD
 70
     0
 40
0.0
 41
1.0
 50
0.0
 71
     0
 42
0.2
  3
txt
  4
bigfont.shx
  0
STYLE
  5
26
100
AcDbSymbolTableRecord
100
AcDbTextStyleTableRecord
  2
TATEGAKI
 70
    68
 40
0.0
 41
1.0
 50
0.0
 71
     0
 42
1.0
  3
txt
  4
bigfont.shx
  0
ENDTAB
  0
TABLE
  2
LAYER
 70
    7
  0
LAYER
  2
_0-1_基準線
 70
   64
 62
    7
  6
CONTINUOUS
  0
LAYER
  2
_0-2_躯体
 70
   64
 62
    7
  6
CONTINUOUS
  0
LAYER
  2
_0-3_軸組
 70
   64
 62
    7
  6
CONTINUOUS
  0
LAYER
  2
_0-4_仕上
 70
   64
 62
    7
  6
CONTINUOUS
  0
LAYER
  2
_0-8_寸法
 70
   64
 62
    7
  6
CONTINUOUS
  0
LAYER
  2
_0-d_文字
 70
   64
 62
    7
  6
CONTINUOUS
  0
LAYER
  2
ADD_LINE
 70
   64
 62
    7
  6
CONTINUOUS
  0
ENDTAB
  0
ENDSEC
  0
SECTION
  2
BLOCKS
  0
ENDSEC
  0
SECTION
  2
ENTITIES
  0
LINE
  8
_0-d_文字
  6
CONTINUOUS
 62
    7
 10
250.00003
 20
2757.7012
 11
1850
 21
2757.7012
  0
LINE
  8
_0-d_文字
  6
CONTINUOUS
 62
    7
 10
250.00003
 20
2767.7015
 11
1850
 21
2767.7015
  0
LINE
  8
_0-d_文字
  6
CONTINUOUS
 62
    7
 10
249.99966
 20
189.99988
 11
1850.0002
 21
189.99988
  0
LINE
  8
_0-d_文字
  6
CONTINUOUS
 62
    7
 10
249.99966
 20
89.999802
 11
249.99966
 21
269.9999
  0
LINE
  8
_0-d_文字
  6
CONTINUOUS
 62
    7
 10
249.99966
 20
89.999802
 11
1850.0002
 21
89.999802
  0
LINE
  8
_0-d_文字
  6
CONTINUOUS
 62
    7
 10
1850.0002
 20
269.9999
 11
1850.0002
 21
89.999802
  0
LINE
  8
_0-d_文字
  6
CONTINUOUS
 62
    7
 10
249.99966
 20
269.9999
 11
1850.0002
 21
269.9999
  0
LINE
  8
_0-d_文字
  6
CONTINUOUS
 62
    7
 10
1050
 20
269.9999
 11
1050
 21
89.999802
  0
LINE
  8
_0-d_文字
  6
CONTINUOUS
 62
    7
 10
650.00016
 20
89.999802
 11
650.00016
 21
189.99988
  0
LINE
  8
_0-d_文字
  6
CONTINUOUS
 62
    7
 10
1050
 20
189.99988
 11
1050
 21
269.9999
  0
LINE
  8
_0-d_文字
  6
CONTINUOUS
 62
    7
 10
849.99971
 20
89.999802
 11
849.99971
 21
189.99988
  0
LINE
  8
_0-d_文字
  6
CONTINUOUS
 62
    7
 10
285.00001
 20
89.999802
 11
285.00001
 21
189.99988
  0
LINE
  8
_0-d_文字
  6
CONTINUOUS
 62
    7
 10
685.00003
 20
89.999802
 11
685.00003
 21
189.99988
  0
LINE
  8
_0-d_文字
  6
CONTINUOUS
 62
    7
 10
885.00007
 20
89.999802
 11
885.00007
 21
189.99988
  0
LINE
  8
_0-d_文字
  6
CONTINUOUS
 62
    7
 10
1015
 20
189.99988
 11
1015
 21
269.9999
  0
LINE
  8
_0-d_文字
  6
CONTINUOUS
 62
    7
 10
1550.0004
 20
189.99988
 11
1550.0004
 21
269.9999
  0
LINE
  8
_0-d_文字
  6
CONTINUOUS
 62
    7
 10
1585.0001
 20
189.99988
 11
1585.0001
 21
269.9999
  0
LINE
  8
_0-2_躯体
  6
CONTINUOUS
 62
    3
 10
631.49339
 20
2338.7499
 11
1049.9998
 21
2432.9186
  0
LINE
  8
_0-2_躯体
  6
CONTINUOUS
 62
    3
 10
1467.6304
 20
2338.9474
 11
1049.9998
 21
2432.9186
  0
LINE
  8
_0-8_寸法
  6
CONTINUOUS
 62
    7
 10
459.60029
 20
1967.9186
 11
459.60029
 21
2432.9186
  0
LINE
  8
_0-8_寸法
  6
CONTINUOUS
 62
    7
 10
598.28388
 20
1967.9186
 11
459.60029
 21
1967.9186
  0
LINE
  8
_0-8_寸法
  6
CONTINUOUS
 62
    7
 10
649.99991
 20
2540.2639
 11
1450.0013
 21
2540.2639
  0
LINE
  8
_0-8_寸法
  6
CONTINUOUS
 62
    7
 10
792.49976
 20
1882.385
 11
1307.4998
 21
1882.385
  0
LINE
  8
_0-2_躯体
  6
CONTINUOUS
 62
    3
 10
649.99991
 20
2342.9186
 11
649.99991
 21
2207.2649
  0
LINE
  8
_0-2_躯体
  6
CONTINUOUS
 62
    3
 10
649.99991
 20
2191.2753
 11
649.99991
 21
2163.908
  0
LINE
  8
_0-2_躯体
  6
CONTINUOUS
 62
    3
 10
1449.9998
 20
2342.9186
 11
1450.0013
 21
2207.2649
  0
LINE
  8
_0-2_躯体
  6
CONTINUOUS
 62
    3
 10
792.49976
 20
2035.3734
 11
1307.5013
 21
2035.3734
  0
LINE
  8
_0-2_躯体
  6
CONTINUOUS
 62
    3
 10
792.49976
 20
2051.3628
 11
1307.5013
 21
2051.3628
  0
LINE
  8
_0-2_躯体
  6
CONTINUOUS
 62
    3
 10
792.49976
 20
1983.9084
 11
1307.5013
 21
1983.9084
  0
LINE
  8
_0-2_躯体
  6
CONTINUOUS
 62
    3
 10
792.49976
 20
1967.9187
 11
1307.5013
 21
1967.9187
  0
LINE
  8
_0-2_躯体
  6
CONTINUOUS
 62
    3
 10
792.49976
 20
2035.3734
 11
792.49976
 21
1983.9081
  0
LINE
  8
_0-2_躯体
  6
CONTINUOUS
 62
    3
 10
1307.4998
 20
2035.3734
 11
1307.4998
 21
1983.9081
  0
LINE
  8
_0-2_躯体
  6
CONTINUOUS
 62
    3
 10
792.49976
 20
2147.9187
 11
792.49976
 21
2051.3628
  0
LINE
  8
_0-8_寸法
  6
CONTINUOUS
 62
    7
 10
649.99991
 20
2390.0464
 11
649.99991
 21
2540.2639
  0
LINE
  8
_0-8_寸法
  6
CONTINUOUS
 62
    7
 10
730.28337
 20
2432.9186
 11
459.60029
 21
2432.9186
  0
LINE
  8
_0-8_寸法
  6
CONTINUOUS
 62
    7
 10
1450.0013
 20
2390.0464
 11
1450.0013
 21
2540.2639
  0
LINE
  8
_0-2_躯体
  6
CONTINUOUS
 62
    3
 10
1307.4998
 20
2035.3734
 11
1307.4998
 21
1983.9081
  0
LINE
  8
_0-2_躯体
  6
CONTINUOUS
 62
    3
 10
1449.9998
 20
2191.2753
 11
1449.9998
 21
2163.908
  0
LINE
  8
_0-8_寸法
  6
CONTINUOUS
 62
    7
 10
792.49976
 20
1948.5075
 11
792.49976
 21
1882.385
  0
LINE
  8
_0-8_寸法
  6
CONTINUOUS
 62
    7
 10
1307.4998
 20
1948.5075
 11
1307.4998
 21
1882.385
  0
LINE
  8
_0-3_軸組
  6
CONTINUOUS
 62
    3
 10
1068.1575
 20
2191.0746
 11
1072.936
 21
2194.0115
  0
LINE
  8
_0-3_軸組
  6
CONTINUOUS
 62
    3
 10
1072.936
 20
2194.0115
 11
1077.6918
 21
2197.0065
  0
LINE
  8
_0-3_軸組
  6
CONTINUOUS
 62
    3
 10
1077.6918
 20
2197.0065
 11
1082.4031
 21
2200.1141
  0
LINE
  8
_0-3_軸組
  6
CONTINUOUS
 62
    3
 10
1082.4031
 20
2200.1141
 11
1087.0163
 21
2203.3942
  0
LINE
  8
_0-3_軸組
  6
CONTINUOUS
 62
    3
 10
1087.0163
 20
2203.3942
 11
1091.4482
 21
2206.9133
  0
LINE
  8
_0-3_軸組
  6
CONTINUOUS
 62
    3
 10
1091.4482
 20
2206.9133
 11
1095.6057
 21
2210.728
  0
LINE
  8
_0-3_軸組
  6
CONTINUOUS
 62
    3
 10
1095.6057
 20
2210.728
 11
1099.3972
 21
2214.908
  0
LINE
  8
_0-3_軸組
  6
CONTINUOUS
 62
    3
 10
1099.3972
 20
2214.908
 11
1102.733
 21
2219.5104
  0
LINE
  8
_0-3_軸組
  6
CONTINUOUS
 62
    3
 10
1102.733
 20
2219.5104
 11
1105.6421
 21
2224.4892
  0
LINE
  8
_0-3_軸組
  6
CONTINUOUS
 62
    3
 10
1105.6421
 20
2224.4892
 11
1108.3912
 21
2229.5733
  0
LINE
  8
_0-3_軸組
  6
CONTINUOUS
 62
    3
 10
1108.3912
 20
2229.5733
 11
1111.2588
 21
2234.4756
  0
LINE
  8
_0-3_軸組
  6
CONTINUOUS
 62
    3
 10
1111.2588
 20
2234.4756
 11
1114.5396
 21
2238.9094
  0
LINE
  8
_0-3_軸組
  6
CONTINUOUS
 62
    3
 10
1114.5396
 20
2238.9094
 11
1118.5105
 21
2242.5857
  0
LINE
  8
_0-3_軸組
  6
CONTINUOUS
 62
    3
 10
1118.5105
 20
2242.5857
 11
1123.2598
 21
2245.4283
  0
LINE
  8
_0-3_軸組
  6
CONTINUOUS
 62
    3
 10
1123.2598
 20
2245.4283
 11
1128.4981
 21
2247.7505
  0
LINE
  8
_0-3_軸組
  6
CONTINUOUS
 62
    3
 10
1128.4981
 20
2247.7505
 11
1130.978
 21
2248.7412
  0
LINE
  8
_0-3_軸組
  6
CONTINUOUS
 62
    3
 10
1128.4981
 20
2247.7505
 11
1131.9474
 21
2248.2986
  0
LINE
  8
_0-3_軸組
  6
CONTINUOUS
 62
    3
 10
1131.9474
 20
2248.2986
 11
1135.4282
 21
2248.7756
  0
LINE
  8
_0-3_軸組
  6
CONTINUOUS
 62
    3
 10
1135.4282
 20
2248.7756
 11
1138.9658
 21
2249.1166
  0
LINE
  8
_0-3_軸組
  6
CONTINUOUS
 62
    3
 10
1138.9658
 20
2249.1166
 11
1142.5903
 21
2249.2462
  0
LINE
  8
_0-3_軸組
  6
CONTINUOUS
 62
    3
 10
1142.5903
 20
2249.2462
 11
1146.3257
 21
2249.1
  0
LINE
  8
_0-3_軸組
  6
CONTINUOUS
 62
    3
 10
1146.3257
 20
2249.1
 11
1150.0628
 21
2248.5554
  0
LINE
  8
_0-3_軸組
  6
CONTINUOUS
 62
    3
 10
1150.0628
 20
2248.5554
 11
1153.5494
 21
2247.4629
  0
LINE
  8
_0-3_軸組
  6
CONTINUOUS
 62
    3
 10
1153.5494
 20
2247.4629
 11
1156.5212
 21
2245.6529
  0
LINE
  8
_0-3_軸組
  6
CONTINUOUS
 62
    3
 10
1156.5212
 20
2245.6529
 11
1158.7645
 21
2243.0078
  0
LINE
  8
_0-3_軸組
  6
CONTINUOUS
 62
    3
 10
1158.7645
 20
2243.0078
 11
1160.5131
 21
2239.8317
  0
LINE
  8
_0-3_軸組
  6
CONTINUOUS
 62
    3
 10
1066.2816
 20
2177.9484
 11
1071.8812
 21
2178.7796
  0
LINE
  8
_0-3_軸組
  6
CONTINUOUS
 62
    3
 10
1071.8812
 20
2178.7796
 11
1077.4466
 21
2179.7206
  0
LINE
  8
_0-3_軸組
  6
CONTINUOUS
 62
    3
 10
1077.4466
 20
2179.7206
 11
1082.9504
 21
2180.87
  0
LINE
  8
_0-3_軸組
  6
CONTINUOUS
 62
    3
 10
1082.9504
 20
2180.87
 11
1088.3555
 21
2182.3407
  0
LINE
  8
_0-3_軸組
  6
CONTINUOUS
 62
    3
 10
1088.3555
 20
2182.3407
 11
1093.6341
 21
2184.2344
  0
LINE
  8
_0-3_軸組
  6
CONTINUOUS
 62
    3
 10
1093.6341
 20
2184.2344
 11
1098.7556
 21
2186.5772
  0
LINE
  8
_0-3_軸組
  6
CONTINUOUS
 62
    3
 10
1098.7556
 20
2186.5772
 11
1103.6992
 21
2189.3223
  0
LINE
  8
_0-3_軸組
  6
CONTINUOUS
 62
    3
 10
1103.6992
 20
2189.3223
 11
1108.4369
 21
2192.4398
  0
LINE
  8
_0-3_軸組
  6
CONTINUOUS
 62
    3
 10
1108.4369
 20
2192.4398
 11
1112.9473
 21
2195.8735
  0
LINE
  8
_0-3_軸組
  6
CONTINUOUS
 62
    3
 10
1112.9473
 20
2195.8735
 11
1117.2075
 21
2199.5903
  0
LINE
  8
_0-3_軸組
  6
CONTINUOUS
 62
    3
 10
1117.2075
 20
2199.5903
 11
1121.2511
 21
2203.5226
  0
LINE
  8
_0-3_軸組
  6
CONTINUOUS
 62
    3
 10
1121.2511
 20
2203.5226
 11
1125.1597
 21
2207.5806
  0
LINE
  8
_0-3_軸組
  6
CONTINUOUS
 62
    3
 10
1125.1597
 20
2207.5806
 11
1129.0185
 21
2211.6767
  0
LINE
  8
_0-3_軸組
  6
CONTINUOUS
 62
    3
 10
1129.0185
 20
2211.6767
 11
1132.9092
 21
2215.7174
  0
LINE
  8
_0-3_軸組
  6
CONTINUOUS
 62
    3
 10
1132.9092
 20
2215.7174
 11
1136.9212
 21
2219.6168
  0
LINE
  8
_0-3_軸組
  6
CONTINUOUS
 62
    3
 10
1136.9212
 20
2219.6168
 11
1141.1309
 21
2223.2962
  0
LINE
  8
_0-3_軸組
  6
CONTINUOUS
 62
    3
 10
1141.1309
 20
2223.2962
 11
1145.5334
 21
2226.7535
  0
LINE
  8
_0-3_軸組
  6
CONTINUOUS
 62
    3
 10
1145.5334
 20
2226.7535
 11
1150.0925
 21
2230.041
  0
LINE
  8
_0-3_軸組
  6
CONTINUOUS
 62
    3
 10
1150.0925
 20
2230.041
 11
1154.7599
 21
2233.2008
  0
LINE
  8
_0-3_軸組
  6
CONTINUOUS
 62
    3
 10
1154.7599
 20
2233.2008
 11
1159.5011
 21
2236.2806
  0
LINE
  8
_0-3_軸組
  6
CONTINUOUS
 62
    3
 10
1159.5011
 20
2236.2806
 11
1162.8576
 21
2238.426
  0
LINE
  8
_0-3_軸組
  6
CONTINUOUS
 62
    3
 10
1162.8576
 20
2238.426
 11
1168.0954
 21
2240.5985
  0
LINE
  8
_0-3_軸組
  6
CONTINUOUS
 62
    3
 10
1168.0954
 20
2240.5985
 11
1173.3624
 21
2242.6267
  0
LINE
  8
_0-3_軸組
  6
CONTINUOUS
 62
    3
 10
1173.3624
 20
2242.6267
 11
1178.6925
 21
2244.3682
  0
LINE
  8
_0-3_軸組
  6
CONTINUOUS
 62
    3
 10
1178.6925
 20
2244.3682
 11
1184.1157
 21
2245.6801
  0
LINE
  8
_0-3_軸組
  6
CONTINUOUS
 62
    3
 10
1184.1157
 20
2245.6801
 11
1189.6452
 21
2246.4838
  0
LINE
  8
_0-3_軸組
  6
CONTINUOUS
 62
    3
 10
1189.6452
 20
2246.4838
 11
1195.2542
 21
2246.8372
  0
LINE
  8
_0-3_軸組
  6
CONTINUOUS
 62
    3
 10
1195.2542
 20
2246.8372
 11
1200.9099
 21
2246.8164
  0
LINE
  8
_0-3_軸組
  6
CONTINUOUS
 62
    3
 10
1200.9099
 20
2246.8164
 11
1206.5827
 21
2246.4979
  0
LINE
  8
_0-3_軸組
  6
CONTINUOUS
 62
    3
 10
1206.5827
 20
2246.4979
 11
1212.2454
 21
2245.9605
  0
LINE
  8
_0-3_軸組
  6
CONTINUOUS
 62
    3
 10
1212.2454
 20
2245.9605
 11
1217.864
 21
2245.2696
  0
LINE
  8
_0-3_軸組
  6
CONTINUOUS
 62
    3
 10
1217.864
 20
2245.2696
 11
1223.4339
 21
2244.4103
  0
LINE
  8
_0-3_軸組
  6
CONTINUOUS
 62
    3
 10
1223.4339
 20
2244.4103
 11
1228.956
 21
2243.3639
  0
LINE
  8
_0-3_軸組
  6
CONTINUOUS
 62
    3
 10
1228.956
 20
2243.3639
 11
1234.4224
 21
2242.0947
  0
LINE
  8
_0-3_軸組
  6
CONTINUOUS
 62
    3
 10
1234.4224
 20
2242.0947
 11
1239.8366
 21
2240.5812
  0
LINE
  8
_0-3_軸組
  6
CONTINUOUS
 62
    3
 10
1239.8366
 20
2240.5812
 11
1245.1962
 21
2238.7889
  0
LINE
  8
_0-3_軸組
  6
CONTINUOUS
 62
    3
 10
1245.1962
 20
2238.7889
 11
1250.4795
 21
2236.6924
  0
LINE
  8
_0-3_軸組
  6
CONTINUOUS
 62
    3
 10
1250.4795
 20
2236.6924
 11
1255.6374
 21
2234.2692
  0
LINE
  8
_0-3_軸組
  6
CONTINUOUS
 62
    3
 10
1255.6374
 20
2234.2692
 11
1260.5946
 21
2231.5038
  0
LINE
  8
_0-3_軸組
  6
CONTINUOUS
 62
    3
 10
1260.5946
 20
2231.5038
 11
1265.2863
 21
2228.371
  0
LINE
  8
_0-3_軸組
  6
CONTINUOUS
 62
    3
 10
1265.2863
 20
2228.371
 11
1269.645
 21
2224.8465
  0
LINE
  8
_0-3_軸組
  6
CONTINUOUS
 62
    3
 10
1269.645
 20
2224.8465
 11
1273.6105
 21
2220.9211
  0
LINE
  8
_0-3_軸組
  6
CONTINUOUS
 62
    3
 10
1273.6105
 20
2220.9211
 11
1277.2335
 21
2216.6515
  0
LINE
  8
_0-3_軸組
  6
CONTINUOUS
 62
    3
 10
1277.2335
 20
2216.6515
 11
1280.6033
 21
2212.1337
  0
LINE
  8
_0-3_軸組
  6
CONTINUOUS
 62
    3
 10
1280.6033
 20
2212.1337
 11
1283.8176
 21
2207.4621
  0
LINE
  8
_0-3_軸組
  6
CONTINUOUS
 62
    3
 10
1283.8176
 20
2207.4621
 11
1285.6848
 21
2204.6724
  0
LINE
  8
_0-3_軸組
  6
CONTINUOUS
 62
    3
 10
1283.8176
 20
2207.4621
 11
1286.3301
 21
2202.2589
  0
LINE
  8
_0-3_軸組
  6
CONTINUOUS
 62
    3
 10
1286.3301
 20
2202.2589
 11
1288.709
 21
2197.0322
  0
LINE
  8
_0-3_軸組
  6
CONTINUOUS
 62
    3
 10
1288.709
 20
2197.0322
 11
1290.8256
 21
2191.7689
  0
LINE
  8
_0-3_軸組
  6
CONTINUOUS
 62
    3
 10
1290.8256
 20
2191.7689
 11
1292.5448
 21
2186.4406
  0
LINE
  8
_0-3_軸組
  6
CONTINUOUS
 62
    3
 10
1292.5448
 20
2186.4406
 11
1293.736
 21
2181.0318
  0
LINE
  8
_0-3_軸組
  6
CONTINUOUS
 62
    3
 10
1293.736
 20
2181.0318
 11
1294.2714
 21
2175.5216
  0
LINE
  8
_0-3_軸組
  6
CONTINUOUS
 62
    3
 10
1294.2714
 20
2175.5216
 11
1294.118
 21
2169.9329
  0
LINE
  8
_0-3_軸組
  6
CONTINUOUS
 62
    3
 10
1294.118
 20
2169.9329
 11
1293.3683
 21
2164.319
  0
LINE
  8
_0-3_軸組
  6
CONTINUOUS
 62
    3
 10
1293.3683
 20
2164.319
 11
1292.1202
 21
2158.7454
  0
LINE
  8
_0-3_軸組
  6
CONTINUOUS
 62
    3
 10
1292.1202
 20
2158.7454
 11
1290.4584
 21
2153.276
  0
LINE
  8
_0-3_軸組
  6
CONTINUOUS
 62
    3
 10
1290.4584
 20
2153.276
 11
1288.4116
 21
2147.9864
  0
LINE
  8
_0-3_軸組
  6
CONTINUOUS
 62
    3
 10
1288.4116
 20
2147.9864
 11
1285.9233
 21
2142.9508
  0
LINE
  8
_0-3_軸組
  6
CONTINUOUS
 62
    3
 10
1285.9233
 20
2142.9508
 11
1282.934
 21
2138.2477
  0
LINE
  8
_0-3_軸組
  6
CONTINUOUS
 62
    3
 10
1282.934
 20
2138.2477
 11
1279.4508
 21
2133.9051
  0
LINE
  8
_0-3_軸組
  6
CONTINUOUS
 62
    3
 10
1279.4508
 20
2133.9051
 11
1275.5783
 21
2129.8419
  0
LINE
  8
_0-3_軸組
  6
CONTINUOUS
 62
    3
 10
1275.5783
 20
2129.8419
 11
1271.4399
 21
2125.9737
  0
LINE
  8
_0-3_軸組
  6
CONTINUOUS
 62
    3
 10
1271.4399
 20
2125.9737
 11
1267.15
 21
2122.2186
  0
LINE
  8
_0-3_軸組
  6
CONTINUOUS
 62
    3
 10
1267.15
 20
2122.2186
 11
1265.9938
 21
2121.2243
  0
LINE
  8
_0-3_軸組
  6
CONTINUOUS
 62
    3
 10
1267.15
 20
2122.2186
 11
1262.2267
 21
2119.4584
  0
LINE
  8
_0-3_軸組
  6
CONTINUOUS
 62
    3
 10
1262.2267
 20
2119.4584
 11
1257.2844
 21
2116.7489
  0
LINE
  8
_0-3_軸組
  6
CONTINUOUS
 62
    3
 10
1257.2844
 20
2116.7489
 11
1252.3017
 21
2114.1387
  0
LINE
  8
_0-3_軸組
  6
CONTINUOUS
 62
    3
 10
1252.3017
 20
2114.1387
 11
1247.2497
 21
2111.6756
  0
LINE
  8
_0-3_軸組
  6
CONTINUOUS
 62
    3
 10
1247.2497
 20
2111.6756
 11
1242.1178
 21
2109.4098
  0
LINE
  8
_0-3_軸組
  6
CONTINUOUS
 62
    3
 10
1242.1178
 20
2109.4098
 11
1236.8755
 21
2107.3892
  0
LINE
  8
_0-3_軸組
  6
CONTINUOUS
 62
    3
 10
1236.8755
 20
2107.3892
 11
1231.5232
 21
2105.6428
  0
LINE
  8
_0-3_軸組
  6
CONTINUOUS
 62
    3
 10
1231.5232
 20
2105.6428
 11
1226.082
 21
2104.1775
  0
LINE
  8
_0-3_軸組
  6
CONTINUOUS
 62
    3
 10
1226.082
 20
2104.1775
 11
1220.573
 21
2102.99
  0
LINE
  8
_0-3_軸組
  6
CONTINUOUS
 62
    3
 10
1220.573
 20
2102.99
 11
1215.0135
 21
2102.0819
  0
LINE
  8
_0-3_軸組
  6
CONTINUOUS
 62
    3
 10
1215.0135
 20
2102.0819
 11
1209.4298
 21
2101.4465
  0
LINE
  8
_0-3_軸組
  6
CONTINUOUS
 62
    3
 10
1209.4298
 20
2101.4465
 11
1203.8277
 21
2101.0352
  0
LINE
  8
_0-3_軸組
  6
CONTINUOUS
 62
    3
 10
1203.8277
 20
2101.0352
 11
1198.2108
 21
2100.7952
  0
LINE
  8
_0-3_軸組
  6
CONTINUOUS
 62
    3
 10
1198.2108
 20
2100.7952
 11
1192.5816
 21
2100.6651
  0
LINE
  8
_0-3_軸組
  6
CONTINUOUS
 62
    3
 10
1192.5816
 20
2100.6651
 11
1187.7023
 21
2100.5963
  0
LINE
  8
_0-3_軸組
  6
CONTINUOUS
 62
    3
 10
1124.8039
 20
2100.0794
 11
1130.0684
 21
2097.9487
  0
LINE
  8
_0-3_軸組
  6
CONTINUOUS
 62
    3
 10
1130.0684
 20
2097.9487
 11
1135.3641
 21
2095.842
  0
LINE
  8
_0-3_軸組
  6
CONTINUOUS
 62
    3
 10
1135.3641
 20
2095.842
 11
1140.7093
 21
2093.9006
  0
LINE
  8
_0-3_軸組
  6
CONTINUOUS
 62
    3
 10
1140.7093
 20
2093.9006
 11
1146.1057
 21
2092.2823
  0
LINE
  8
_0-3_軸組
  6
CONTINUOUS
 62
    3
 10
1146.1057
 20
2092.2823
 11
1151.5679
 21
2091.1406
  0
LINE
  8
_0-3_軸組
  6
CONTINUOUS
 62
    3
 10
1151.5679
 20
2091.1406
 11
1157.1079
 21
2090.6294
  0
LINE
  8
_0-3_軸組
  6
CONTINUOUS
 62
    3
 10
1157.1079
 20
2090.6294
 11
1162.7129
 21
2090.7093
  0
LINE
  8
_0-3_軸組
  6
CONTINUOUS
 62
    3
 10
1162.7129
 20
2090.7093
 11
1168.3585
 21
2091.1258
  0
LINE
  8
_0-3_軸組
  6
CONTINUOUS
 62
    3
 10
1168.3585
 20
2091.1258
 11
1169.4192
 21
2091.2198
  0
LINE
  8
_0-3_軸組
  6
CONTINUOUS
 62
    3
 10
1168.3585
 20
2091.1258
 11
1172.9747
 21
2092.1551
  0
LINE
  8
_0-3_軸組
  6
CONTINUOUS
 62
    3
 10
1172.9747
 20
2092.1551
 11
1177.4054
 21
2093.5796
  0
LINE
  8
_0-3_軸組
  6
CONTINUOUS
 62
    3
 10
1177.4054
 20
2093.5796
 11
1181.4705
 21
2095.7977
  0
LINE
  8
_0-3_軸組
  6
CONTINUOUS
 62
    3
 10
1181.4705
 20
2095.7977
 11
1184.9367
 21
2098.9805
  0
LINE
  8
_0-3_軸組
  6
CONTINUOUS
 62
    3
 10
1184.9367
 20
2098.9805
 11
1187.5061
 21
2102.9695
  0
LINE
  8
_0-3_軸組
  6
CONTINUOUS
 62
    3
 10
1187.5061
 20
2102.9695
 11
1188.9056
 21
2107.5308
  0
LINE
  8
_0-3_軸組
  6
CONTINUOUS
 62
    3
 10
1188.9056
 20
2107.5308
 11
1189.009
 21
2112.2482
  0
LINE
  8
_0-3_軸組
  6
CONTINUOUS
 62
    3
 10
1189.009
 20
2112.2482
 11
1187.7607
 21
2116.668
  0
LINE
  8
_0-3_軸組
  6
CONTINUOUS
 62
    3
 10
1187.7607
 20
2116.668
 11
1185.4278
 21
2120.6889
  0
LINE
  8
_0-3_軸組
  6
CONTINUOUS
 62
    3
 10
1185.4278
 20
2120.6889
 11
1182.5462
 21
2124.5054
  0
LINE
  8
_0-3_軸組
  6
CONTINUOUS
 62
    3
 10
1074.3821
 20
2170.672
 11
1080.0556
 21
2169.706
  0
LINE
  8
_0-3_軸組
  6
CONTINUOUS
 62
    3
 10
1080.0556
 20
2169.706
 11
1085.7106
 21
2168.9035
  0
LINE
  8
_0-3_軸組
  6
CONTINUOUS
 62
    3
 10
1085.7106
 20
2168.9035
 11
1091.324
 21
2168.4265
  0
LINE
  8
_0-3_軸組
  6
CONTINUOUS
 62
    3
 10
1091.324
 20
2168.4265
 11
1096.8768
 21
2168.4351
  0
LINE
  8
_0-3_軸組
  6
CONTINUOUS
 62
    3
 10
1096.8768
 20
2168.4351
 11
1102.3484
 21
2169.0881
  0
LINE
  8
_0-3_軸組
  6
CONTINUOUS
 62
    3
 10
1102.3484
 20
2169.0881
 11
1107.7394
 21
2170.4154
  0
LINE
  8
_0-3_軸組
  6
CONTINUOUS
 62
    3
 10
1107.7394
 20
2170.4154
 11
1113.0618
 21
2172.237
  0
LINE
  8
_0-3_軸組
  6
CONTINUOUS
 62
    3
 10
1113.0618
 20
2172.237
 11
1118.3412
 21
2174.3732
  0
LINE
  8
_0-3_軸組
  6
CONTINUOUS
 62
    3
 10
1118.3412
 20
2174.3732
 11
1123.5877
 21
2176.6306
  0
LINE
  8
_0-3_軸組
  6
CONTINUOUS
 62
    3
 10
1123.5877
 20
2176.6306
 11
1128.828
 21
2178.8466
  0
LINE
  8
_0-3_軸組
  6
CONTINUOUS
 62
    3
 10
1128.828
 20
2178.8466
 11
1134.0631
 21
2180.9798
  0
LINE
  8
_0-3_軸組
  6
CONTINUOUS
 62
    3
 10
1134.0631
 20
2180.9798
 11
1139.2981
 21
2183.0494
  0
LINE
  8
_0-3_軸組
  6
CONTINUOUS
 62
    3
 10
1139.2981
 20
2183.0494
 11
1144.5273
 21
2185.0675
  0
LINE
  8
_0-3_軸組
  6
CONTINUOUS
 62
    3
 10
1144.5273
 20
2185.0675
 11
1149.7559
 21
2187.0485
  0
LINE
  8
_0-3_軸組
  6
CONTINUOUS
 62
    3
 10
1149.7559
 20
2187.0485
 11
1154.9863
 21
2189.011
  0
LINE
  8
_0-3_軸組
  6
CONTINUOUS
 62
    3
 10
1154.9863
 20
2189.011
 11
1154.9133
 21
2184.1938
  0
LINE
  8
_0-3_軸組
  6
CONTINUOUS
 62
    3
 10
1154.9133
 20
2184.1938
 11
1154.8443
 21
2179.3826
  0
LINE
  8
_0-3_軸組
  6
CONTINUOUS
 62
    3
 10
1154.8443
 20
2179.3826
 11
1154.7748
 21
2174.5652
  0
LINE
  8
_0-3_軸組
  6
CONTINUOUS
 62
    3
 10
1154.7748
 20
2174.5652
 11
1154.702
 21
2169.7525
  0
LINE
  8
_0-3_軸組
  6
CONTINUOUS
 62
    3
 10
1154.702
 20
2169.7525
 11
1154.6335
 21
2164.9408
  0
LINE
  8
_0-3_軸組
  6
CONTINUOUS
 62
    3
 10
1154.6335
 20
2164.9408
 11
1154.5639
 21
2160.1234
  0
LINE
  8
_0-3_軸組
  6
CONTINUOUS
 62
    3
 10
1154.5639
 20
2160.1234
 11
1154.4912
 21
2155.3122
  0
LINE
  8
_0-3_軸組
  6
CONTINUOUS
 62
    3
 10
1154.4912
 20
2155.3122
 11
1154.4222
 21
2150.495
  0
LINE
  8
_0-3_軸組
  6
CONTINUOUS
 62
    3
 10
1154.4222
 20
2150.495
 11
1154.3506
 21
2145.6818
  0
LINE
  8
_0-3_軸組
  6
CONTINUOUS
 62
    3
 10
1154.3506
 20
2145.6818
 11
1154.2806
 21
2140.8661
  0
LINE
  8
_0-3_軸組
  6
CONTINUOUS
 62
    3
 10
1182.5462
 20
2124.5054
 11
1181.3951
 21
2125.5199
  0
LINE
  8
_0-3_軸組
  6
CONTINUOUS
 62
    3
 10
1181.3951
 20
2125.5199
 11
1179.7407
 21
2126.7472
  0
LINE
  8
_0-3_軸組
  6
CONTINUOUS
 62
    3
 10
1179.7407
 20
2126.7472
 11
1177.6488
 21
2128.1509
  0
LINE
  8
_0-3_軸組
  6
CONTINUOUS
 62
    3
 10
1177.6488
 20
2128.1509
 11
1175.1752
 21
2129.6977
  0
LINE
  8
_0-3_軸組
  6
CONTINUOUS
 62
    3
 10
1175.1752
 20
2129.6977
 11
1172.3556
 21
2131.356
  0
LINE
  8
_0-3_軸組
  6
CONTINUOUS
 62
    3
 10
1172.3556
 20
2131.356
 11
1169.2401
 21
2133.1047
  0
LINE
  8
_0-3_軸組
  6
CONTINUOUS
 62
    3
 10
1169.2401
 20
2133.1047
 11
1165.8583
 21
2134.9226
  0
LINE
  8
_0-3_軸組
  6
CONTINUOUS
 62
    3
 10
1165.8583
 20
2134.9226
 11
1162.2356
 21
2136.7898
  0
LINE
  8
_0-3_軸組
  6
CONTINUOUS
 62
    3
 10
1162.2356
 20
2136.7898
 11
1158.4054
 21
2138.6924
  0
LINE
  8
_0-3_軸組
  6
CONTINUOUS
 62
    3
 10
1158.4054
 20
2138.6924
 11
1154.3878
 21
2140.6152
  0
LINE
  8
_0-3_軸組
  6
CONTINUOUS
 62
    3
 10
1154.3878
 20
2140.6152
 11
1150.1979
 21
2142.5457
  0
LINE
  8
_0-3_軸組
  6
CONTINUOUS
 62
    3
 10
1150.1979
 20
2142.5457
 11
1145.8625
 21
2144.479
  0
LINE
  8
_0-3_軸組
  6
CONTINUOUS
 62
    3
 10
1145.8625
 20
2144.479
 11
1141.393
 21
2146.4021
  0
LINE
  8
_0-3_軸組
  6
CONTINUOUS
 62
    3
 10
1141.393
 20
2146.4021
 11
1136.8121
 21
2148.3099
  0
LINE
  8
_0-3_軸組
  6
CONTINUOUS
 62
    3
 10
1136.8121
 20
2148.3099
 11
1132.1318
 21
2150.1981
  0
LINE
  8
_0-3_軸組
  6
CONTINUOUS
 62
    3
 10
1132.1318
 20
2150.1981
 11
1127.3708
 21
2152.0571
  0
LINE
  8
_0-3_軸組
  6
CONTINUOUS
 62
    3
 10
1127.3708
 20
2152.0571
 11
1122.5465
 21
2153.8849
  0
LINE
  8
_0-3_軸組
  6
CONTINUOUS
 62
    3
 10
1122.5465
 20
2153.8849
 11
1117.6783
 21
2155.6791
  0
LINE
  8
_0-3_軸組
  6
CONTINUOUS
 62
    3
 10
1117.6783
 20
2155.6791
 11
1112.7872
 21
2157.4367
  0
LINE
  8
_0-3_軸組
  6
CONTINUOUS
 62
    3
 10
1112.7872
 20
2157.4367
 11
1107.8908
 21
2159.1475
  0
LINE
  8
_0-3_軸組
  6
CONTINUOUS
 62
    3
 10
1107.8908
 20
2159.1475
 11
1103.0086
 21
2160.8118
  0
LINE
  8
_0-3_軸組
  6
CONTINUOUS
 62
    3
 10
1103.0086
 20
2160.8118
 11
1098.1655
 21
2162.429
  0
LINE
  8
_0-3_軸組
  6
CONTINUOUS
 62
    3
 10
1098.1655
 20
2162.429
 11
1093.3879
 21
2163.9889
  0
LINE
  8
_0-3_軸組
  6
CONTINUOUS
 62
    3
 10
1093.3879
 20
2163.9889
 11
1088.693
 21
2165.4921
  0
LINE
  8
_0-3_軸組
  6
CONTINUOUS
 62
    3
 10
1088.693
 20
2165.4921
 11
1084.1119
 21
2166.9319
  0
LINE
  8
_0-3_軸組
  6
CONTINUOUS
 62
    3
 10
1084.1119
 20
2166.9319
 11
1079.6679
 21
2168.3018
  0
LINE
  8
_0-3_軸組
  6
CONTINUOUS
 62
    3
 10
1079.6679
 20
2168.3018
 11
1075.3869
 21
2169.5961
  0
LINE
  8
_0-3_軸組
  6
CONTINUOUS
 62
    3
 10
1075.3869
 20
2169.5961
 11
1071.2913
 21
2170.812
  0
LINE
  8
_0-3_軸組
  6
CONTINUOUS
 62
    3
 10
1071.2913
 20
2170.812
 11
1067.4072
 21
2171.9384
  0
LINE
  8
_0-3_軸組
  6
CONTINUOUS
 62
    3
 10
1154.9863
 20
2189.011
 11
1155.0529
 21
2189.0337
  0
LINE
  8
_0-3_軸組
  6
CONTINUOUS
 62
    3
 10
1078.4356
 20
2095.3755
 11
1078.4356
 21
2084.3212
  0
LINE
  8
_0-3_軸組
  6
CONTINUOUS
 62
    3
 10
1078.4356
 20
2084.3212
 11
1112.0278
 21
2084.3212
  0
LINE
  8
_0-3_軸組
  6
CONTINUOUS
 62
    3
 10
1112.0278
 20
2095.3755
 11
1112.0278
 21
2084.3212
  0
LINE
  8
_0-3_軸組
  6
CONTINUOUS
 62
    3
 10
1078.4356
 20
2095.3755
 11
1112.0278
 21
2095.3755
  0
LINE
  8
_0-3_軸組
  6
CONTINUOUS
 62
    3
 10
1062.8714
 20
2201.9489
 11
1062.8714
 21
2165.6801
  0
LINE
  8
_0-3_軸組
  6
CONTINUOUS
 62
    3
 10
1068.1575
 20
2191.0746
 11
1067.6089
 21
2190.7641
  0
LINE
  8
_0-3_軸組
  6
CONTINUOUS
 62
    3
 10
1067.6089
 20
2190.7641
 11
1067.0469
 21
2190.4382
  0
LINE
  8
_0-3_軸組
  6
CONTINUOUS
 62
    3
 10
1067.0469
 20
2190.4382
 11
1066.4786
 21
2190.0967
  0
LINE
  8
_0-3_軸組
  6
CONTINUOUS
 62
    3
 10
1066.4786
 20
2190.0967
 11
1065.8978
 21
2189.739
  0
LINE
  8
_0-3_軸組
  6
CONTINUOUS
 62
    3
 10
1065.8978
 20
2189.739
 11
1065.3057
 21
2189.3695
  0
LINE
  8
_0-3_軸組
  6
CONTINUOUS
 62
    3
 10
1065.3057
 20
2189.3695
 11
1064.7034
 21
2188.9813
  0
LINE
  8
_0-3_軸組
  6
CONTINUOUS
 62
    3
 10
1064.7034
 20
2188.9813
 11
1064.0908
 21
2188.5799
  0
LINE
  8
_0-3_軸組
  6
CONTINUOUS
 62
    3
 10
1064.0908
 20
2188.5799
 11
1063.4657
 21
2188.161
  0
LINE
  8
_0-3_軸組
  6
CONTINUOUS
 62
    3
 10
1063.4657
 20
2188.161
 11
1062.8328
 21
2187.7297
  0
LINE
  8
_0-3_軸組
  6
CONTINUOUS
 62
    3
 10
1066.2816
 20
2177.9484
 11
1065.8748
 21
2177.8705
  0
LINE
  8
_0-3_軸組
  6
CONTINUOUS
 62
    3
 10
1065.8748
 20
2177.8705
 11
1065.4732
 21
2177.7978
  0
LINE
  8
_0-3_軸組
  6
CONTINUOUS
 62
    3
 10
1065.4732
 20
2177.7978
 11
1065.0793
 21
2177.7262
  0
LINE
  8
_0-3_軸組
  6
CONTINUOUS
 62
    3
 10
1065.0793
 20
2177.7262
 11
1064.6891
 21
2177.6557
  0
LINE
  8
_0-3_軸組
  6
CONTINUOUS
 62
    3
 10
1064.6891
 20
2177.6557
 11
1064.307
 21
2177.5887
  0
LINE
  8
_0-3_軸組
  6
CONTINUOUS
 62
    3
 10
1064.307
 20
2177.5887
 11
1063.929
 21
2177.5263
  0
LINE
  8
_0-3_軸組
  6
CONTINUOUS
 62
    3
 10
1063.929
 20
2177.5263
 11
1063.5578
 21
2177.4677
  0
LINE
  8
_0-3_軸組
  6
CONTINUOUS
 62
    3
 10
1063.5578
 20
2177.4677
 11
1063.1911
 21
2177.4103
  0
LINE
  8
_0-3_軸組
  6
CONTINUOUS
 62
    3
 10
1063.1911
 20
2177.4103
 11
1062.8328
 21
2177.3546
  0
LINE
  8
_0-3_軸組
  6
CONTINUOUS
 62
    3
 10
1074.3821
 20
2170.672
 11
1072.8356
 21
2171.0001
  0
LINE
  8
_0-3_軸組
  6
CONTINUOUS
 62
    3
 10
1072.8356
 20
2171.0001
 11
1071.3519
 21
2171.3171
  0
LINE
  8
_0-3_軸組
  6
CONTINUOUS
 62
    3
 10
1071.3519
 20
2171.3171
 11
1069.9361
 21
2171.6234
  0
LINE
  8
_0-3_軸組
  6
CONTINUOUS
 62
    3
 10
1069.9361
 20
2171.6234
 11
1068.5863
 21
2171.9211
  0
LINE
  8
_0-3_軸組
  6
CONTINUOUS
 62
    3
 10
1068.5863
 20
2171.9211
 11
1067.3023
 21
2172.2068
  0
LINE
  8
_0-3_軸組
  6
CONTINUOUS
 62
    3
 10
1067.3023
 20
2172.2068
 11
1066.0859
 21
2172.4847
  0
LINE
  8
_0-3_軸組
  6
CONTINUOUS
 62
    3
 10
1066.0859
 20
2172.4847
 11
1064.9346
 21
2172.751
  0
LINE
  8
_0-3_軸組
  6
CONTINUOUS
 62
    3
 10
1064.9346
 20
2172.751
 11
1063.8505
 21
2173.0083
  0
LINE
  8
_0-3_軸組
  6
CONTINUOUS
 62
    3
 10
1063.8505
 20
2173.0083
 11
1062.8328
 21
2173.2533
  0
LINE
  8
_0-3_軸組
  6
CONTINUOUS
 62
    3
 10
1067.4072
 20
2171.9384
 11
1066.8017
 21
2172.1032
  0
LINE
  8
_0-3_軸組
  6
CONTINUOUS
 62
    3
 10
1066.8017
 20
2172.1032
 11
1066.2215
 21
2172.2618
  0
LINE
  8
_0-3_軸組
  6
CONTINUOUS
 62
    3
 10
1066.2215
 20
2172.2618
 11
1065.666
 21
2172.4182
  0
LINE
  8
_0-3_軸組
  6
CONTINUOUS
 62
    3
 10
1065.666
 20
2172.4182
 11
1065.1365
 21
2172.5684
  0
LINE
  8
_0-3_軸組
  6
CONTINUOUS
 62
    3
 10
1065.1365
 20
2172.5684
 11
1064.6339
 21
2172.7134
  0
LINE
  8
_0-3_軸組
  6
CONTINUOUS
 62
    3
 10
1064.6339
 20
2172.7134
 11
1064.1544
 21
2172.8512
  0
LINE
  8
_0-3_軸組
  6
CONTINUOUS
 62
    3
 10
1064.1544
 20
2172.8512
 11
1063.7006
 21
2172.9863
  0
LINE
  8
_0-3_軸組
  6
CONTINUOUS
 62
    3
 10
1063.7006
 20
2172.9863
 11
1063.2735
 21
2173.1174
  0
LINE
  8
_0-3_軸組
  6
CONTINUOUS
 62
    3
 10
1063.2735
 20
2173.1174
 11
1062.8714
 21
2173.2454
  0
LINE
  8
_0-3_軸組
  6
CONTINUOUS
 62
    3
 10
1057.9164
 20
2206.9066
 11
1050.0008
 21
2206.9066
  0
LINE
  8
_0-3_軸組
  6
CONTINUOUS
 62
    3
 10
1057.9164
 20
2130.7538
 11
1050.0008
 21
2130.7538
  0
LINE
  8
_0-3_軸組
  6
CONTINUOUS
 62
    3
 10
1054.1355
 20
2156.5738
 11
1057.0063
 21
2153.3329
  0
LINE
  8
_0-3_軸組
  6
CONTINUOUS
 62
    3
 10
1057.0063
 20
2153.3329
 11
1060.1622
 21
2149.9662
  0
LINE
  8
_0-3_軸組
  6
CONTINUOUS
 62
    3
 10
1060.1622
 20
2149.9662
 11
1063.5558
 21
2146.5127
  0
LINE
  8
_0-3_軸組
  6
CONTINUOUS
 62
    3
 10
1063.5558
 20
2146.5127
 11
1067.1449
 21
2143.0085
  0
LINE
  8
_0-3_軸組
  6
CONTINUOUS
 62
    3
 10
1067.1449
 20
2143.0085
 11
1070.8877
 21
2139.4866
  0
LINE
  8
_0-3_軸組
  6
CONTINUOUS
 62
    3
 10
1070.8877
 20
2139.4866
 11
1074.7465
 21
2135.9787
  0
LINE
  8
_0-3_軸組
  6
CONTINUOUS
 62
    3
 10
1074.7465
 20
2135.9787
 11
1078.6853
 21
2132.5123
  0
LINE
  8
_0-3_軸組
  6
CONTINUOUS
 62
    3
 10
1078.6853
 20
2132.5123
 11
1082.6715
 21
2129.1117
  0
LINE
  8
_0-3_軸組
  6
CONTINUOUS
 62
    3
 10
1082.6715
 20
2129.1117
 11
1086.6744
 21
2125.8015
  0
LINE
  8
_0-3_軸組
  6
CONTINUOUS
 62
    3
 10
1086.6744
 20
2125.8015
 11
1090.6666
 21
2122.6016
  0
LINE
  8
_0-3_軸組
  6
CONTINUOUS
 62
    3
 10
1090.6666
 20
2122.6016
 11
1094.6231
 21
2119.5294
  0
LINE
  8
_0-3_軸組
  6
CONTINUOUS
 62
    3
 10
1094.6231
 20
2119.5294
 11
1098.521
 21
2116.5997
  0
LINE
  8
_0-3_軸組
  6
CONTINUOUS
 62
    3
 10
1098.521
 20
2116.5997
 11
1102.3408
 21
2113.8259
  0
LINE
  8
_0-3_軸組
  6
CONTINUOUS
 62
    3
 10
1102.3408
 20
2113.8259
 11
1106.0655
 21
2111.2169
  0
LINE
  8
_0-3_軸組
  6
CONTINUOUS
 62
    3
 10
1106.0655
 20
2111.2169
 11
1109.6806
 21
2108.7796
  0
LINE
  8
_0-3_軸組
  6
CONTINUOUS
 62
    3
 10
1109.6806
 20
2108.7796
 11
1113.1737
 21
2106.519
  0
LINE
  8
_0-3_軸組
  6
CONTINUOUS
 62
    3
 10
1113.1737
 20
2106.519
 11
1116.5361
 21
2104.437
  0
LINE
  8
_0-3_軸組
  6
CONTINUOUS
 62
    3
 10
1116.5361
 20
2104.437
 11
1119.7608
 21
2102.533
  0
LINE
  8
_0-3_軸組
  6
CONTINUOUS
 62
    3
 10
1119.7608
 20
2102.533
 11
1122.8434
 21
2100.8034
  0
LINE
  8
_0-3_軸組
  6
CONTINUOUS
 62
    3
 10
1122.8434
 20
2100.8034
 11
1123.0705
 21
2100.7039
  0
LINE
  8
_0-3_軸組
  6
CONTINUOUS
 62
    3
 10
1123.0705
 20
2100.7039
 11
1123.2952
 21
2100.6096
  0
LINE
  8
_0-3_軸組
  6
CONTINUOUS
 62
    3
 10
1123.2952
 20
2100.6096
 11
1123.5179
 21
2100.5196
  0
LINE
  8
_0-3_軸組
  6
CONTINUOUS
 62
    3
 10
1123.5179
 20
2100.5196
 11
1123.7379
 21
2100.4349
  0
LINE
  8
_0-3_軸組
  6
CONTINUOUS
 62
    3
 10
1123.7379
 20
2100.4349
 11
1123.9556
 21
2100.3545
  0
LINE
  8
_0-3_軸組
  6
CONTINUOUS
 62
    3
 10
1123.9556
 20
2100.3545
 11
1124.1712
 21
2100.2786
  0
LINE
  8
_0-3_軸組
  6
CONTINUOUS
 62
    3
 10
1124.1712
 20
2100.2786
 11
1124.3844
 21
2100.2073
  0
LINE
  8
_0-3_軸組
  6
CONTINUOUS
 62
    3
 10
1124.3844
 20
2100.2073
 11
1124.5953
 21
2100.1415
  0
LINE
  8
_0-3_軸組
  6
CONTINUOUS
 62
    3
 10
1124.5953
 20
2100.1415
 11
1124.8039
 21
2100.0794
  0
LINE
  8
_0-3_軸組
  6
CONTINUOUS
 62
    3
 10
1054.1355
 20
2156.5738
 11
1055.833
 21
2157.4166
  0
LINE
  8
_0-3_軸組
  6
CONTINUOUS
 62
    3
 10
1055.833
 20
2157.4166
 11
1057.3483
 21
2158.3017
  0
LINE
  8
_0-3_軸組
  6
CONTINUOUS
 62
    3
 10
1057.3483
 20
2158.3017
 11
1058.682
 21
2159.2291
  0
LINE
  8
_0-3_軸組
  6
CONTINUOUS
 62
    3
 10
1058.682
 20
2159.2291
 11
1059.8346
 21
2160.1986
  0
LINE
  8
_0-3_軸組
  6
CONTINUOUS
 62
    3
 10
1059.8346
 20
2160.1986
 11
1060.8053
 21
2161.2111
  0
LINE
  8
_0-3_軸組
  6
CONTINUOUS
 62
    3
 10
1060.8053
 20
2161.2111
 11
1061.5944
 21
2162.265
  0
LINE
  8
_0-3_軸組
  6
CONTINUOUS
 62
    3
 10
1061.5944
 20
2162.265
 11
1062.2016
 21
2163.3611
  0
LINE
  8
_0-3_軸組
  6
CONTINUOUS
 62
    3
 10
1062.2016
 20
2163.3611
 11
1062.6274
 21
2164.4991
  0
LINE
  8
_0-3_軸組
  6
CONTINUOUS
 62
    3
 10
1062.6274
 20
2164.4991
 11
1062.8714
 21
2165.6801
  0
LINE
  8
_0-3_軸組
  6
CONTINUOUS
 62
    3
 10
1062.8726
 20
2135.711
 11
1062.8726
 21
2147.2078
  0
LINE
  8
_0-3_軸組
  6
CONTINUOUS
 62
    3
 10
1127.2419
 20
2178.4911
 11
1117.4819
 21
2200.003
  0
LINE
  8
_0-3_軸組
  6
CONTINUOUS
 62
    3
 10
1089.6652
 20
2061.6447
 11
1050.0008
 21
2061.6447
  0
LINE
  8
_0-3_軸組
  6
CONTINUOUS
 62
    3
 10
1096.2958
 20
2068.2753
 11
1096.2958
 21
2084.3212
  0
LINE
  8
_0-3_軸組
  6
CONTINUOUS
 62
    3
 10
1086.3502
 20
2055.6827
 11
1050.0008
 21
2055.6827
  0
LINE
  8
_0-3_軸組
  6
CONTINUOUS
 62
    3
 10
1089.6652
 20
2058.9984
 11
1089.6652
 21
2061.6447
  0
LINE
  8
_0-3_軸組
  6
CONTINUOUS
 62
    3
 10
1096.2958
 20
2116.7155
 11
1096.2958
 21
2095.3755
  0
LINE
  8
_0-3_軸組
  6
CONTINUOUS
 62
    3
 10
1088.1103
 20
2124.9013
 11
1050.0008
 21
2124.9013
  0
LINE
  8
_0-2_躯体
  6
CONTINUOUS
 62
    3
 10
1307.5013
 20
2254.9287
 11
1307.5013
 21
2227.5616
  0
LINE
  8
_0-2_躯体
  6
CONTINUOUS
 62
    3
 10
1049.9998
 20
2270.9185
 11
1307.5013
 21
2270.9185
  0
LINE
  8
_0-2_躯体
  6
CONTINUOUS
 62
    3
 10
1049.9998
 20
2254.9287
 11
1307.5023
 21
2254.9287
  0
LINE
  8
_0-2_躯体
  6
CONTINUOUS
 62
    3
 10
1307.4998
 20
2207.2649
 11
1450.0013
 21
2207.2649
  0
LINE
  8
_0-2_躯体
  6
CONTINUOUS
 62
    3
 10
1307.4998
 20
2191.2753
 11
1450.0013
 21
2191.2753
  0
LINE
  8
_0-2_躯体
  6
CONTINUOUS
 62
    3
 10
1307.4998
 20
2163.9085
 11
1450.0013
 21
2163.9085
  0
LINE
  8
_0-2_躯体
  6
CONTINUOUS
 62
    3
 10
1307.4998
 20
2147.9187
 11
1450.0013
 21
2147.9187
  0
LINE
  8
_0-2_躯体
  6
CONTINUOUS
 62
    3
 10
649.99991
 20
2147.9187
 11
1049.9998
 21
2147.9187
  0
LINE
  8
_0-2_躯体
  6
CONTINUOUS
 62
    3
 10
649.99991
 20
2163.9085
 11
1049.9998
 21
2163.9085
  0
LINE
  8
_0-2_躯体
  6
CONTINUOUS
 62
    3
 10
649.99991
 20
2191.2753
 11
1049.9998
 21
2191.2753
  0
LINE
  8
_0-2_躯体
  6
CONTINUOUS
 62
    3
 10
649.99991
 20
2207.2649
 11
1049.9998
 21
2207.2649
  0
LINE
  8
_0-2_躯体
  6
CONTINUOUS
 62
    3
 10
1284.5037
 20
2211.5721
 11
1307.5023
 21
2211.5721
  0
LINE
  8
_0-2_躯体
  6
CONTINUOUS
 62
    3
 10
1270.7884
 20
2227.5619
 11
1307.5023
 21
2227.5619
  0
LINE
  8
_0-2_躯体
  6
CONTINUOUS
 62
    3
 10
1307.4998
 20
2211.5721
 11
1307.4998
 21
2051.3628
  0
LINE
  8
_0-2_躯体
  6
CONTINUOUS
 62
    3
 10
1049.9998
 20
2385.9686
 11
1250.0935
 21
2385.9686
  0
LINE
  8
_0-2_躯体
  6
CONTINUOUS
 62
    3
 10
649.99991
 20
2342.9186
 11
1049.5616
 21
2342.9186
  0
LINE
  8
_0-4_仕上
  6
CONTINUOUS
 62
    3
 10
1417.1547
 20
2157.183
 11
1417.1547
 21
2146.8873
  0
LINE
  8
_0-4_仕上
  6
CONTINUOUS
 62
    3
 10
1301.4603
 20
2087.7715
 11
1317.9814
 21
2087.7715
  0
LINE
  8
_0-4_仕上
  6
CONTINUOUS
 62
    3
 10
1441.4493
 20
2183.6905
 11
1456.0457
 21
2183.6905
  0
LINE
  8
_0-4_仕上
  6
CONTINUOUS
 62
    3
 10
1301.1178
 20
2249.3858
 11
1318.2723
 21
2249.3858
  0
LINE
  8
_0-4_仕上
  6
CONTINUOUS
 62
    3
 10
1404.7833
 20
2150.9186
 11
1307.5013
 21
2241.7107
  0
LINE
  8
_0-2_躯体
  6
CONTINUOUS
 62
    3
 10
1250.0935
 20
2385.9686
 11
1049.9998
 21
2284.0177
  0
LINE
  8
_0-2_躯体
  6
CONTINUOUS
 62
    3
 10
1165.6012
 20
2342.9186
 11
1449.9998
 21
2342.9186
  0
LINE
  8
_0-4_仕上
  6
CONTINUOUS
 62
    3
 10
1405.9938
 20
2153.9186
 11
1446.311
 21
2153.9186
  0
LINE
  8
_0-4_仕上
  6
CONTINUOUS
 62
    3
 10
1310.5013
 20
2254.9287
 11
1310.5013
 21
2243.014
  0
LINE
  8
_0-4_仕上
  6
CONTINUOUS
 62
    3
 10
1405.9938
 20
2153.9186
 11
1310.5013
 21
2243.014
  0
LINE
  8
_0-2_躯体
  6
PHANTOM2
 62
    3
 10
1311.1901
 20
2147.9187
 11
1311.1901
 21
2074.6585
  0
LINE
  8
_0-4_仕上
  6
CONTINUOUS
 62
    3
 10
1307.4998
 20
2150.9186
 11
1307.4998
 21
2074.6585
  0
LINE
  8
_0-2_躯体
  6
PHANTOM2
 62
    3
 10
1446.311
 20
2150.9186
 11
1307.4998
 21
2150.9186
  0
LINE
  8
_0-2_躯体
  6
PHANTOM2
 62
    3
 10
1446.311
 20
2191.4752
 11
1446.311
 21
2150.9186
  0
LINE
  8
_0-4_仕上
  6
CONTINUOUS
 62
    3
 10
1449.9998
 20
2191.2758
 11
1449.9998
 21
2147.9187
  0
LINE
  8
_0-4_仕上
  6
CONTINUOUS
 62
    3
 10
1311.1901
 20
2147.9187
 11
1449.9998
 21
2147.9187
  0
LINE
  8
_0-4_仕上
  6
CONTINUOUS
 62
    3
 10
1446.311
 20
2191.2753
 11
1450.0013
 21
2191.2753
  0
LINE
  8
_0-4_仕上
  6
CONTINUOUS
 62
    3
 10
1307.4998
 20
2074.6585
 11
1311.1901
 21
2074.6585
  0
LINE
  8
_0-4_仕上
  6
CONTINUOUS
 62
    3
 10
1310.5013
 20
2254.9287
 11
1307.5013
 21
2254.9287
  0
LINE
  8
_0-4_仕上
  6
CONTINUOUS
 62
    3
 10
1307.5013
 20
2241.7107
 11
1307.5013
 21
2254.9287
  0
LINE
  8
_0-1_基準線
  6
CENTER2
 62
    7
 10
1049.9998
 20
2497.1651
 11
1049.9998
 21
1817.3398
  0
ARC
  8
_0-2_躯体
  6
CONTINUOUS
 62
    3
 10
792.49976
 20
1975.9133
 40
7.9946298
 50
90
 51
270
  0
ARC
  8
_0-2_躯体
  6
CONTINUOUS
 62
    3
 10
792.49976
 20
2043.368
 40
7.9946298
 50
90
 51
270
  0
ARC
  8
_0-2_躯体
  6
CONTINUOUS
 62
    3
 10
1307.4998
 20
1975.9133
 40
7.9946298
 50
270
 51
90
  0
ARC
  8
_0-2_躯体
  6
CONTINUOUS
 62
    3
 10
1307.4998
 20
2043.368
 40
7.9946298
 50
270
 51
90
  0
ARC
  8
_0-2_躯体
  6
CONTINUOUS
 62
    3
 10
649.99991
 20
2199.2703
 40
7.9946298
 50
90
 51
270
  0
ARC
  8
_0-2_躯体
  6
CONTINUOUS
 62
    3
 10
649.99991
 20
2155.9134
 40
7.9946298
 50
90
 51
270
  0
ARC
  8
_0-2_躯体
  6
CONTINUOUS
 62
    3
 10
1449.9998
 20
2199.2703
 40
7.9946298
 50
270
 51
90
  0
ARC
  8
_0-2_躯体
  6
CONTINUOUS
 62
    3
 10
1449.9998
 20
2155.9134
 40
7.9946298
 50
270
 51
90
  0
ARC
  8
_0-3_軸組
  6
CONTINUOUS
 62
    3
 10
1057.9164
 20
2135.711
 40
4.9561727
 50
270
 51
0
  0
ARC
  8
_0-3_軸組
  6
CONTINUOUS
 62
    3
 10
1057.9164
 20
2201.9489
 40
4.9561727
 50
0
 51
90
  0
ARC
  8
_0-3_軸組
  6
CONTINUOUS
 62
    3
 10
1089.6652
 20
2068.2753
 40
6.6303752
 50
270
 51
0
  0
ARC
  8
_0-3_軸組
  6
CONTINUOUS
 62
    3
 10
1086.3502
 20
2058.9984
 40
3.3151876
 50
270
 51
0
  0
ARC
  8
_0-2_躯体
  6
CONTINUOUS
 62
    3
 10
1307.5013
 20
2262.9237
 40
7.9946298
 50
270
 51
90
  0
ARC
  8
_0-2_躯体
  6
CONTINUOUS
 62
    3
 10
1307.5013
 20
2219.5668
 40
7.9946298
 50
270
 51
90
  0
TEXT
  8
_0-d_文字
 62
    7
 10
254.99978
 20
157.4999
 40
25
 41
1
 50
0
  1
図
  0
TEXT
  8
_0-d_文字
 62
    7
 10
254.99978
 20
97.499958
 40
25
 41
1
 50
0
  1
番
  0
TEXT
  8
_0-d_文字
 62
    7
 10
655.00043
 20
157.4999
 40
25
 41
1
 50
0
  1
承
  0
TEXT
  8
_0-d_文字
 62
    7
 10
655.00043
 20
97.499958
 40
25
 41
1
 50
0
  1
認
  0
TEXT
  8
_0-d_文字
 62
    7
 10
1020.0002
 20
237.49993
 40
25
 41
1
 50
0
  1
尺
  0
TEXT
  8
_0-d_文字
 62
    7
 10
1020.0002
 20
197.49977
 40
25
 41
1
 50
0.0000708
  1
度
  0
TEXT
  8
_0-d_文字
 62
    7
 10
855.0001
 20
157.4999
 40
25
 41
1
 50
0
  1
製
  0
TEXT
  8
_0-d_文字
 62
    7
 10
855.0001
 20
97.499958
 40
25
 41
1
 50
0
  1
図
  0
TEXT
  8
_0-d_文字
 62
    7
 10
1555
 20
237.49993
 40
25
 41
1
 50
0
  1
日
  0
TEXT
  8
_0-d_文字
 62
    7
 10
1555
 20
197.49977
 40
25
 41
1
 50
0.0000708
  1
付
  0
TEXT
  8
_0-d_文字
 62
    7
 10
1111.4263
 20
163.48225
 40
20
 41
1
 50
0
  1
株式
  0
TEXT
  8
_0-d_文字
 62
    7
 10
1111.4263
 20
141.85179
 40
20
 41
1
 50
0.0000196
  1
会社
  0
TEXT
  8
_0-d_文字
 62
    3
 10
1174.2246
 20
143.24711
 40
40
 41
1
 50
0
  1
スズキベンチレーター
  0
TEXT
  8
_0-d_文字
 62
    7
 10
1237.9181
 20
94.024178
 40
20
 41
1
 50
0
  1
TEL(054)296-7000  FAX(054)296-7001
  0
TEXT
  8
_0-d_文字
 62
    3
 10
1084.3489
 20
210.10064
 40
40
 41
1
 50
0.000005
  1
１／１０
  0
TEXT
  8
_0-8_寸法
 62
    3
 10
1028.3211
 20
2564.25
 40
30
 41
1
 50
0
  1
800
  0
TEXT
  8
_0-8_寸法
 62
    3
 10
1014.3299
 20
1898.3751
 40
30
 41
1
 50
0
  1
515φ
  0
TEXT
  8
_0-8_寸法
 62
    3
 10
435.6157
 20
2167.5968
 40
30
 41
1
 50
90
  1
465
  0
TEXT
  8
_0-d_文字
 62
    7
 10
1235.6792
 20
118.64592
 40
20
 41
1
 50
0
  1
〒421-2114　静岡市葵区安倍口新田１５２番地
  0
TEXT
  8
_0-d_文字
 62
    3
 10
254.99999
 20
2792.7013
 40
50
 41
1
 50
0
  1
ＳＴ－５０Ｌ　直付型（低騒音）断面
  0
TEXT
  8
_0-d_文字
 62
    3
 10
280.67566
 20
215.81081
 40
30
 41
1
 50
0
  1
ＳＴ－５０Ｌ　直付型（低騒音）断面
  0
TEXT
  8
_0-d_文字
 62
    3
 10
308.45925
 20
140.30213
 40
30
 41
1
 50
0
  1
50L-02a
  0
POINT
  8
_0-8_寸法
 62
    2
 10
459.60029
 20
1967.9186
  0
POINT
  8
_0-8_寸法
 62
    2
 10
459.60029
 20
2432.9186
  0
POINT
  8
_0-8_寸法
 62
    2
 10
649.99991
 20
2540.2639
  0
POINT
  8
_0-8_寸法
 62
    2
 10
1450.0013
 20
2540.2639
  0
POINT
  8
_0-8_寸法
 62
    2
 10
792.49976
 20
1882.385
  0
POINT
  8
_0-8_寸法
 62
    2
 10
1307.4998
 20
1882.385
  0
ENDSEC
  0
EOF
