  0
SECTION
  2
HEADER
  9
$ACADVER
  1
AC1009
  9
$INSBASE
 10
0
 20
0
 30
0
  9
$EXTMIN
 10
0
 20
0
  9
$EXTMAX
 10
4200
 20
2970
  9
$LIMMIN
 10
0
 20
0
  9
$LIMMAX
 10
4200
 20
2970
  9
$LTSCALE
 40
10
  0
ENDSEC
  0
SECTION
  2
TABLES
  0
TABLE
  2
LTYPE
 70
     9
  0
LTYPE
  2
CONTINUOUS
 70
    64
  3
実線
 72
    65
 73
     0
 40
0.0
  0
LTYPE
  2
DASHED1
 70
    64
  3
--  --  --  --  --  --  --  --  
 72
    65
 73
     2
 40
2.5
 49
1.25
 49
-1.25
  0
LTYPE
  2
DASHED2
 70
    64
  3
----    ----    ----    ----    
 72
    65
 73
     2
 40
5.0
 49
2.5
 49
-2.5
  0
LTYPE
  2
DASHED3
 70
    64
  3
------  ------  ------  ------  
 72
    65
 73
     2
 40
5.0
 49
3.75
 49
-1.25
  0
LTYPE
  2
CENTER1
 70
    64
  3
----- - ----- - ----- - ----- - 
 72
    65
 73
     4
 40
10.0
 49
6.25
 49
-1.25
 49
1.25
 49
-1.25
  0
LTYPE
  2
CENTER2
 70
    64
  3
----------  --  ----------  --  
 72
    65
 73
     4
 40
20.0
 49
12.5
 49
-2.5
 49
2.5
 49
-2.5
  0
LTYPE
  2
PHANTOM1
 70
    64
  3
--- - - --- - - --- - - --- - - 
 72
    65
 73
     6
 40
10.0
 49
3.25
 49
-1.25
 49
1.25
 49
-1.25
 49
1.25
 49
-1.25
  0
LTYPE
  2
PHANTOM2
 70
    64
  3
--------  -  -  --------  -  -  
 72
    65
 73
     6
 40
20.0
 49
10.0
 49
-2.5
 49
1.25
 49
-2.5
 49
1.25
 49
-2.5
  0
LTYPE
  2
DOT
 70
    64
  3
-   -   -   -   -   -   -   -   
 72
    65
 73
     2
 40
2.5
 49
0.625
 49
-1.875
  0
LTYPE
  2
DUMMY
 70
    64
  3
ダミー
 72
    65
 73
     0
 40
0.0
  0
LTYPE
  2
RAND1
 70
    64
  3
----- - ----- - ----- - ----- - 
 72
    65
 73
     4
 40
10.0
 49
6.25
 49
-1.25
 49
1.25
 49
-1.25
  0
LTYPE
  2
RAND2
 70
    64
  3
----------  --  ----------  --  
 72
    65
 73
     4
 40
20.0
 49
12.5
 49
-2.5
 49
2.5
 49
-2.5
  0
LTYPE
  2
RAND3
 70
    64
  3
--- - - --- - - --- - - --- - - 
 72
    65
 73
     6
 40
10.0
 49
3.25
 49
-1.25
 49
1.25
 49
-1.25
 49
1.25
 49
-1.25
  0
LTYPE
  2
RAND4
 70
    64
  3
--------  -  -  --------  -  -  
 72
    65
 73
     6
 40
20.0
 49
10.0
 49
-2.5
 49
1.25
 49
-2.5
 49
1.25
 49
-2.5
  0
LTYPE
  2
RAND5
 70
    64
  3
----- - ----- - ----- - ----- - 
 72
    65
 73
     4
 40
10.0
 49
6.25
 49
-1.25
 49
1.25
 49
-1.25
  0
LTYPE
  2
LONG1
 70
    64
  3
----------  --  ----------  --  
 72
    65
 73
     4
 40
20.0
 49
12.5
 49
-2.5
 49
2.5
 49
-2.5
  0
LTYPE
  2
LONG2
 70
    64
  3
--- - - --- - - --- - - --- - - 
 72
    65
 73
     6
 40
10.0
 49
3.25
 49
-1.25
 49
1.25
 49
-1.25
 49
1.25
 49
-1.25
  0
LTYPE
  2
LONG3
 70
    64
  3
--------  -  -  --------  -  -  
 72
    65
 73
     6
 40
20.0
 49
10.0
 49
-2.5
 49
1.25
 49
-2.5
 49
1.25
 49
-2.5
  0
LTYPE
  2
LONG4
 70
    64
  3
----- - ----- - ----- - ----- - 
 72
    65
 73
     4
 40
10.0
 49
6.25
 49
-1.25
 49
1.25
 49
-1.25
  0
LTYPE
  2
LONG5
 70
    64
  3
----------  --  ----------  --  
 72
    65
 73
     4
 40
20.0
 49
12.5
 49
-2.5
 49
2.5
 49
-2.5
  0
ENDTAB
  0
TABLE
  2
STYLE
  5
3
100
AcDbSymbolTable
 70
     1
  0
STYLE
  5
10
100
AcDbSymbolTableRecord
100
AcDbTextStyleTableRecord
  2
STANDARD
 70
     0
 40
0.0
 41
1.0
 50
0.0
 71
     0
 42
0.2
  3
txt
  4
bigfont.shx
  0
STYLE
  5
26
100
AcDbSymbolTableRecord
100
AcDbTextStyleTableRecord
  2
TATEGAKI
 70
    68
 40
0.0
 41
1.0
 50
0.0
 71
     0
 42
1.0
  3
txt
  4
bigfont.shx
  0
ENDTAB
  0
TABLE
  2
LAYER
 70
    4
  0
LAYER
  2
_0-2_躯体
 70
   64
 62
    7
  6
CONTINUOUS
  0
LAYER
  2
_0-8_寸法
 70
   64
 62
    7
  6
CONTINUOUS
  0
LAYER
  2
_0-d_文字
 70
   64
 62
    7
  6
CONTINUOUS
  0
LAYER
  2
ADD_LINE
 70
   64
 62
    7
  6
CONTINUOUS
  0
ENDTAB
  0
ENDSEC
  0
SECTION
  2
BLOCKS
  0
ENDSEC
  0
SECTION
  2
ENTITIES
  0
LINE
  8
_0-d_文字
  6
CONTINUOUS
 62
    7
 10
250.00003
 20
2757.7012
 11
1850
 21
2757.7012
  0
LINE
  8
_0-d_文字
  6
CONTINUOUS
 62
    7
 10
250.00003
 20
2767.7015
 11
1850
 21
2767.7015
  0
LINE
  8
_0-d_文字
  6
CONTINUOUS
 62
    7
 10
249.99966
 20
189.99988
 11
1850.0002
 21
189.99988
  0
LINE
  8
_0-d_文字
  6
CONTINUOUS
 62
    7
 10
249.99966
 20
89.999802
 11
249.99966
 21
269.9999
  0
LINE
  8
_0-d_文字
  6
CONTINUOUS
 62
    7
 10
249.99966
 20
89.999802
 11
1850.0002
 21
89.999802
  0
LINE
  8
_0-d_文字
  6
CONTINUOUS
 62
    7
 10
1850.0002
 20
269.9999
 11
1850.0002
 21
89.999802
  0
LINE
  8
_0-d_文字
  6
CONTINUOUS
 62
    7
 10
249.99966
 20
269.9999
 11
1850.0002
 21
269.9999
  0
LINE
  8
_0-d_文字
  6
CONTINUOUS
 62
    7
 10
1050
 20
269.9999
 11
1050
 21
89.999802
  0
LINE
  8
_0-d_文字
  6
CONTINUOUS
 62
    7
 10
650.00016
 20
89.999802
 11
650.00016
 21
189.99988
  0
LINE
  8
_0-d_文字
  6
CONTINUOUS
 62
    7
 10
1050
 20
189.99988
 11
1050
 21
269.9999
  0
LINE
  8
_0-d_文字
  6
CONTINUOUS
 62
    7
 10
849.99971
 20
89.999802
 11
849.99971
 21
189.99988
  0
LINE
  8
_0-d_文字
  6
CONTINUOUS
 62
    7
 10
285.00001
 20
89.999802
 11
285.00001
 21
189.99988
  0
LINE
  8
_0-d_文字
  6
CONTINUOUS
 62
    7
 10
685.00003
 20
89.999802
 11
685.00003
 21
189.99988
  0
LINE
  8
_0-d_文字
  6
CONTINUOUS
 62
    7
 10
885.00007
 20
89.999802
 11
885.00007
 21
189.99988
  0
LINE
  8
_0-d_文字
  6
CONTINUOUS
 62
    7
 10
1015
 20
189.99988
 11
1015
 21
269.9999
  0
LINE
  8
_0-d_文字
  6
CONTINUOUS
 62
    7
 10
1550.0004
 20
189.99988
 11
1550.0004
 21
269.9999
  0
LINE
  8
_0-d_文字
  6
CONTINUOUS
 62
    7
 10
1585.0001
 20
189.99988
 11
1585.0001
 21
269.9999
  0
LINE
  8
_0-8_寸法
  6
CONTINUOUS
 62
    7
 10
650.2497
 20
2560.2642
 11
1449.7507
 21
2560.2642
  0
LINE
  8
_0-2_躯体
  6
CONTINUOUS
 62
    3
 10
650.2497
 20
2362.9189
 11
650.2497
 21
2227.2657
  0
LINE
  8
_0-2_躯体
  6
CONTINUOUS
 62
    3
 10
650.2497
 20
2211.2761
 11
650.2497
 21
2183.9088
  0
LINE
  8
_0-2_躯体
  6
CONTINUOUS
 62
    3
 10
794.7746
 20
2167.9197
 11
794.7746
 21
2128.5592
  0
LINE
  8
_0-8_寸法
  6
CONTINUOUS
 62
    7
 10
650.2497
 20
2410.0467
 11
650.2497
 21
2560.2642
  0
LINE
  8
_0-8_寸法
  6
CONTINUOUS
 62
    7
 10
1449.7507
 20
2410.0467
 11
1449.7507
 21
2560.2642
  0
LINE
  8
_0-8_寸法
  6
CONTINUOUS
 62
    7
 10
689.99992
 20
1859.2075
 11
689.99992
 21
1793.0851
  0
LINE
  8
_0-8_寸法
  6
CONTINUOUS
 62
    7
 10
1409.9998
 20
1859.2075
 11
1409.9998
 21
1793.0851
  0
LINE
  8
_0-8_寸法
  6
CONTINUOUS
 62
    7
 10
459.60041
 20
1942.9197
 11
459.60041
 21
2452.9197
  0
LINE
  8
_0-8_寸法
  6
CONTINUOUS
 62
    7
 10
689.99992
 20
1793.0851
 11
1409.9998
 21
1793.0851
  0
LINE
  8
_0-8_寸法
  6
CONTINUOUS
 62
    7
 10
611.9475
 20
1942.9197
 11
459.60041
 21
1942.9197
  0
LINE
  8
_0-2_躯体
  6
CONTINUOUS
 62
    3
 10
689.99992
 20
1942.9197
 11
689.99992
 21
2002.9197
  0
LINE
  8
_0-2_躯体
  6
CONTINUOUS
 62
    3
 10
689.99992
 20
1942.9197
 11
1409.9998
 21
1942.9197
  0
LINE
  8
_0-2_躯体
  6
CONTINUOUS
 62
    3
 10
689.99992
 20
2002.9197
 11
849.38581
 21
2106.1884
  0
LINE
  8
_0-2_躯体
  6
CONTINUOUS
 62
    3
 10
849.38581
 20
2106.1884
 11
849.38581
 21
2002.9197
  0
LINE
  8
_0-2_躯体
  6
CONTINUOUS
 62
    3
 10
650.2497
 20
2227.2657
 11
1049.9998
 21
2227.2657
  0
LINE
  8
_0-2_躯体
  6
CONTINUOUS
 62
    3
 10
650.2497
 20
2211.2761
 11
1049.9998
 21
2211.2761
  0
LINE
  8
_0-2_躯体
  6
CONTINUOUS
 62
    3
 10
650.2497
 20
2183.9093
 11
1049.9998
 21
2183.9093
  0
LINE
  8
_0-2_躯体
  6
CONTINUOUS
 62
    3
 10
650.2497
 20
2167.9197
 11
1049.9998
 21
2167.9197
  0
LINE
  8
_0-2_躯体
  6
CONTINUOUS
 62
    3
 10
794.7746
 20
2128.5592
 11
1049.9998
 21
2128.5592
  0
LINE
  8
_0-2_躯体
  6
CONTINUOUS
 62
    3
 10
794.7746
 20
2112.5696
 11
1049.9998
 21
2112.5696
  0
LINE
  8
_0-2_躯体
  6
CONTINUOUS
 62
    3
 10
631.74318
 20
2358.6478
 11
1049.9998
 21
2452.9197
  0
LINE
  8
_0-2_躯体
  6
CONTINUOUS
 62
    3
 10
650.2497
 20
2362.9189
 11
1049.5616
 21
2362.9189
  0
LINE
  8
_0-8_寸法
  6
CONTINUOUS
 62
    7
 10
730.28337
 20
2452.9197
 11
459.60041
 21
2452.9197
  0
LINE
  8
_0-2_躯体
  6
CENTER2
 62
    7
 10
1049.9998
 20
2526.072
 11
1049.9998
 21
1872.0915
  0
LINE
  8
_0-2_躯体
  6
CONTINUOUS
 62
    3
 10
1449.75
 20
2362.9189
 11
1449.75
 21
2227.2657
  0
LINE
  8
_0-2_躯体
  6
CONTINUOUS
 62
    3
 10
1449.75
 20
2211.2761
 11
1449.75
 21
2183.9088
  0
LINE
  8
_0-2_躯体
  6
CONTINUOUS
 62
    3
 10
1305.2251
 20
2167.9197
 11
1305.2251
 21
2128.5592
  0
LINE
  8
_0-2_躯体
  6
CONTINUOUS
 62
    3
 10
1409.9998
 20
1942.9197
 11
1409.9998
 21
2002.9197
  0
LINE
  8
_0-2_躯体
  6
CONTINUOUS
 62
    3
 10
1409.9998
 20
2002.9197
 11
1250.6139
 21
2106.1884
  0
LINE
  8
_0-2_躯体
  6
CONTINUOUS
 62
    3
 10
1250.6139
 20
2106.1884
 11
1250.6139
 21
2002.9197
  0
LINE
  8
_0-2_躯体
  6
CONTINUOUS
 62
    3
 10
1449.75
 20
2227.2657
 11
1049.9998
 21
2227.2657
  0
LINE
  8
_0-2_躯体
  6
CONTINUOUS
 62
    3
 10
1449.75
 20
2211.2761
 11
1049.9998
 21
2211.2761
  0
LINE
  8
_0-2_躯体
  6
CONTINUOUS
 62
    3
 10
1449.75
 20
2183.9093
 11
1049.9998
 21
2183.9093
  0
LINE
  8
_0-2_躯体
  6
CONTINUOUS
 62
    3
 10
1449.75
 20
2167.9197
 11
1049.9998
 21
2167.9197
  0
LINE
  8
_0-2_躯体
  6
CONTINUOUS
 62
    3
 10
1305.2251
 20
2128.5592
 11
1049.9998
 21
2128.5592
  0
LINE
  8
_0-2_躯体
  6
CONTINUOUS
 62
    3
 10
1305.2251
 20
2112.5696
 11
1049.9998
 21
2112.5696
  0
LINE
  8
_0-2_躯体
  6
CONTINUOUS
 62
    3
 10
1468.2565
 20
2358.6478
 11
1049.9998
 21
2452.9197
  0
LINE
  8
_0-2_躯体
  6
CONTINUOUS
 62
    3
 10
1449.75
 20
2362.9189
 11
1050.438
 21
2362.9189
  0
LINE
  8
_0-2_躯体
  6
CONTINUOUS
 62
    3
 10
794.7746
 20
2112.5696
 11
794.7746
 21
2070.8049
  0
LINE
  8
_0-2_躯体
  6
CONTINUOUS
 62
    3
 10
1305.2251
 20
2112.5696
 11
1305.2251
 21
2070.8049
  0
LINE
  8
_0-2_躯体
  6
CONTINUOUS
 62
    3
 10
689.99992
 20
2002.9197
 11
1409.9998
 21
2002.9197
  0
ARC
  8
_0-2_躯体
  6
CONTINUOUS
 62
    3
 10
794.7746
 20
2120.5642
 40
7.9946298
 50
90
 51
270
  0
ARC
  8
_0-2_躯体
  6
CONTINUOUS
 62
    3
 10
650.2497
 20
2219.2711
 40
7.9946298
 50
90
 51
270
  0
ARC
  8
_0-2_躯体
  6
CONTINUOUS
 62
    3
 10
650.2497
 20
2175.9142
 40
7.9946298
 50
90
 51
270
  0
ARC
  8
_0-2_躯体
  6
CONTINUOUS
 62
    3
 10
1305.2251
 20
2120.5642
 40
7.9946298
 50
270
 51
90
  0
ARC
  8
_0-2_躯体
  6
CONTINUOUS
 62
    3
 10
1449.75
 20
2219.2711
 40
7.9946298
 50
270
 51
90
  0
ARC
  8
_0-2_躯体
  6
CONTINUOUS
 62
    3
 10
1449.75
 20
2175.9142
 40
7.9946298
 50
270
 51
90
  0
TEXT
  8
_0-d_文字
 62
    7
 10
254.99978
 20
157.4999
 40
25
 41
1
 50
0
  1
図
  0
TEXT
  8
_0-d_文字
 62
    7
 10
254.99978
 20
97.499958
 40
25
 41
1
 50
0
  1
番
  0
TEXT
  8
_0-d_文字
 62
    7
 10
655.00043
 20
157.4999
 40
25
 41
1
 50
0
  1
承
  0
TEXT
  8
_0-d_文字
 62
    7
 10
655.00043
 20
97.499958
 40
25
 41
1
 50
0
  1
認
  0
TEXT
  8
_0-d_文字
 62
    7
 10
1020.0002
 20
237.49993
 40
25
 41
1
 50
0
  1
尺
  0
TEXT
  8
_0-d_文字
 62
    7
 10
1020.0002
 20
197.49977
 40
25
 41
1
 50
0.0000708
  1
度
  0
TEXT
  8
_0-d_文字
 62
    7
 10
855.0001
 20
157.4999
 40
25
 41
1
 50
0
  1
製
  0
TEXT
  8
_0-d_文字
 62
    7
 10
855.0001
 20
97.499958
 40
25
 41
1
 50
0
  1
図
  0
TEXT
  8
_0-d_文字
 62
    7
 10
1555
 20
237.49993
 40
25
 41
1
 50
0
  1
日
  0
TEXT
  8
_0-d_文字
 62
    7
 10
1555
 20
197.49977
 40
25
 41
1
 50
0.0000708
  1
付
  0
TEXT
  8
_0-d_文字
 62
    7
 10
1111.4263
 20
163.48225
 40
20
 41
1
 50
0
  1
株式
  0
TEXT
  8
_0-d_文字
 62
    7
 10
1111.4263
 20
141.85179
 40
20
 41
1
 50
0.0000196
  1
会社
  0
TEXT
  8
_0-d_文字
 62
    3
 10
1174.2246
 20
143.24711
 40
40
 41
1
 50
0
  1
スズキベンチレーター
  0
TEXT
  8
_0-d_文字
 62
    7
 10
1237.9181
 20
94.024178
 40
20
 41
1
 50
0
  1
TEL(054)296-7000  FAX(054)296-7001
  0
TEXT
  8
_0-d_文字
 62
    3
 10
1084.3489
 20
210.10064
 40
40
 41
1
 50
0.000005
  1
１／１０
  0
TEXT
  8
_0-8_寸法
 62
    3
 10
1028.3211
 20
2584.2503
 40
30
 41
1
 50
-0.0002835
  1
800
  0
TEXT
  8
_0-8_寸法
 62
    3
 10
1014.3297
 20
1809.0753
 40
30
 41
1
 50
-0.0001181
  1
720*720
  0
TEXT
  8
_0-8_寸法
 62
    3
 10
435.61545
 20
2187.5981
 40
30
 41
1
 50
90
  1
510
  0
TEXT
  8
_0-d_文字
 62
    7
 10
1235.6792
 20
118.64592
 40
20
 41
1
 50
0
  1
〒421-2114　静岡市葵区安倍口新田１５２番地
  0
TEXT
  8
_0-d_文字
 62
    3
 10
254.99999
 20
2792.7013
 40
50
 41
1
 50
0
  1
ＳＴ－５０Ｌ　架台型（低騒音）立面
  0
TEXT
  8
_0-d_文字
 62
    3
 10
280.67566
 20
215.81081
 40
30
 41
1
 50
0
  1
ＳＴ－５０Ｌ　架台型（低騒音）立面
  0
TEXT
  8
_0-d_文字
 62
    3
 10
308.45925
 20
140.30213
 40
30
 41
1
 50
0
  1
50L-01b
  0
POINT
  8
_0-8_寸法
 62
    2
 10
459.60041
 20
2452.9197
  0
POINT
  8
_0-8_寸法
 62
    2
 10
650.2497
 20
2560.2642
  0
POINT
  8
_0-8_寸法
 62
    2
 10
1449.7507
 20
2560.2642
  0
POINT
  8
_0-8_寸法
 62
    2
 10
689.99992
 20
1793.0851
  0
POINT
  8
_0-8_寸法
 62
    2
 10
1409.9998
 20
1793.0851
  0
POINT
  8
_0-8_寸法
 62
    2
 10
459.60041
 20
1942.9197
  0
ENDSEC
  0
EOF
