  0
SECTION
  2
HEADER
  9
$ACADVER
  1
AC1009
  9
$INSBASE
 10
0
 20
0
 30
0
  9
$EXTMIN
 10
0
 20
0
  9
$EXTMAX
 10
4200
 20
2970
  9
$LIMMIN
 10
0
 20
0
  9
$LIMMAX
 10
4200
 20
2970
  9
$LTSCALE
 40
10
  0
ENDSEC
  0
SECTION
  2
TABLES
  0
TABLE
  2
LTYPE
 70
     9
  0
LTYPE
  2
CONTINUOUS
 70
    64
  3
実線
 72
    65
 73
     0
 40
0.0
  0
LTYPE
  2
DASHED1
 70
    64
  3
--  --  --  --  --  --  --  --  
 72
    65
 73
     2
 40
2.5
 49
1.25
 49
-1.25
  0
LTYPE
  2
DASHED2
 70
    64
  3
----    ----    ----    ----    
 72
    65
 73
     2
 40
5.0
 49
2.5
 49
-2.5
  0
LTYPE
  2
DASHED3
 70
    64
  3
------  ------  ------  ------  
 72
    65
 73
     2
 40
5.0
 49
3.75
 49
-1.25
  0
LTYPE
  2
CENTER1
 70
    64
  3
----- - ----- - ----- - ----- - 
 72
    65
 73
     4
 40
10.0
 49
6.25
 49
-1.25
 49
1.25
 49
-1.25
  0
LTYPE
  2
CENTER2
 70
    64
  3
----------  --  ----------  --  
 72
    65
 73
     4
 40
20.0
 49
12.5
 49
-2.5
 49
2.5
 49
-2.5
  0
LTYPE
  2
PHANTOM1
 70
    64
  3
--- - - --- - - --- - - --- - - 
 72
    65
 73
     6
 40
10.0
 49
3.25
 49
-1.25
 49
1.25
 49
-1.25
 49
1.25
 49
-1.25
  0
LTYPE
  2
PHANTOM2
 70
    64
  3
--------  -  -  --------  -  -  
 72
    65
 73
     6
 40
20.0
 49
10.0
 49
-2.5
 49
1.25
 49
-2.5
 49
1.25
 49
-2.5
  0
LTYPE
  2
DOT
 70
    64
  3
-   -   -   -   -   -   -   -   
 72
    65
 73
     2
 40
2.5
 49
0.625
 49
-1.875
  0
LTYPE
  2
DUMMY
 70
    64
  3
ダミー
 72
    65
 73
     0
 40
0.0
  0
LTYPE
  2
RAND1
 70
    64
  3
----- - ----- - ----- - ----- - 
 72
    65
 73
     4
 40
10.0
 49
6.25
 49
-1.25
 49
1.25
 49
-1.25
  0
LTYPE
  2
RAND2
 70
    64
  3
----------  --  ----------  --  
 72
    65
 73
     4
 40
20.0
 49
12.5
 49
-2.5
 49
2.5
 49
-2.5
  0
LTYPE
  2
RAND3
 70
    64
  3
--- - - --- - - --- - - --- - - 
 72
    65
 73
     6
 40
10.0
 49
3.25
 49
-1.25
 49
1.25
 49
-1.25
 49
1.25
 49
-1.25
  0
LTYPE
  2
RAND4
 70
    64
  3
--------  -  -  --------  -  -  
 72
    65
 73
     6
 40
20.0
 49
10.0
 49
-2.5
 49
1.25
 49
-2.5
 49
1.25
 49
-2.5
  0
LTYPE
  2
RAND5
 70
    64
  3
----- - ----- - ----- - ----- - 
 72
    65
 73
     4
 40
10.0
 49
6.25
 49
-1.25
 49
1.25
 49
-1.25
  0
LTYPE
  2
LONG1
 70
    64
  3
----------  --  ----------  --  
 72
    65
 73
     4
 40
20.0
 49
12.5
 49
-2.5
 49
2.5
 49
-2.5
  0
LTYPE
  2
LONG2
 70
    64
  3
--- - - --- - - --- - - --- - - 
 72
    65
 73
     6
 40
10.0
 49
3.25
 49
-1.25
 49
1.25
 49
-1.25
 49
1.25
 49
-1.25
  0
LTYPE
  2
LONG3
 70
    64
  3
--------  -  -  --------  -  -  
 72
    65
 73
     6
 40
20.0
 49
10.0
 49
-2.5
 49
1.25
 49
-2.5
 49
1.25
 49
-2.5
  0
LTYPE
  2
LONG4
 70
    64
  3
----- - ----- - ----- - ----- - 
 72
    65
 73
     4
 40
10.0
 49
6.25
 49
-1.25
 49
1.25
 49
-1.25
  0
LTYPE
  2
LONG5
 70
    64
  3
----------  --  ----------  --  
 72
    65
 73
     4
 40
20.0
 49
12.5
 49
-2.5
 49
2.5
 49
-2.5
  0
ENDTAB
  0
TABLE
  2
STYLE
  5
3
100
AcDbSymbolTable
 70
     1
  0
STYLE
  5
10
100
AcDbSymbolTableRecord
100
AcDbTextStyleTableRecord
  2
STANDARD
 70
     0
 40
0.0
 41
1.0
 50
0.0
 71
     0
 42
0.2
  3
txt
  4
bigfont.shx
  0
STYLE
  5
26
100
AcDbSymbolTableRecord
100
AcDbTextStyleTableRecord
  2
TATEGAKI
 70
    68
 40
0.0
 41
1.0
 50
0.0
 71
     0
 42
1.0
  3
txt
  4
bigfont.shx
  0
ENDTAB
  0
TABLE
  2
LAYER
 70
    3
  0
LAYER
  2
_0-2_躯体
 70
   64
 62
    7
  6
CONTINUOUS
  0
LAYER
  2
_0-d_文字
 70
   64
 62
    7
  6
CONTINUOUS
  0
LAYER
  2
ADD_LINE
 70
   64
 62
    7
  6
CONTINUOUS
  0
ENDTAB
  0
ENDSEC
  0
SECTION
  2
BLOCKS
  0
ENDSEC
  0
SECTION
  2
ENTITIES
  0
LINE
  8
_0-d_文字
  6
CONTINUOUS
 62
    7
 10
250.00003
 20
2757.7012
 11
1850
 21
2757.7012
  0
LINE
  8
_0-d_文字
  6
CONTINUOUS
 62
    7
 10
250.00003
 20
2767.7015
 11
1850
 21
2767.7015
  0
LINE
  8
_0-d_文字
  6
CONTINUOUS
 62
    7
 10
249.99966
 20
189.99988
 11
1850.0002
 21
189.99988
  0
LINE
  8
_0-d_文字
  6
CONTINUOUS
 62
    7
 10
249.99966
 20
89.999802
 11
249.99966
 21
269.9999
  0
LINE
  8
_0-d_文字
  6
CONTINUOUS
 62
    7
 10
249.99966
 20
89.999802
 11
1850.0002
 21
89.999802
  0
LINE
  8
_0-d_文字
  6
CONTINUOUS
 62
    7
 10
1850.0002
 20
269.9999
 11
1850.0002
 21
89.999802
  0
LINE
  8
_0-d_文字
  6
CONTINUOUS
 62
    7
 10
249.99966
 20
269.9999
 11
1850.0002
 21
269.9999
  0
LINE
  8
_0-d_文字
  6
CONTINUOUS
 62
    7
 10
1050
 20
269.9999
 11
1050
 21
89.999802
  0
LINE
  8
_0-d_文字
  6
CONTINUOUS
 62
    7
 10
650.00016
 20
89.999802
 11
650.00016
 21
189.99988
  0
LINE
  8
_0-d_文字
  6
CONTINUOUS
 62
    7
 10
1050
 20
189.99988
 11
1050
 21
269.9999
  0
LINE
  8
_0-d_文字
  6
CONTINUOUS
 62
    7
 10
849.99971
 20
89.999802
 11
849.99971
 21
189.99988
  0
LINE
  8
_0-d_文字
  6
CONTINUOUS
 62
    7
 10
285.00001
 20
89.999802
 11
285.00001
 21
189.99988
  0
LINE
  8
_0-d_文字
  6
CONTINUOUS
 62
    7
 10
685.00003
 20
89.999802
 11
685.00003
 21
189.99988
  0
LINE
  8
_0-d_文字
  6
CONTINUOUS
 62
    7
 10
885.00007
 20
89.999802
 11
885.00007
 21
189.99988
  0
LINE
  8
_0-d_文字
  6
CONTINUOUS
 62
    7
 10
1015
 20
189.99988
 11
1015
 21
269.9999
  0
LINE
  8
_0-d_文字
  6
CONTINUOUS
 62
    7
 10
1550.0004
 20
189.99988
 11
1550.0004
 21
269.9999
  0
LINE
  8
_0-d_文字
  6
CONTINUOUS
 62
    7
 10
1585.0001
 20
189.99988
 11
1585.0001
 21
269.9999
  0
LINE
  8
_0-2_躯体
  6
CONTINUOUS
 62
    3
 10
632.37205
 20
2360.9393
 11
1050
 21
2455.1689
  0
LINE
  8
_0-2_躯体
  6
CONTINUOUS
 62
    3
 10
1467.6272
 20
2360.6006
 11
1050
 21
2455.1689
  0
LINE
  8
_0-2_躯体
  6
CONTINUOUS
 62
    7
 10
609.30151
 20
1985.1686
 11
234.00062
 21
1985.1686
  0
LINE
  8
_0-2_躯体
  6
CONTINUOUS
 62
    3
 10
649.99991
 20
2365.1688
 11
1450
 21
2364.8301
  0
LINE
  8
_0-2_躯体
  6
CONTINUOUS
 62
    3
 10
649.99991
 20
2207.468
 11
1450
 21
2207.468
  0
LINE
  8
_0-2_躯体
  6
CONTINUOUS
 62
    3
 10
649.99991
 20
2223.0679
 11
1450
 21
2223.0679
  0
LINE
  8
_0-2_躯体
  6
CONTINUOUS
 62
    3
 10
649.99991
 20
2180.7688
 11
1450
 21
2180.7688
  0
LINE
  8
_0-2_躯体
  6
CONTINUOUS
 62
    3
 10
649.99991
 20
2365.1688
 11
649.99991
 21
2223.0679
  0
LINE
  8
_0-2_躯体
  6
CONTINUOUS
 62
    3
 10
649.99991
 20
2207.468
 11
649.99991
 21
2180.7683
  0
LINE
  8
_0-2_躯体
  6
CONTINUOUS
 62
    3
 10
1450
 20
2364.8301
 11
1450
 21
2223.0679
  0
LINE
  8
_0-2_躯体
  6
CONTINUOUS
 62
    3
 10
792.50001
 20
2055.3684
 11
1307.5009
 21
2055.3684
  0
LINE
  8
_0-2_躯体
  6
CONTINUOUS
 62
    3
 10
792.50001
 20
2070.968
 11
1307.5009
 21
2070.968
  0
LINE
  8
_0-2_躯体
  6
CONTINUOUS
 62
    3
 10
792.50001
 20
2000.7683
 11
1307.5009
 21
2000.7683
  0
LINE
  8
_0-2_躯体
  6
CONTINUOUS
 62
    3
 10
792.50001
 20
1985.1687
 11
1307.5009
 21
1985.1687
  0
LINE
  8
_0-2_躯体
  6
CONTINUOUS
 62
    3
 10
792.50001
 20
2055.3684
 11
792.50001
 21
2000.768
  0
LINE
  8
_0-2_躯体
  6
CONTINUOUS
 62
    3
 10
1307.4999
 20
2055.3684
 11
1307.4999
 21
2000.768
  0
LINE
  8
_0-2_躯体
  6
CONTINUOUS
 62
    3
 10
792.50001
 20
2165.1687
 11
792.50001
 21
2070.968
  0
LINE
  8
_0-2_躯体
  6
CONTINUOUS
 62
    3
 10
1307.4999
 20
2165.1687
 11
1307.4999
 21
2070.968
  0
LINE
  8
_0-2_躯体
  6
CONTINUOUS
 62
    7
 10
650.00004
 20
2411.1474
 11
650.00004
 21
2597.7012
  0
LINE
  8
_0-2_躯体
  6
CONTINUOUS
 62
    7
 10
738.08156
 20
2455.1689
 11
234.00062
 21
2455.1689
  0
LINE
  8
_0-2_躯体
  6
CONTINUOUS
 62
    3
 10
1307.4999
 20
2055.3684
 11
1307.4999
 21
2000.768
  0
LINE
  8
_0-2_躯体
  6
CONTINUOUS
 62
    3
 10
1449.9988
 20
2207.468
 11
1449.9988
 21
2180.7683
  0
LINE
  8
_0-2_躯体
  6
CONTINUOUS
 62
    3
 10
649.99991
 20
2165.1689
 11
1450
 21
2165.1689
  0
LINE
  8
_0-2_躯体
  6
CONTINUOUS
 62
    7
 10
792.50001
 20
1909.7213
 11
1307.5009
 21
1909.7213
  0
LINE
  8
_0-2_躯体
  6
CONTINUOUS
 62
    7
 10
650.00004
 20
2597.7012
 11
1449.9999
 21
2597.7012
  0
LINE
  8
_0-2_躯体
  6
CONTINUOUS
 62
    7
 10
1449.9999
 20
2411.1474
 11
1449.9999
 21
2597.7012
  0
LINE
  8
_0-2_躯体
  6
CENTER2
 62
    7
 10
1050
 20
1800
 11
1050
 21
2655.1686
  0
LINE
  8
_0-2_躯体
  6
CONTINUOUS
 62
    7
 10
234.00062
 20
1985.1686
 11
234.00062
 21
2455.1689
  0
LINE
  8
_0-2_躯体
  6
CONTINUOUS
 62
    7
 10
792.50001
 20
1961.5517
 11
792.50001
 21
1909.7213
  0
LINE
  8
_0-2_躯体
  6
CONTINUOUS
 62
    7
 10
1307.5009
 20
1961.5517
 11
1307.5009
 21
1909.7213
  0
ARC
  8
_0-2_躯体
  6
CONTINUOUS
 62
    3
 10
792.50001
 20
1992.9682
 40
7.7996395
 50
90
 51
270
  0
ARC
  8
_0-2_躯体
  6
CONTINUOUS
 62
    3
 10
792.50001
 20
2063.1679
 40
7.7996395
 50
90
 51
270
  0
ARC
  8
_0-2_躯体
  6
CONTINUOUS
 62
    3
 10
1307.4999
 20
1992.9682
 40
7.7996395
 50
270
 51
90
  0
ARC
  8
_0-2_躯体
  6
CONTINUOUS
 62
    3
 10
1307.4999
 20
2063.1679
 40
7.7996395
 50
270
 51
90
  0
ARC
  8
_0-2_躯体
  6
CONTINUOUS
 62
    3
 10
649.99991
 20
2215.2681
 40
7.7996395
 50
90
 51
270
  0
ARC
  8
_0-2_躯体
  6
CONTINUOUS
 62
    3
 10
649.99991
 20
2172.9687
 40
7.7996395
 50
90
 51
270
  0
ARC
  8
_0-2_躯体
  6
CONTINUOUS
 62
    3
 10
1449.9988
 20
2215.2681
 40
7.7996395
 50
270
 51
90
  0
ARC
  8
_0-2_躯体
  6
CONTINUOUS
 62
    3
 10
1449.9988
 20
2172.9687
 40
7.7996395
 50
270
 51
90
  0
TEXT
  8
_0-d_文字
 62
    7
 10
254.99978
 20
157.4999
 40
25
 41
1
 50
0
  1
図
  0
TEXT
  8
_0-d_文字
 62
    7
 10
254.99978
 20
97.499958
 40
25
 41
1
 50
0
  1
番
  0
TEXT
  8
_0-d_文字
 62
    7
 10
655.00043
 20
157.4999
 40
25
 41
1
 50
0
  1
承
  0
TEXT
  8
_0-d_文字
 62
    7
 10
655.00043
 20
97.499958
 40
25
 41
1
 50
0
  1
認
  0
TEXT
  8
_0-d_文字
 62
    7
 10
1020.0002
 20
237.49993
 40
25
 41
1
 50
0
  1
尺
  0
TEXT
  8
_0-d_文字
 62
    7
 10
1020.0002
 20
197.49977
 40
25
 41
1
 50
0.0000708
  1
度
  0
TEXT
  8
_0-d_文字
 62
    7
 10
855.0001
 20
157.4999
 40
25
 41
1
 50
0
  1
製
  0
TEXT
  8
_0-d_文字
 62
    7
 10
855.0001
 20
97.499958
 40
25
 41
1
 50
0
  1
図
  0
TEXT
  8
_0-d_文字
 62
    7
 10
1555
 20
237.49993
 40
25
 41
1
 50
0
  1
日
  0
TEXT
  8
_0-d_文字
 62
    7
 10
1555
 20
197.49977
 40
25
 41
1
 50
0.0000708
  1
付
  0
TEXT
  8
_0-d_文字
 62
    7
 10
1111.4263
 20
163.48225
 40
20
 41
1
 50
0
  1
株式
  0
TEXT
  8
_0-d_文字
 62
    7
 10
1111.4263
 20
141.85179
 40
20
 41
1
 50
0.0000196
  1
会社
  0
TEXT
  8
_0-d_文字
 62
    3
 10
1174.2246
 20
143.24711
 40
40
 41
1
 50
0
  1
スズキベンチレーター
  0
TEXT
  8
_0-d_文字
 62
    7
 10
1237.9181
 20
94.024178
 40
20
 41
1
 50
0
  1
TEL(054)296-7000  FAX(054)296-7001
  0
TEXT
  8
_0-d_文字
 62
    3
 10
1084.3489
 20
210.10064
 40
40
 41
1
 50
0.000005
  1
１／１０
  0
TEXT
  8
_0-2_躯体
 62
    3
 10
1016.85
 20
2621.102
 40
30
 41
1
 50
0
  1
800
  0
TEXT
  8
_0-2_躯体
 62
    3
 10
210.60048
 20
2180.3674
 40
30
 41
1
 50
90
  1
470
  0
TEXT
  8
_0-2_躯体
 62
    3
 10
995.39994
 20
1925.3214
 40
30
 41
1
 50
0
  1
515φ
  0
TEXT
  8
_0-d_文字
 62
    7
 10
1235.6792
 20
118.64592
 40
20
 41
1
 50
0
  1
〒421-2114　静岡市葵区安倍口新田１５２番地
  0
TEXT
  8
_0-d_文字
 62
    3
 10
254.99999
 20
2792.7013
 40
50
 41
1
 50
0
  1
ＳＴ－５０Ｌ　直付型（低騒音）立面
  0
TEXT
  8
_0-d_文字
 62
    3
 10
280.67566
 20
215.81081
 40
30
 41
1
 50
0
  1
ＳＴ－５０Ｌ　直付型（低騒音）立面
  0
TEXT
  8
_0-d_文字
 62
    3
 10
308.45925
 20
140.30213
 40
30
 41
1
 50
0
  1
50L-01a
  0
POINT
  8
_0-2_躯体
 62
    2
 10
234.00062
 20
1985.1686
  0
POINT
  8
_0-2_躯体
 62
    2
 10
234.00062
 20
2455.1689
  0
POINT
  8
_0-2_躯体
 62
    2
 10
650.00004
 20
2597.7012
  0
POINT
  8
_0-2_躯体
 62
    2
 10
1449.9999
 20
2597.7012
  0
POINT
  8
_0-2_躯体
 62
    2
 10
792.50001
 20
1909.7213
  0
POINT
  8
_0-2_躯体
 62
    2
 10
1307.5009
 20
1909.7213
  0
ENDSEC
  0
EOF
