  0
SECTION
  2
HEADER
  9
$ACADVER
  1
AC1009
  9
$INSBASE
 10
0
 20
0
 30
0
  9
$EXTMIN
 10
0
 20
0
  9
$EXTMAX
 10
2520
 20
1782
  9
$LIMMIN
 10
0
 20
0
  9
$LIMMAX
 10
2520
 20
1782
  9
$LTSCALE
 40
6
  0
ENDSEC
  0
SECTION
  2
TABLES
  0
TABLE
  2
LTYPE
 70
     9
  0
LTYPE
  2
CONTINUOUS
 70
    64
  3
実線
 72
    65
 73
     0
 40
0.0
  0
LTYPE
  2
DASHED1
 70
    64
  3
--  --  --  --  --  --  --  --  
 72
    65
 73
     2
 40
2.5
 49
1.25
 49
-1.25
  0
LTYPE
  2
DASHED2
 70
    64
  3
----    ----    ----    ----    
 72
    65
 73
     2
 40
5.0
 49
2.5
 49
-2.5
  0
LTYPE
  2
DASHED3
 70
    64
  3
------  ------  ------  ------  
 72
    65
 73
     2
 40
5.0
 49
3.75
 49
-1.25
  0
LTYPE
  2
CENTER1
 70
    64
  3
----- - ----- - ----- - ----- - 
 72
    65
 73
     4
 40
10.0
 49
6.25
 49
-1.25
 49
1.25
 49
-1.25
  0
LTYPE
  2
CENTER2
 70
    64
  3
----------  --  ----------  --  
 72
    65
 73
     4
 40
20.0
 49
12.5
 49
-2.5
 49
2.5
 49
-2.5
  0
LTYPE
  2
PHANTOM1
 70
    64
  3
--- - - --- - - --- - - --- - - 
 72
    65
 73
     6
 40
10.0
 49
3.25
 49
-1.25
 49
1.25
 49
-1.25
 49
1.25
 49
-1.25
  0
LTYPE
  2
PHANTOM2
 70
    64
  3
--------  -  -  --------  -  -  
 72
    65
 73
     6
 40
20.0
 49
10.0
 49
-2.5
 49
1.25
 49
-2.5
 49
1.25
 49
-2.5
  0
LTYPE
  2
DOT
 70
    64
  3
-   -   -   -   -   -   -   -   
 72
    65
 73
     2
 40
2.5
 49
0.625
 49
-1.875
  0
LTYPE
  2
DUMMY
 70
    64
  3
ダミー
 72
    65
 73
     0
 40
0.0
  0
LTYPE
  2
RAND1
 70
    64
  3
----- - ----- - ----- - ----- - 
 72
    65
 73
     4
 40
10.0
 49
6.25
 49
-1.25
 49
1.25
 49
-1.25
  0
LTYPE
  2
RAND2
 70
    64
  3
----------  --  ----------  --  
 72
    65
 73
     4
 40
20.0
 49
12.5
 49
-2.5
 49
2.5
 49
-2.5
  0
LTYPE
  2
RAND3
 70
    64
  3
--- - - --- - - --- - - --- - - 
 72
    65
 73
     6
 40
10.0
 49
3.25
 49
-1.25
 49
1.25
 49
-1.25
 49
1.25
 49
-1.25
  0
LTYPE
  2
RAND4
 70
    64
  3
--------  -  -  --------  -  -  
 72
    65
 73
     6
 40
20.0
 49
10.0
 49
-2.5
 49
1.25
 49
-2.5
 49
1.25
 49
-2.5
  0
LTYPE
  2
RAND5
 70
    64
  3
----- - ----- - ----- - ----- - 
 72
    65
 73
     4
 40
10.0
 49
6.25
 49
-1.25
 49
1.25
 49
-1.25
  0
LTYPE
  2
LONG1
 70
    64
  3
----------  --  ----------  --  
 72
    65
 73
     4
 40
20.0
 49
12.5
 49
-2.5
 49
2.5
 49
-2.5
  0
LTYPE
  2
LONG2
 70
    64
  3
--- - - --- - - --- - - --- - - 
 72
    65
 73
     6
 40
10.0
 49
3.25
 49
-1.25
 49
1.25
 49
-1.25
 49
1.25
 49
-1.25
  0
LTYPE
  2
LONG3
 70
    64
  3
--------  -  -  --------  -  -  
 72
    65
 73
     6
 40
20.0
 49
10.0
 49
-2.5
 49
1.25
 49
-2.5
 49
1.25
 49
-2.5
  0
LTYPE
  2
LONG4
 70
    64
  3
----- - ----- - ----- - ----- - 
 72
    65
 73
     4
 40
10.0
 49
6.25
 49
-1.25
 49
1.25
 49
-1.25
  0
LTYPE
  2
LONG5
 70
    64
  3
----------  --  ----------  --  
 72
    65
 73
     4
 40
20.0
 49
12.5
 49
-2.5
 49
2.5
 49
-2.5
  0
ENDTAB
  0
TABLE
  2
STYLE
  5
3
100
AcDbSymbolTable
 70
     1
  0
STYLE
  5
10
100
AcDbSymbolTableRecord
100
AcDbTextStyleTableRecord
  2
STANDARD
 70
     0
 40
0.0
 41
1.0
 50
0.0
 71
     0
 42
0.2
  3
txt
  4
bigfont.shx
  0
STYLE
  5
26
100
AcDbSymbolTableRecord
100
AcDbTextStyleTableRecord
  2
TATEGAKI
 70
    68
 40
0.0
 41
1.0
 50
0.0
 71
     0
 42
1.0
  3
txt
  4
bigfont.shx
  0
ENDTAB
  0
TABLE
  2
LAYER
 70
    8
  0
LAYER
  2
_0-1_基準線
 70
   64
 62
    7
  6
CONTINUOUS
  0
LAYER
  2
_0-2_躯体
 70
   64
 62
    7
  6
CONTINUOUS
  0
LAYER
  2
_0-3_軸組
 70
   64
 62
    7
  6
CONTINUOUS
  0
LAYER
  2
_0-4_仕上
 70
   64
 62
    7
  6
CONTINUOUS
  0
LAYER
  2
_0-5_建具
 70
   64
 62
    7
  6
CONTINUOUS
  0
LAYER
  2
_0-8_寸法
 70
   64
 62
    7
  6
CONTINUOUS
  0
LAYER
  2
_0-d_文字
 70
   64
 62
    7
  6
CONTINUOUS
  0
LAYER
  2
ADD_LINE
 70
   64
 62
    7
  6
CONTINUOUS
  0
ENDTAB
  0
ENDSEC
  0
SECTION
  2
BLOCKS
  0
ENDSEC
  0
SECTION
  2
ENTITIES
  0
LINE
  8
_0-d_文字
  6
CONTINUOUS
 62
    7
 10
150.00001
 20
1654.6207
 11
1110
 21
1654.6207
  0
LINE
  8
_0-d_文字
  6
CONTINUOUS
 62
    7
 10
150.00001
 20
1660.6207
 11
1110
 21
1660.6207
  0
LINE
  8
_0-d_文字
  6
CONTINUOUS
 62
    7
 10
149.99978
 20
113.99993
 11
1110.0001
 21
113.99993
  0
LINE
  8
_0-d_文字
  6
CONTINUOUS
 62
    7
 10
149.99978
 20
53.999881
 11
149.99978
 21
161.99994
  0
LINE
  8
_0-d_文字
  6
CONTINUOUS
 62
    7
 10
149.99978
 20
53.999881
 11
1110.0001
 21
53.999881
  0
LINE
  8
_0-d_文字
  6
CONTINUOUS
 62
    7
 10
1110.0001
 20
161.99994
 11
1110.0001
 21
53.999881
  0
LINE
  8
_0-d_文字
  6
CONTINUOUS
 62
    7
 10
149.99978
 20
161.99994
 11
1110.0001
 21
161.99994
  0
LINE
  8
_0-d_文字
  6
CONTINUOUS
 62
    7
 10
630
 20
161.99994
 11
630
 21
53.999881
  0
LINE
  8
_0-d_文字
  6
CONTINUOUS
 62
    7
 10
390.00009
 20
53.999881
 11
390.00009
 21
113.99993
  0
LINE
  8
_0-d_文字
  6
CONTINUOUS
 62
    7
 10
630
 20
113.99993
 11
630
 21
161.99994
  0
LINE
  8
_0-d_文字
  6
CONTINUOUS
 62
    7
 10
509.99982
 20
53.999881
 11
509.99982
 21
113.99993
  0
LINE
  8
_0-d_文字
  6
CONTINUOUS
 62
    7
 10
171
 20
53.999881
 11
171
 21
113.99993
  0
LINE
  8
_0-d_文字
  6
CONTINUOUS
 62
    7
 10
411.00001
 20
53.999881
 11
411.00001
 21
113.99993
  0
LINE
  8
_0-d_文字
  6
CONTINUOUS
 62
    7
 10
531.00004
 20
53.999881
 11
531.00004
 21
113.99993
  0
LINE
  8
_0-d_文字
  6
CONTINUOUS
 62
    7
 10
609
 20
113.99993
 11
609
 21
161.99994
  0
LINE
  8
_0-d_文字
  6
CONTINUOUS
 62
    7
 10
930.00017
 20
113.99993
 11
930.00017
 21
161.99994
  0
LINE
  8
_0-d_文字
  6
CONTINUOUS
 62
    7
 10
951.00009
 20
113.99993
 11
951.00009
 21
161.99994
  0
LINE
  8
_0-2_躯体
  6
CONTINUOUS
 62
    3
 10
289.95391
 20
1384.8576
 11
630
 21
1463.3299
  0
LINE
  8
_0-8_寸法
  6
CONTINUOUS
 62
    7
 10
150.00049
 20
1078.3294
 11
150.00049
 21
1463.3299
  0
LINE
  8
_0-8_寸法
  6
CONTINUOUS
 62
    7
 10
262.75132
 20
1078.3294
 11
150.00049
 21
1078.3294
  0
LINE
  8
_0-8_寸法
  6
CONTINUOUS
 62
    7
 10
304.99991
 20
1548.7734
 11
955.00112
 21
1548.7734
  0
LINE
  8
_0-8_寸法
  6
CONTINUOUS
 62
    7
 10
422.49995
 20
1008.7901
 11
837.50011
 21
1008.7901
  0
LINE
  8
_0-2_躯体
  6
CONTINUOUS
 62
    3
 10
304.99991
 20
1388.3299
 11
304.99991
 21
1276.5789
  0
LINE
  8
_0-2_躯体
  6
CONTINUOUS
 62
    3
 10
304.99991
 20
1263.5791
 11
304.99991
 21
1241.3294
  0
LINE
  8
_0-2_躯体
  6
CONTINUOUS
 62
    3
 10
955.00008
 20
1388.3299
 11
955.00112
 21
1276.5789
  0
LINE
  8
_0-2_躯体
  6
CONTINUOUS
 62
    3
 10
422.49995
 20
1136.8295
 11
837.50115
 21
1136.8295
  0
LINE
  8
_0-2_躯体
  6
CONTINUOUS
 62
    3
 10
422.49995
 20
1149.8291
 11
837.50115
 21
1149.8291
  0
LINE
  8
_0-2_躯体
  6
CONTINUOUS
 62
    3
 10
422.49995
 20
1091.3294
 11
837.50115
 21
1091.3294
  0
LINE
  8
_0-2_躯体
  6
CONTINUOUS
 62
    3
 10
422.49995
 20
1078.3297
 11
837.50115
 21
1078.3297
  0
LINE
  8
_0-2_躯体
  6
CONTINUOUS
 62
    3
 10
422.49995
 20
1136.8295
 11
422.49995
 21
1091.3292
  0
LINE
  8
_0-2_躯体
  6
CONTINUOUS
 62
    3
 10
837.50011
 20
1136.8295
 11
837.50011
 21
1091.3292
  0
LINE
  8
_0-2_躯体
  6
CONTINUOUS
 62
    3
 10
422.49995
 20
1228.3299
 11
422.49995
 21
1149.8291
  0
LINE
  8
_0-8_寸法
  6
CONTINUOUS
 62
    7
 10
304.99991
 20
1426.6452
 11
304.99991
 21
1548.7734
  0
LINE
  8
_0-8_寸法
  6
CONTINUOUS
 62
    7
 10
370.06793
 20
1463.3299
 11
150.00049
 21
1463.3299
  0
LINE
  8
_0-8_寸法
  6
CONTINUOUS
 62
    7
 10
955.00112
 20
1426.6452
 11
955.00112
 21
1548.7734
  0
LINE
  8
_0-2_躯体
  6
CONTINUOUS
 62
    3
 10
837.50011
 20
1136.8295
 11
837.50011
 21
1091.3292
  0
LINE
  8
_0-2_躯体
  6
CONTINUOUS
 62
    3
 10
955.00008
 20
1263.5791
 11
955.00008
 21
1241.3294
  0
LINE
  8
_0-8_寸法
  6
CONTINUOUS
 62
    7
 10
422.49995
 20
1062.5482
 11
422.49995
 21
1008.7901
  0
LINE
  8
_0-8_寸法
  6
CONTINUOUS
 62
    7
 10
837.50011
 20
1062.5482
 11
837.50011
 21
1008.7901
  0
LINE
  8
_0-3_軸組
  6
CONTINUOUS
 62
    3
 10
644.76235
 20
1264.8795
 11
648.64736
 21
1267.2671
  0
LINE
  8
_0-3_軸組
  6
CONTINUOUS
 62
    3
 10
648.64736
 20
1267.2671
 11
652.51388
 21
1269.7022
  0
LINE
  8
_0-3_軸組
  6
CONTINUOUS
 62
    3
 10
652.51388
 20
1269.7022
 11
656.3441
 21
1272.2285
  0
LINE
  8
_0-3_軸組
  6
CONTINUOUS
 62
    3
 10
656.3441
 20
1272.2285
 11
660.09474
 21
1274.8953
  0
LINE
  8
_0-3_軸組
  6
CONTINUOUS
 62
    3
 10
660.09474
 20
1274.8953
 11
663.69796
 21
1277.7564
  0
LINE
  8
_0-3_軸組
  6
CONTINUOUS
 62
    3
 10
663.69796
 20
1277.7564
 11
667.07781
 21
1280.8579
  0
LINE
  8
_0-3_軸組
  6
CONTINUOUS
 62
    3
 10
667.07781
 20
1280.8579
 11
670.16059
 21
1284.2561
  0
LINE
  8
_0-3_軸組
  6
CONTINUOUS
 62
    3
 10
670.16059
 20
1284.2561
 11
672.87251
 21
1287.998
  0
LINE
  8
_0-3_軸組
  6
CONTINUOUS
 62
    3
 10
672.87251
 20
1287.998
 11
675.23776
 21
1292.0457
  0
LINE
  8
_0-3_軸組
  6
CONTINUOUS
 62
    3
 10
675.23776
 20
1292.0457
 11
677.47266
 21
1296.1793
  0
LINE
  8
_0-3_軸組
  6
CONTINUOUS
 62
    3
 10
677.47266
 20
1296.1793
 11
679.80384
 21
1300.1649
  0
LINE
  8
_0-3_軸組
  6
CONTINUOUS
 62
    3
 10
679.80384
 20
1300.1649
 11
682.47129
 21
1303.7696
  0
LINE
  8
_0-3_軸組
  6
CONTINUOUS
 62
    3
 10
682.47129
 20
1303.7696
 11
685.69971
 21
1306.7584
  0
LINE
  8
_0-3_軸組
  6
CONTINUOUS
 62
    3
 10
685.69971
 20
1306.7584
 11
689.56111
 21
1309.0695
  0
LINE
  8
_0-3_軸組
  6
CONTINUOUS
 62
    3
 10
689.56111
 20
1309.0695
 11
693.81972
 21
1310.9574
  0
LINE
  8
_0-3_軸組
  6
CONTINUOUS
 62
    3
 10
693.81972
 20
1310.9574
 11
695.83586
 21
1311.7629
  0
LINE
  8
_0-3_軸組
  6
CONTINUOUS
 62
    3
 10
693.81972
 20
1310.9574
 11
696.62421
 21
1311.403
  0
LINE
  8
_0-3_軸組
  6
CONTINUOUS
 62
    3
 10
696.62421
 20
1311.403
 11
699.45378
 21
1311.7907
  0
LINE
  8
_0-3_軸組
  6
CONTINUOUS
 62
    3
 10
699.45378
 20
1311.7907
 11
702.33012
 21
1312.0682
  0
LINE
  8
_0-3_軸組
  6
CONTINUOUS
 62
    3
 10
702.33012
 20
1312.0682
 11
705.27698
 21
1312.1736
  0
LINE
  8
_0-3_軸組
  6
CONTINUOUS
 62
    3
 10
705.27698
 20
1312.1736
 11
708.31381
 21
1312.0547
  0
LINE
  8
_0-3_軸組
  6
CONTINUOUS
 62
    3
 10
708.31381
 20
1312.0547
 11
711.35212
 21
1311.6119
  0
LINE
  8
_0-3_軸組
  6
CONTINUOUS
 62
    3
 10
711.35212
 20
1311.6119
 11
714.18674
 21
1310.7237
  0
LINE
  8
_0-3_軸組
  6
CONTINUOUS
 62
    3
 10
714.18674
 20
1310.7237
 11
716.6027
 21
1309.2521
  0
LINE
  8
_0-3_軸組
  6
CONTINUOUS
 62
    3
 10
716.6027
 20
1309.2521
 11
718.42657
 21
1307.1016
  0
LINE
  8
_0-3_軸組
  6
CONTINUOUS
 62
    3
 10
718.42657
 20
1307.1016
 11
719.84826
 21
1304.5194
  0
LINE
  8
_0-3_軸組
  6
CONTINUOUS
 62
    3
 10
643.23718
 20
1254.2079
 11
647.78968
 21
1254.8836
  0
LINE
  8
_0-3_軸組
  6
CONTINUOUS
 62
    3
 10
647.78968
 20
1254.8836
 11
652.31442
 21
1255.6486
  0
LINE
  8
_0-3_軸組
  6
CONTINUOUS
 62
    3
 10
652.31442
 20
1255.6486
 11
656.78912
 21
1256.5831
  0
LINE
  8
_0-3_軸組
  6
CONTINUOUS
 62
    3
 10
656.78912
 20
1256.5831
 11
661.18343
 21
1257.7789
  0
LINE
  8
_0-3_軸組
  6
CONTINUOUS
 62
    3
 10
661.18343
 20
1257.7789
 11
665.47492
 21
1259.3185
  0
LINE
  8
_0-3_軸組
  6
CONTINUOUS
 62
    3
 10
665.47492
 20
1259.3185
 11
669.63896
 21
1261.223
  0
LINE
  8
_0-3_軸組
  6
CONTINUOUS
 62
    3
 10
669.63896
 20
1261.223
 11
673.65796
 21
1263.455
  0
LINE
  8
_0-3_軸組
  6
CONTINUOUS
 62
    3
 10
673.65796
 20
1263.455
 11
677.51007
 21
1265.9894
  0
LINE
  8
_0-3_軸組
  6
CONTINUOUS
 62
    3
 10
677.51007
 20
1265.9894
 11
681.17676
 21
1268.7811
  0
LINE
  8
_0-3_軸組
  6
CONTINUOUS
 62
    3
 10
681.17676
 20
1268.7811
 11
684.6405
 21
1271.8027
  0
LINE
  8
_0-3_軸組
  6
CONTINUOUS
 62
    3
 10
684.6405
 20
1271.8027
 11
687.92801
 21
1274.9997
  0
LINE
  8
_0-3_軸組
  6
CONTINUOUS
 62
    3
 10
687.92801
 20
1274.9997
 11
691.10566
 21
1278.2992
  0
LINE
  8
_0-3_軸組
  6
CONTINUOUS
 62
    3
 10
691.10566
 20
1278.2992
 11
694.2427
 21
1281.6292
  0
LINE
  8
_0-3_軸組
  6
CONTINUOUS
 62
    3
 10
694.2427
 20
1281.6292
 11
697.40609
 21
1284.9144
  0
LINE
  8
_0-3_軸組
  6
CONTINUOUS
 62
    3
 10
697.40609
 20
1284.9144
 11
700.66792
 21
1288.0846
  0
LINE
  8
_0-3_軸組
  6
CONTINUOUS
 62
    3
 10
700.66792
 20
1288.0846
 11
704.09053
 21
1291.076
  0
LINE
  8
_0-3_軸組
  6
CONTINUOUS
 62
    3
 10
704.09053
 20
1291.076
 11
707.66962
 21
1293.8868
  0
LINE
  8
_0-3_軸組
  6
CONTINUOUS
 62
    3
 10
707.66962
 20
1293.8868
 11
711.37588
 21
1296.5595
  0
LINE
  8
_0-3_軸組
  6
CONTINUOUS
 62
    3
 10
711.37588
 20
1296.5595
 11
715.17076
 21
1299.1282
  0
LINE
  8
_0-3_軸組
  6
CONTINUOUS
 62
    3
 10
715.17076
 20
1299.1282
 11
719.0254
 21
1301.6325
  0
LINE
  8
_0-3_軸組
  6
CONTINUOUS
 62
    3
 10
719.0254
 20
1301.6325
 11
721.75439
 21
1303.3766
  0
LINE
  8
_0-3_軸組
  6
CONTINUOUS
 62
    3
 10
721.75439
 20
1303.3766
 11
726.01263
 21
1305.1429
  0
LINE
  8
_0-3_軸組
  6
CONTINUOUS
 62
    3
 10
726.01263
 20
1305.1429
 11
730.29493
 21
1306.7918
  0
LINE
  8
_0-3_軸組
  6
CONTINUOUS
 62
    3
 10
730.29493
 20
1306.7918
 11
734.62814
 21
1308.2075
  0
LINE
  8
_0-3_軸組
  6
CONTINUOUS
 62
    3
 10
734.62814
 20
1308.2075
 11
739.03722
 21
1309.2744
  0
LINE
  8
_0-3_軸組
  6
CONTINUOUS
 62
    3
 10
739.03722
 20
1309.2744
 11
743.53271
 21
1309.9276
  0
LINE
  8
_0-3_軸組
  6
CONTINUOUS
 62
    3
 10
743.53271
 20
1309.9276
 11
748.09278
 21
1310.2147
  0
LINE
  8
_0-3_軸組
  6
CONTINUOUS
 62
    3
 10
748.09278
 20
1310.2147
 11
752.69115
 21
1310.198
  0
LINE
  8
_0-3_軸組
  6
CONTINUOUS
 62
    3
 10
752.69115
 20
1310.198
 11
757.30303
 21
1309.9392
  0
LINE
  8
_0-3_軸組
  6
CONTINUOUS
 62
    3
 10
757.30303
 20
1309.9392
 11
761.9069
 21
1309.5023
  0
LINE
  8
_0-3_軸組
  6
CONTINUOUS
 62
    3
 10
761.9069
 20
1309.5023
 11
766.47506
 21
1308.9406
  0
LINE
  8
_0-3_軸組
  6
CONTINUOUS
 62
    3
 10
766.47506
 20
1308.9406
 11
771.00343
 21
1308.2417
  0
LINE
  8
_0-3_軸組
  6
CONTINUOUS
 62
    3
 10
771.00343
 20
1308.2417
 11
775.49283
 21
1307.3911
  0
LINE
  8
_0-3_軸組
  6
CONTINUOUS
 62
    3
 10
775.49283
 20
1307.3911
 11
779.9371
 21
1306.3591
  0
LINE
  8
_0-3_軸組
  6
CONTINUOUS
 62
    3
 10
779.9371
 20
1306.3591
 11
784.3389
 21
1305.1287
  0
LINE
  8
_0-3_軸組
  6
CONTINUOUS
 62
    3
 10
784.3389
 20
1305.1287
 11
788.69617
 21
1303.6715
  0
LINE
  8
_0-3_軸組
  6
CONTINUOUS
 62
    3
 10
788.69617
 20
1303.6715
 11
792.99167
 21
1301.9673
  0
LINE
  8
_0-3_軸組
  6
CONTINUOUS
 62
    3
 10
792.99167
 20
1301.9673
 11
797.18504
 21
1299.9972
  0
LINE
  8
_0-3_軸組
  6
CONTINUOUS
 62
    3
 10
797.18504
 20
1299.9972
 11
801.21524
 21
1297.7488
  0
LINE
  8
_0-3_軸組
  6
CONTINUOUS
 62
    3
 10
801.21524
 20
1297.7488
 11
805.02987
 21
1295.2016
  0
LINE
  8
_0-3_軸組
  6
CONTINUOUS
 62
    3
 10
805.02987
 20
1295.2016
 11
808.57355
 21
1292.3363
  0
LINE
  8
_0-3_軸組
  6
CONTINUOUS
 62
    3
 10
808.57355
 20
1292.3363
 11
811.7973
 21
1289.1447
  0
LINE
  8
_0-3_軸組
  6
CONTINUOUS
 62
    3
 10
811.7973
 20
1289.1447
 11
814.74267
 21
1285.6738
  0
LINE
  8
_0-3_軸組
  6
CONTINUOUS
 62
    3
 10
814.74267
 20
1285.6738
 11
817.48287
 21
1282.0007
  0
LINE
  8
_0-3_軸組
  6
CONTINUOUS
 62
    3
 10
817.48287
 20
1282.0007
 11
820.09554
 21
1278.2027
  0
LINE
  8
_0-3_軸組
  6
CONTINUOUS
 62
    3
 10
820.09554
 20
1278.2027
 11
821.61388
 21
1275.9344
  0
LINE
  8
_0-3_軸組
  6
CONTINUOUS
 62
    3
 10
820.09554
 20
1278.2027
 11
822.13855
 21
1273.9723
  0
LINE
  8
_0-3_軸組
  6
CONTINUOUS
 62
    3
 10
822.13855
 20
1273.9723
 11
824.07259
 21
1269.723
  0
LINE
  8
_0-3_軸組
  6
CONTINUOUS
 62
    3
 10
824.07259
 20
1269.723
 11
825.79344
 21
1265.4441
  0
LINE
  8
_0-3_軸組
  6
CONTINUOUS
 62
    3
 10
825.79344
 20
1265.4441
 11
827.19122
 21
1261.1118
  0
LINE
  8
_0-3_軸組
  6
CONTINUOUS
 62
    3
 10
827.19122
 20
1261.1118
 11
828.15936
 21
1256.7147
  0
LINE
  8
_0-3_軸組
  6
CONTINUOUS
 62
    3
 10
828.15936
 20
1256.7147
 11
828.5948
 21
1252.2347
  0
LINE
  8
_0-3_軸組
  6
CONTINUOUS
 62
    3
 10
828.5948
 20
1252.2347
 11
828.46994
 21
1247.691
  0
LINE
  8
_0-3_軸組
  6
CONTINUOUS
 62
    3
 10
828.46994
 20
1247.691
 11
827.8608
 21
1243.1269
  0
LINE
  8
_0-3_軸組
  6
CONTINUOUS
 62
    3
 10
827.8608
 20
1243.1269
 11
826.8459
 21
1238.5955
  0
LINE
  8
_0-3_軸組
  6
CONTINUOUS
 62
    3
 10
826.8459
 20
1238.5955
 11
825.49502
 21
1234.149
  0
LINE
  8
_0-3_軸組
  6
CONTINUOUS
 62
    3
 10
825.49502
 20
1234.149
 11
823.83074
 21
1229.8483
  0
LINE
  8
_0-3_軸組
  6
CONTINUOUS
 62
    3
 10
823.83074
 20
1229.8483
 11
821.80777
 21
1225.7545
  0
LINE
  8
_0-3_軸組
  6
CONTINUOUS
 62
    3
 10
821.80777
 20
1225.7545
 11
819.37742
 21
1221.9308
  0
LINE
  8
_0-3_軸組
  6
CONTINUOUS
 62
    3
 10
819.37742
 20
1221.9308
 11
816.54547
 21
1218.4002
  0
LINE
  8
_0-3_軸組
  6
CONTINUOUS
 62
    3
 10
816.54547
 20
1218.4002
 11
813.39759
 21
1215.0967
  0
LINE
  8
_0-3_軸組
  6
CONTINUOUS
 62
    3
 10
813.39759
 20
1215.0967
 11
810.03266
 21
1211.9521
  0
LINE
  8
_0-3_軸組
  6
CONTINUOUS
 62
    3
 10
810.03266
 20
1211.9521
 11
806.54494
 21
1208.8988
  0
LINE
  8
_0-3_軸組
  6
CONTINUOUS
 62
    3
 10
806.54494
 20
1208.8988
 11
805.60487
 21
1208.0908
  0
LINE
  8
_0-3_軸組
  6
CONTINUOUS
 62
    3
 10
806.54494
 20
1208.8988
 11
802.54221
 21
1206.6549
  0
LINE
  8
_0-3_軸組
  6
CONTINUOUS
 62
    3
 10
802.54221
 20
1206.6549
 11
798.52418
 21
1204.4521
  0
LINE
  8
_0-3_軸組
  6
CONTINUOUS
 62
    3
 10
798.52418
 20
1204.4521
 11
794.4729
 21
1202.3297
  0
LINE
  8
_0-3_軸組
  6
CONTINUOUS
 62
    3
 10
794.4729
 20
1202.3297
 11
790.36594
 21
1200.3276
  0
LINE
  8
_0-3_軸組
  6
CONTINUOUS
 62
    3
 10
790.36594
 20
1200.3276
 11
786.19336
 21
1198.4854
  0
LINE
  8
_0-3_軸組
  6
CONTINUOUS
 62
    3
 10
786.19336
 20
1198.4854
 11
781.93156
 21
1196.8427
  0
LINE
  8
_0-3_軸組
  6
CONTINUOUS
 62
    3
 10
781.93156
 20
1196.8427
 11
777.57993
 21
1195.4228
  0
LINE
  8
_0-3_軸組
  6
CONTINUOUS
 62
    3
 10
777.57993
 20
1195.4228
 11
773.1563
 21
1194.2313
  0
LINE
  8
_0-3_軸組
  6
CONTINUOUS
 62
    3
 10
773.1563
 20
1194.2313
 11
768.67745
 21
1193.2659
  0
LINE
  8
_0-3_軸組
  6
CONTINUOUS
 62
    3
 10
768.67745
 20
1193.2659
 11
764.15746
 21
1192.5276
  0
LINE
  8
_0-3_軸組
  6
CONTINUOUS
 62
    3
 10
764.15746
 20
1192.5276
 11
759.61781
 21
1192.011
  0
LINE
  8
_0-3_軸組
  6
CONTINUOUS
 62
    3
 10
759.61781
 20
1192.011
 11
755.06316
 21
1191.6767
  0
LINE
  8
_0-3_軸組
  6
CONTINUOUS
 62
    3
 10
755.06316
 20
1191.6767
 11
750.49678
 21
1191.4816
  0
LINE
  8
_0-3_軸組
  6
CONTINUOUS
 62
    3
 10
750.49678
 20
1191.4816
 11
745.92001
 21
1191.3757
  0
LINE
  8
_0-3_軸組
  6
CONTINUOUS
 62
    3
 10
745.92001
 20
1191.3757
 11
741.95313
 21
1191.32
  0
LINE
  8
_0-3_軸組
  6
CONTINUOUS
 62
    3
 10
690.81622
 20
1190.8996
 11
695.09644
 21
1189.1672
  0
LINE
  8
_0-3_軸組
  6
CONTINUOUS
 62
    3
 10
695.09644
 20
1189.1672
 11
699.40182
 21
1187.4546
  0
LINE
  8
_0-3_軸組
  6
CONTINUOUS
 62
    3
 10
699.40182
 20
1187.4546
 11
703.7475
 21
1185.8762
  0
LINE
  8
_0-3_軸組
  6
CONTINUOUS
 62
    3
 10
703.7475
 20
1185.8762
 11
708.13483
 21
1184.5604
  0
LINE
  8
_0-3_軸組
  6
CONTINUOUS
 62
    3
 10
708.13483
 20
1184.5604
 11
712.57569
 21
1183.6324
  0
LINE
  8
_0-3_軸組
  6
CONTINUOUS
 62
    3
 10
712.57569
 20
1183.6324
 11
717.07986
 21
1183.2167
  0
LINE
  8
_0-3_軸組
  6
CONTINUOUS
 62
    3
 10
717.07986
 20
1183.2167
 11
721.63666
 21
1183.2817
  0
LINE
  8
_0-3_軸組
  6
CONTINUOUS
 62
    3
 10
721.63666
 20
1183.2817
 11
726.22657
 21
1183.6203
  0
LINE
  8
_0-3_軸組
  6
CONTINUOUS
 62
    3
 10
726.22657
 20
1183.6203
 11
727.08885
 21
1183.6965
  0
LINE
  8
_0-3_軸組
  6
CONTINUOUS
 62
    3
 10
726.22657
 20
1183.6203
 11
729.97952
 21
1184.4572
  0
LINE
  8
_0-3_軸組
  6
CONTINUOUS
 62
    3
 10
729.97952
 20
1184.4572
 11
733.58192
 21
1185.6154
  0
LINE
  8
_0-3_軸組
  6
CONTINUOUS
 62
    3
 10
733.58192
 20
1185.6154
 11
736.88687
 21
1187.4187
  0
LINE
  8
_0-3_軸組
  6
CONTINUOUS
 62
    3
 10
736.88687
 20
1187.4187
 11
739.70472
 21
1190.0061
  0
LINE
  8
_0-3_軸組
  6
CONTINUOUS
 62
    3
 10
739.70472
 20
1190.0061
 11
741.7939
 21
1193.2492
  0
LINE
  8
_0-3_軸組
  6
CONTINUOUS
 62
    3
 10
741.7939
 20
1193.2492
 11
742.93165
 21
1196.9577
  0
LINE
  8
_0-3_軸組
  6
CONTINUOUS
 62
    3
 10
742.93165
 20
1196.9577
 11
743.01568
 21
1200.7929
  0
LINE
  8
_0-3_軸組
  6
CONTINUOUS
 62
    3
 10
743.01568
 20
1200.7929
 11
742.00086
 21
1204.3863
  0
LINE
  8
_0-3_軸組
  6
CONTINUOUS
 62
    3
 10
742.00086
 20
1204.3863
 11
740.10408
 21
1207.6551
  0
LINE
  8
_0-3_軸組
  6
CONTINUOUS
 62
    3
 10
740.10408
 20
1207.6551
 11
737.76125
 21
1210.7582
  0
LINE
  8
_0-3_軸組
  6
CONTINUOUS
 62
    3
 10
649.82289
 20
1248.2919
 11
654.43567
 21
1247.5067
  0
LINE
  8
_0-3_軸組
  6
CONTINUOUS
 62
    3
 10
654.43567
 20
1247.5067
 11
659.03315
 21
1246.8541
  0
LINE
  8
_0-3_軸組
  6
CONTINUOUS
 62
    3
 10
659.03315
 20
1246.8541
 11
663.597
 21
1246.4664
  0
LINE
  8
_0-3_軸組
  6
CONTINUOUS
 62
    3
 10
663.597
 20
1246.4664
 11
668.11157
 21
1246.4733
  0
LINE
  8
_0-3_軸組
  6
CONTINUOUS
 62
    3
 10
668.11157
 20
1246.4733
 11
672.55984
 21
1247.0045
  0
LINE
  8
_0-3_軸組
  6
CONTINUOUS
 62
    3
 10
672.55984
 20
1247.0045
 11
676.94287
 21
1248.0835
  0
LINE
  8
_0-3_軸組
  6
CONTINUOUS
 62
    3
 10
676.94287
 20
1248.0835
 11
681.26992
 21
1249.5644
  0
LINE
  8
_0-3_軸組
  6
CONTINUOUS
 62
    3
 10
681.26992
 20
1249.5644
 11
685.56201
 21
1251.3012
  0
LINE
  8
_0-3_軸組
  6
CONTINUOUS
 62
    3
 10
685.56201
 20
1251.3012
 11
689.82738
 21
1253.1363
  0
LINE
  8
_0-3_軸組
  6
CONTINUOUS
 62
    3
 10
689.82738
 20
1253.1363
 11
694.088
 21
1254.9381
  0
LINE
  8
_0-3_軸組
  6
CONTINUOUS
 62
    3
 10
694.088
 20
1254.9381
 11
698.34423
 21
1256.6724
  0
LINE
  8
_0-3_軸組
  6
CONTINUOUS
 62
    3
 10
698.34423
 20
1256.6724
 11
702.60025
 21
1258.355
  0
LINE
  8
_0-3_軸組
  6
CONTINUOUS
 62
    3
 10
702.60025
 20
1258.355
 11
706.85151
 21
1259.9958
  0
LINE
  8
_0-3_軸組
  6
CONTINUOUS
 62
    3
 10
706.85151
 20
1259.9958
 11
711.10263
 21
1261.6063
  0
LINE
  8
_0-3_軸組
  6
CONTINUOUS
 62
    3
 10
711.10263
 20
1261.6063
 11
715.35493
 21
1263.2017
  0
LINE
  8
_0-3_軸組
  6
CONTINUOUS
 62
    3
 10
715.35493
 20
1263.2017
 11
715.29555
 21
1259.2854
  0
LINE
  8
_0-3_軸組
  6
CONTINUOUS
 62
    3
 10
715.29555
 20
1259.2854
 11
715.2392
 21
1255.3737
  0
LINE
  8
_0-3_軸組
  6
CONTINUOUS
 62
    3
 10
715.2392
 20
1255.3737
 11
715.18286
 21
1251.4572
  0
LINE
  8
_0-3_軸組
  6
CONTINUOUS
 62
    3
 10
715.18286
 20
1251.4572
 11
715.12385
 21
1247.5446
  0
LINE
  8
_0-3_軸組
  6
CONTINUOUS
 62
    3
 10
715.12385
 20
1247.5446
 11
715.06802
 21
1243.6324
  0
LINE
  8
_0-3_軸組
  6
CONTINUOUS
 62
    3
 10
715.06802
 20
1243.6324
 11
715.01131
 21
1239.7158
  0
LINE
  8
_0-3_軸組
  6
CONTINUOUS
 62
    3
 10
715.01131
 20
1239.7158
 11
714.95237
 21
1235.8041
  0
LINE
  8
_0-3_軸組
  6
CONTINUOUS
 62
    3
 10
714.95237
 20
1235.8041
 11
714.89618
 21
1231.8879
  0
LINE
  8
_0-3_軸組
  6
CONTINUOUS
 62
    3
 10
714.89618
 20
1231.8879
 11
714.83791
 21
1227.9748
  0
LINE
  8
_0-3_軸組
  6
CONTINUOUS
 62
    3
 10
714.83791
 20
1227.9748
 11
714.78097
 21
1224.0595
  0
LINE
  8
_0-3_軸組
  6
CONTINUOUS
 62
    3
 10
737.76125
 20
1210.7582
 11
736.82556
 21
1211.583
  0
LINE
  8
_0-3_軸組
  6
CONTINUOUS
 62
    3
 10
736.82556
 20
1211.583
 11
735.48047
 21
1212.5807
  0
LINE
  8
_0-3_軸組
  6
CONTINUOUS
 62
    3
 10
735.48047
 20
1212.5807
 11
733.77967
 21
1213.722
  0
LINE
  8
_0-3_軸組
  6
CONTINUOUS
 62
    3
 10
733.77967
 20
1213.722
 11
731.76858
 21
1214.9793
  0
LINE
  8
_0-3_軸組
  6
CONTINUOUS
 62
    3
 10
731.76858
 20
1214.9793
 11
729.4763
 21
1216.3277
  0
LINE
  8
_0-3_軸組
  6
CONTINUOUS
 62
    3
 10
729.4763
 20
1216.3277
 11
726.94335
 21
1217.7495
  0
LINE
  8
_0-3_軸組
  6
CONTINUOUS
 62
    3
 10
726.94335
 20
1217.7495
 11
724.1938
 21
1219.2276
  0
LINE
  8
_0-3_軸組
  6
CONTINUOUS
 62
    3
 10
724.1938
 20
1219.2276
 11
721.24872
 21
1220.7456
  0
LINE
  8
_0-3_軸組
  6
CONTINUOUS
 62
    3
 10
721.24872
 20
1220.7456
 11
718.13455
 21
1222.2923
  0
LINE
  8
_0-3_軸組
  6
CONTINUOUS
 62
    3
 10
718.13455
 20
1222.2923
 11
714.86819
 21
1223.8555
  0
LINE
  8
_0-3_軸組
  6
CONTINUOUS
 62
    3
 10
714.86819
 20
1223.8555
 11
711.46198
 21
1225.4251
  0
LINE
  8
_0-3_軸組
  6
CONTINUOUS
 62
    3
 10
711.46198
 20
1225.4251
 11
707.93708
 21
1226.9968
  0
LINE
  8
_0-3_軸組
  6
CONTINUOUS
 62
    3
 10
707.93708
 20
1226.9968
 11
704.30335
 21
1228.5604
  0
LINE
  8
_0-3_軸組
  6
CONTINUOUS
 62
    3
 10
704.30335
 20
1228.5604
 11
700.57899
 21
1230.1115
  0
LINE
  8
_0-3_軸組
  6
CONTINUOUS
 62
    3
 10
700.57899
 20
1230.1115
 11
696.77371
 21
1231.6465
  0
LINE
  8
_0-3_軸組
  6
CONTINUOUS
 62
    3
 10
696.77371
 20
1231.6465
 11
692.90311
 21
1233.1578
  0
LINE
  8
_0-3_軸組
  6
CONTINUOUS
 62
    3
 10
692.90311
 20
1233.1578
 11
688.98099
 21
1234.6441
  0
LINE
  8
_0-3_軸組
  6
CONTINUOUS
 62
    3
 10
688.98099
 20
1234.6441
 11
685.02324
 21
1236.1026
  0
LINE
  8
_0-3_軸組
  6
CONTINUOUS
 62
    3
 10
685.02324
 20
1236.1026
 11
681.04663
 21
1237.5315
  0
LINE
  8
_0-3_軸組
  6
CONTINUOUS
 62
    3
 10
681.04663
 20
1237.5315
 11
677.06572
 21
1238.9224
  0
LINE
  8
_0-3_軸組
  6
CONTINUOUS
 62
    3
 10
677.06572
 20
1238.9224
 11
673.09669
 21
1240.2755
  0
LINE
  8
_0-3_軸組
  6
CONTINUOUS
 62
    3
 10
673.09669
 20
1240.2755
 11
669.1592
 21
1241.5904
  0
LINE
  8
_0-3_軸組
  6
CONTINUOUS
 62
    3
 10
669.1592
 20
1241.5904
 11
665.27472
 21
1242.8585
  0
LINE
  8
_0-3_軸組
  6
CONTINUOUS
 62
    3
 10
665.27472
 20
1242.8585
 11
661.45771
 21
1244.0806
  0
LINE
  8
_0-3_軸組
  6
CONTINUOUS
 62
    3
 10
661.45771
 20
1244.0806
 11
657.7332
 21
1245.2512
  0
LINE
  8
_0-3_軸組
  6
CONTINUOUS
 62
    3
 10
657.7332
 20
1245.2512
 11
654.12048
 21
1246.365
  0
LINE
  8
_0-3_軸組
  6
CONTINUOUS
 62
    3
 10
654.12048
 20
1246.365
 11
650.64004
 21
1247.4173
  0
LINE
  8
_0-3_軸組
  6
CONTINUOUS
 62
    3
 10
650.64004
 20
1247.4173
 11
647.31022
 21
1248.4058
  0
LINE
  8
_0-3_軸組
  6
CONTINUOUS
 62
    3
 10
647.31022
 20
1248.4058
 11
644.15232
 21
1249.3217
  0
LINE
  8
_0-3_軸組
  6
CONTINUOUS
 62
    3
 10
715.35493
 20
1263.2017
 11
715.40912
 21
1263.2203
  0
LINE
  8
_0-3_軸組
  6
CONTINUOUS
 62
    3
 10
653.11864
 20
1187.0755
 11
653.11864
 21
1178.0883
  0
LINE
  8
_0-3_軸組
  6
CONTINUOUS
 62
    3
 10
653.11864
 20
1178.0883
 11
680.42917
 21
1178.0883
  0
LINE
  8
_0-3_軸組
  6
CONTINUOUS
 62
    3
 10
680.42917
 20
1187.0755
 11
680.42917
 21
1178.0883
  0
LINE
  8
_0-3_軸組
  6
CONTINUOUS
 62
    3
 10
653.11864
 20
1187.0755
 11
680.42917
 21
1187.0755
  0
LINE
  8
_0-3_軸組
  6
CONTINUOUS
 62
    3
 10
640.46462
 20
1273.7205
 11
640.46462
 21
1244.2335
  0
LINE
  8
_0-3_軸組
  6
CONTINUOUS
 62
    3
 10
644.76235
 20
1264.8795
 11
644.31629
 21
1264.6271
  0
LINE
  8
_0-3_軸組
  6
CONTINUOUS
 62
    3
 10
644.31629
 20
1264.6271
 11
643.85947
 21
1264.362
  0
LINE
  8
_0-3_軸組
  6
CONTINUOUS
 62
    3
 10
643.85947
 20
1264.362
 11
643.39738
 21
1264.0845
  0
LINE
  8
_0-3_軸組
  6
CONTINUOUS
 62
    3
 10
643.39738
 20
1264.0845
 11
642.92526
 21
1263.7936
  0
LINE
  8
_0-3_軸組
  6
CONTINUOUS
 62
    3
 10
642.92526
 20
1263.7936
 11
642.44372
 21
1263.4933
  0
LINE
  8
_0-3_軸組
  6
CONTINUOUS
 62
    3
 10
642.44372
 20
1263.4933
 11
641.95401
 21
1263.1775
  0
LINE
  8
_0-3_軸組
  6
CONTINUOUS
 62
    3
 10
641.95401
 20
1263.1775
 11
641.45599
 21
1262.8513
  0
LINE
  8
_0-3_軸組
  6
CONTINUOUS
 62
    3
 10
641.45599
 20
1262.8513
 11
640.94809
 21
1262.5106
  0
LINE
  8
_0-3_軸組
  6
CONTINUOUS
 62
    3
 10
640.94809
 20
1262.5106
 11
640.43337
 21
1262.16
  0
LINE
  8
_0-3_軸組
  6
CONTINUOUS
 62
    3
 10
643.23718
 20
1254.2079
 11
642.90633
 21
1254.1444
  0
LINE
  8
_0-3_軸組
  6
CONTINUOUS
 62
    3
 10
642.90633
 20
1254.1444
 11
642.58008
 21
1254.0854
  0
LINE
  8
_0-3_軸組
  6
CONTINUOUS
 62
    3
 10
642.58008
 20
1254.0854
 11
642.25962
 21
1254.0271
  0
LINE
  8
_0-3_軸組
  6
CONTINUOUS
 62
    3
 10
642.25962
 20
1254.0271
 11
641.94243
 21
1253.9698
  0
LINE
  8
_0-3_軸組
  6
CONTINUOUS
 62
    3
 10
641.94243
 20
1253.9698
 11
641.63199
 21
1253.9155
  0
LINE
  8
_0-3_軸組
  6
CONTINUOUS
 62
    3
 10
641.63199
 20
1253.9155
 11
641.3246
 21
1253.8645
  0
LINE
  8
_0-3_軸組
  6
CONTINUOUS
 62
    3
 10
641.3246
 20
1253.8645
 11
641.02277
 21
1253.8169
  0
LINE
  8
_0-3_軸組
  6
CONTINUOUS
 62
    3
 10
641.02277
 20
1253.8169
 11
640.72466
 21
1253.7704
  0
LINE
  8
_0-3_軸組
  6
CONTINUOUS
 62
    3
 10
640.72466
 20
1253.7704
 11
640.43337
 21
1253.7251
  0
LINE
  8
_0-3_軸組
  6
CONTINUOUS
 62
    3
 10
649.82289
 20
1248.2919
 11
648.5657
 21
1248.5587
  0
LINE
  8
_0-3_軸組
  6
CONTINUOUS
 62
    3
 10
648.5657
 20
1248.5587
 11
647.35928
 21
1248.8163
  0
LINE
  8
_0-3_軸組
  6
CONTINUOUS
 62
    3
 10
647.35928
 20
1248.8163
 11
646.20824
 21
1249.0656
  0
LINE
  8
_0-3_軸組
  6
CONTINUOUS
 62
    3
 10
646.20824
 20
1249.0656
 11
645.11095
 21
1249.3074
  0
LINE
  8
_0-3_軸組
  6
CONTINUOUS
 62
    3
 10
645.11095
 20
1249.3074
 11
644.06687
 21
1249.5399
  0
LINE
  8
_0-3_軸組
  6
CONTINUOUS
 62
    3
 10
644.06687
 20
1249.5399
 11
643.07811
 21
1249.7659
  0
LINE
  8
_0-3_軸組
  6
CONTINUOUS
 62
    3
 10
643.07811
 20
1249.7659
 11
642.14219
 21
1249.9823
  0
LINE
  8
_0-3_軸組
  6
CONTINUOUS
 62
    3
 10
642.14219
 20
1249.9823
 11
641.26083
 21
1250.1914
  0
LINE
  8
_0-3_軸組
  6
CONTINUOUS
 62
    3
 10
641.26083
 20
1250.1914
 11
640.43337
 21
1250.3905
  0
LINE
  8
_0-3_軸組
  6
CONTINUOUS
 62
    3
 10
644.15232
 20
1249.3217
 11
643.66023
 21
1249.4555
  0
LINE
  8
_0-3_軸組
  6
CONTINUOUS
 62
    3
 10
643.66023
 20
1249.4555
 11
643.18827
 21
1249.5845
  0
LINE
  8
_0-3_軸組
  6
CONTINUOUS
 62
    3
 10
643.18827
 20
1249.5845
 11
642.73664
 21
1249.7116
  0
LINE
  8
_0-3_軸組
  6
CONTINUOUS
 62
    3
 10
642.73664
 20
1249.7116
 11
642.30617
 21
1249.8339
  0
LINE
  8
_0-3_軸組
  6
CONTINUOUS
 62
    3
 10
642.30617
 20
1249.8339
 11
641.89774
 21
1249.9516
  0
LINE
  8
_0-3_軸組
  6
CONTINUOUS
 62
    3
 10
641.89774
 20
1249.9516
 11
641.50765
 21
1250.0637
  0
LINE
  8
_0-3_軸組
  6
CONTINUOUS
 62
    3
 10
641.50765
 20
1250.0637
 11
641.1388
 21
1250.1736
  0
LINE
  8
_0-3_軸組
  6
CONTINUOUS
 62
    3
 10
641.1388
 20
1250.1736
 11
640.79154
 21
1250.2803
  0
LINE
  8
_0-3_軸組
  6
CONTINUOUS
 62
    3
 10
640.79154
 20
1250.2803
 11
640.46462
 21
1250.3842
  0
LINE
  8
_0-3_軸組
  6
CONTINUOUS
 62
    3
 10
636.43628
 20
1277.751
 11
630.00074
 21
1277.751
  0
LINE
  8
_0-3_軸組
  6
CONTINUOUS
 62
    3
 10
636.43628
 20
1215.838
 11
630.00074
 21
1215.838
  0
LINE
  8
_0-3_軸組
  6
CONTINUOUS
 62
    3
 10
633.36241
 20
1236.83
 11
635.69641
 21
1234.1951
  0
LINE
  8
_0-3_軸組
  6
CONTINUOUS
 62
    3
 10
635.69641
 20
1234.1951
 11
638.26201
 21
1231.4579
  0
LINE
  8
_0-3_軸組
  6
CONTINUOUS
 62
    3
 10
638.26201
 20
1231.4579
 11
641.02121
 21
1228.6502
  0
LINE
  8
_0-3_軸組
  6
CONTINUOUS
 62
    3
 10
641.02121
 20
1228.6502
 11
643.93912
 21
1225.8012
  0
LINE
  8
_0-3_軸組
  6
CONTINUOUS
 62
    3
 10
643.93912
 20
1225.8012
 11
646.98196
 21
1222.9382
  0
LINE
  8
_0-3_軸組
  6
CONTINUOUS
 62
    3
 10
646.98196
 20
1222.9382
 11
650.11923
 21
1220.0862
  0
LINE
  8
_0-3_軸組
  6
CONTINUOUS
 62
    3
 10
650.11923
 20
1220.0862
 11
653.32152
 21
1217.2677
  0
LINE
  8
_0-3_軸組
  6
CONTINUOUS
 62
    3
 10
653.32152
 20
1217.2677
 11
656.56234
 21
1214.5032
  0
LINE
  8
_0-3_軸組
  6
CONTINUOUS
 62
    3
 10
656.56234
 20
1214.5032
 11
659.81674
 21
1211.812
  0
LINE
  8
_0-3_軸組
  6
CONTINUOUS
 62
    3
 10
659.81674
 20
1211.812
 11
663.06246
 21
1209.2103
  0
LINE
  8
_0-3_軸組
  6
CONTINUOUS
 62
    3
 10
663.06246
 20
1209.2103
 11
666.27908
 21
1206.7128
  0
LINE
  8
_0-3_軸組
  6
CONTINUOUS
 62
    3
 10
666.27908
 20
1206.7128
 11
669.44819
 21
1204.3309
  0
LINE
  8
_0-3_軸組
  6
CONTINUOUS
 62
    3
 10
669.44819
 20
1204.3309
 11
672.55368
 21
1202.0758
  0
LINE
  8
_0-3_軸組
  6
CONTINUOUS
 62
    3
 10
672.55368
 20
1202.0758
 11
675.58183
 21
1199.9544
  0
LINE
  8
_0-3_軸組
  6
CONTINUOUS
 62
    3
 10
675.58183
 20
1199.9544
 11
678.52096
 21
1197.9728
  0
LINE
  8
_0-3_軸組
  6
CONTINUOUS
 62
    3
 10
678.52096
 20
1197.9728
 11
681.36078
 21
1196.1352
  0
LINE
  8
_0-3_軸組
  6
CONTINUOUS
 62
    3
 10
681.36078
 20
1196.1352
 11
684.09445
 21
1194.4424
  0
LINE
  8
_0-3_軸組
  6
CONTINUOUS
 62
    3
 10
684.09445
 20
1194.4424
 11
686.71617
 21
1192.8945
  0
LINE
  8
_0-3_軸組
  6
CONTINUOUS
 62
    3
 10
686.71617
 20
1192.8945
 11
689.22261
 21
1191.4882
  0
LINE
  8
_0-3_軸組
  6
CONTINUOUS
 62
    3
 10
689.22261
 20
1191.4882
 11
689.40723
 21
1191.4074
  0
LINE
  8
_0-3_軸組
  6
CONTINUOUS
 62
    3
 10
689.40723
 20
1191.4074
 11
689.58984
 21
1191.3307
  0
LINE
  8
_0-3_軸組
  6
CONTINUOUS
 62
    3
 10
689.58984
 20
1191.3307
 11
689.77082
 21
1191.2575
  0
LINE
  8
_0-3_軸組
  6
CONTINUOUS
 62
    3
 10
689.77082
 20
1191.2575
 11
689.94972
 21
1191.1885
  0
LINE
  8
_0-3_軸組
  6
CONTINUOUS
 62
    3
 10
689.94972
 20
1191.1885
 11
690.12661
 21
1191.1232
  0
LINE
  8
_0-3_軸組
  6
CONTINUOUS
 62
    3
 10
690.12661
 20
1191.1232
 11
690.30172
 21
1191.0615
  0
LINE
  8
_0-3_軸組
  6
CONTINUOUS
 62
    3
 10
690.30172
 20
1191.0615
 11
690.47535
 21
1191.0034
  0
LINE
  8
_0-3_軸組
  6
CONTINUOUS
 62
    3
 10
690.47535
 20
1191.0034
 11
690.64675
 21
1190.9501
  0
LINE
  8
_0-3_軸組
  6
CONTINUOUS
 62
    3
 10
690.64675
 20
1190.9501
 11
690.81622
 21
1190.8996
  0
LINE
  8
_0-3_軸組
  6
CONTINUOUS
 62
    3
 10
633.36241
 20
1236.83
 11
634.74238
 21
1237.5154
  0
LINE
  8
_0-3_軸組
  6
CONTINUOUS
 62
    3
 10
634.74238
 20
1237.5154
 11
635.97433
 21
1238.2348
  0
LINE
  8
_0-3_軸組
  6
CONTINUOUS
 62
    3
 10
635.97433
 20
1238.2348
 11
637.05879
 21
1238.9889
  0
LINE
  8
_0-3_軸組
  6
CONTINUOUS
 62
    3
 10
637.05879
 20
1238.9889
 11
637.99567
 21
1239.7771
  0
LINE
  8
_0-3_軸組
  6
CONTINUOUS
 62
    3
 10
637.99567
 20
1239.7771
 11
638.78475
 21
1240.6002
  0
LINE
  8
_0-3_軸組
  6
CONTINUOUS
 62
    3
 10
638.78475
 20
1240.6002
 11
639.42634
 21
1241.457
  0
LINE
  8
_0-3_軸組
  6
CONTINUOUS
 62
    3
 10
639.42634
 20
1241.457
 11
639.92006
 21
1242.3483
  0
LINE
  8
_0-3_軸組
  6
CONTINUOUS
 62
    3
 10
639.92006
 20
1242.3483
 11
640.26627
 21
1243.2736
  0
LINE
  8
_0-3_軸組
  6
CONTINUOUS
 62
    3
 10
640.26627
 20
1243.2736
 11
640.46462
 21
1244.2335
  0
LINE
  8
_0-3_軸組
  6
CONTINUOUS
 62
    3
 10
640.46581
 20
1219.8683
 11
640.46581
 21
1229.2154
  0
LINE
  8
_0-3_軸組
  6
CONTINUOUS
 62
    3
 10
692.79844
 20
1254.649
 11
684.86342
 21
1272.1382
  0
LINE
  8
_0-3_軸組
  6
CONTINUOUS
 62
    3
 10
662.24843
 20
1159.652
 11
630.00074
 21
1159.652
  0
LINE
  8
_0-3_軸組
  6
CONTINUOUS
 62
    3
 10
667.63916
 20
1165.0425
 11
667.63916
 21
1178.0883
  0
LINE
  8
_0-3_軸組
  6
CONTINUOUS
 62
    3
 10
659.55329
 20
1154.8048
 11
630.00074
 21
1154.8048
  0
LINE
  8
_0-3_軸組
  6
CONTINUOUS
 62
    3
 10
662.24843
 20
1157.5004
 11
662.24843
 21
1159.652
  0
LINE
  8
_0-3_軸組
  6
CONTINUOUS
 62
    3
 10
667.63916
 20
1204.425
 11
667.63916
 21
1187.0755
  0
LINE
  8
_0-3_軸組
  6
CONTINUOUS
 62
    3
 10
660.98419
 20
1211.08
 11
630.00074
 21
1211.08
  0
LINE
  8
_0-2_躯体
  6
CONTINUOUS
 62
    3
 10
837.50115
 20
1315.3299
 11
837.50115
 21
1293.0801
  0
LINE
  8
_0-2_躯体
  6
CONTINUOUS
 62
    3
 10
630
 20
1328.3297
 11
837.50115
 21
1328.3297
  0
LINE
  8
_0-2_躯体
  6
CONTINUOUS
 62
    3
 10
630
 20
1315.3299
 11
837.50219
 21
1315.3299
  0
LINE
  8
_0-2_躯体
  6
CONTINUOUS
 62
    3
 10
837.50011
 20
1276.5789
 11
955.00112
 21
1276.5789
  0
LINE
  8
_0-2_躯体
  6
CONTINUOUS
 62
    3
 10
837.50011
 20
1263.5791
 11
955.00112
 21
1263.5791
  0
LINE
  8
_0-2_躯体
  6
CONTINUOUS
 62
    3
 10
837.50011
 20
1241.3295
 11
955.00112
 21
1241.3295
  0
LINE
  8
_0-2_躯体
  6
CONTINUOUS
 62
    3
 10
837.50011
 20
1228.3299
 11
955.00112
 21
1228.3299
  0
LINE
  8
_0-2_躯体
  6
CONTINUOUS
 62
    3
 10
304.99991
 20
1228.3299
 11
630
 21
1228.3299
  0
LINE
  8
_0-2_躯体
  6
CONTINUOUS
 62
    3
 10
304.99991
 20
1241.3295
 11
630
 21
1241.3295
  0
LINE
  8
_0-2_躯体
  6
CONTINUOUS
 62
    3
 10
304.99991
 20
1263.5791
 11
630
 21
1263.5791
  0
LINE
  8
_0-2_躯体
  6
CONTINUOUS
 62
    3
 10
304.99991
 20
1276.5789
 11
630
 21
1276.5789
  0
LINE
  8
_0-2_躯体
  6
CONTINUOUS
 62
    3
 10
818.80376
 20
1280.0806
 11
837.50219
 21
1280.0806
  0
LINE
  8
_0-2_躯体
  6
CONTINUOUS
 62
    3
 10
807.65323
 20
1293.0804
 11
837.50219
 21
1293.0804
  0
LINE
  8
_0-2_躯体
  6
CONTINUOUS
 62
    3
 10
837.50011
 20
1280.0806
 11
837.50011
 21
1149.8291
  0
LINE
  8
_0-2_躯体
  6
CONTINUOUS
 62
    3
 10
304.99991
 20
1388.3299
 11
629.64376
 21
1388.3299
  0
LINE
  8
_0-4_仕上
  6
CONTINUOUS
 62
    3
 10
926.65045
 20
1236.4229
 11
926.65045
 21
1228.0525
  0
LINE
  8
_0-4_仕上
  6
CONTINUOUS
 62
    3
 10
832.58996
 20
1173.991
 11
846.02149
 21
1173.991
  0
LINE
  8
_0-4_仕上
  6
CONTINUOUS
 62
    3
 10
948.04826
 20
1257.2501
 11
959.91542
 21
1257.2501
  0
LINE
  8
_0-4_仕上
  6
CONTINUOUS
 62
    3
 10
840.50116
 20
1315.3299
 11
840.50116
 21
1305.6637
  0
LINE
  8
_0-4_仕上
  6
CONTINUOUS
 62
    3
 10
832.3113
 20
1310.6609
 11
846.25829
 21
1310.6609
  0
LINE
  8
_0-5_建具
  6
CONTINUOUS
 62
    3
 10
837.50115
 20
1415.4448
 11
630
 21
1415.4448
  0
LINE
  8
_0-5_建具
  6
CONTINUOUS
 62
    3
 10
837.50115
 20
1328.3297
 11
837.50115
 21
1415.4448
  0
LINE
  8
_0-2_躯体
  6
CONTINUOUS
 62
    3
 10
837.50115
 20
1388.3299
 11
955.00008
 21
1388.3299
  0
LINE
  8
_0-5_建具
  6
CONTINUOUS
 62
    3
 10
837.50115
 20
1410.4448
 11
630
 21
1410.4448
  0
LINE
  8
_0-5_建具
  6
CONTINUOUS
 62
    3
 10
630
 20
1333.3297
 11
837.50115
 21
1333.3297
  0
LINE
  8
_0-5_建具
  6
CONTINUOUS
 62
    4
 10
837.50115
 20
1407.4448
 11
630
 21
1407.4448
  0
LINE
  8
_0-5_建具
  6
CONTINUOUS
 62
    4
 10
837.50115
 20
1404.4448
 11
630
 21
1404.4448
  0
LINE
  8
_0-5_建具
  6
CONTINUOUS
 62
    4
 10
837.50115
 20
1401.4448
 11
630
 21
1401.4448
  0
LINE
  8
_0-5_建具
  6
CONTINUOUS
 62
    4
 10
837.50115
 20
1398.4448
 11
630
 21
1398.4448
  0
LINE
  8
_0-5_建具
  6
CONTINUOUS
 62
    4
 10
837.50115
 20
1395.4447
 11
630
 21
1395.4447
  0
LINE
  8
_0-5_建具
  6
CONTINUOUS
 62
    4
 10
837.50115
 20
1392.4447
 11
630
 21
1392.4447
  0
LINE
  8
_0-5_建具
  6
CONTINUOUS
 62
    4
 10
837.50115
 20
1389.4447
 11
630
 21
1389.4447
  0
LINE
  8
_0-5_建具
  6
CONTINUOUS
 62
    4
 10
837.50115
 20
1386.4449
 11
630
 21
1386.4449
  0
LINE
  8
_0-5_建具
  6
CONTINUOUS
 62
    4
 10
837.50115
 20
1383.4449
 11
630
 21
1383.4449
  0
LINE
  8
_0-5_建具
  6
CONTINUOUS
 62
    4
 10
837.50115
 20
1380.4448
 11
630
 21
1380.4448
  0
LINE
  8
_0-5_建具
  6
CONTINUOUS
 62
    4
 10
837.50115
 20
1377.4448
 11
630
 21
1377.4448
  0
LINE
  8
_0-5_建具
  6
CONTINUOUS
 62
    4
 10
837.50115
 20
1374.4448
 11
630
 21
1374.4448
  0
LINE
  8
_0-5_建具
  6
CONTINUOUS
 62
    4
 10
837.50115
 20
1371.4448
 11
630
 21
1371.4448
  0
LINE
  8
_0-5_建具
  6
CONTINUOUS
 62
    4
 10
837.50115
 20
1368.4448
 11
630
 21
1368.4448
  0
LINE
  8
_0-5_建具
  6
CONTINUOUS
 62
    4
 10
837.50115
 20
1365.4448
 11
630
 21
1365.4448
  0
LINE
  8
_0-5_建具
  6
CONTINUOUS
 62
    4
 10
837.50115
 20
1362.4448
 11
630
 21
1362.4448
  0
LINE
  8
_0-5_建具
  6
CONTINUOUS
 62
    4
 10
837.50115
 20
1359.4448
 11
630
 21
1359.4448
  0
LINE
  8
_0-5_建具
  6
CONTINUOUS
 62
    4
 10
837.50115
 20
1356.4448
 11
630
 21
1356.4448
  0
LINE
  8
_0-5_建具
  6
CONTINUOUS
 62
    4
 10
837.50115
 20
1353.4448
 11
630
 21
1353.4448
  0
LINE
  8
_0-5_建具
  6
CONTINUOUS
 62
    4
 10
837.50115
 20
1350.4447
 11
630
 21
1350.4447
  0
LINE
  8
_0-5_建具
  6
CONTINUOUS
 62
    4
 10
837.50115
 20
1347.4447
 11
630
 21
1347.4447
  0
LINE
  8
_0-5_建具
  6
CONTINUOUS
 62
    4
 10
837.50115
 20
1344.4447
 11
630
 21
1344.4447
  0
LINE
  8
_0-5_建具
  6
CONTINUOUS
 62
    4
 10
837.50115
 20
1341.4449
 11
630
 21
1341.4449
  0
LINE
  8
_0-5_建具
  6
CONTINUOUS
 62
    4
 10
837.50115
 20
1338.4449
 11
630
 21
1338.4449
  0
LINE
  8
_0-5_建具
  6
CONTINUOUS
 62
    4
 10
837.50115
 20
1335.4448
 11
630
 21
1335.4448
  0
LINE
  8
_0-5_建具
  6
CONTINUOUS
 62
    4
 10
834.50114
 20
1335.4448
 11
834.50114
 21
1410.4448
  0
LINE
  8
_0-5_建具
  6
CONTINUOUS
 62
    4
 10
831.50113
 20
1335.4448
 11
831.50113
 21
1410.4448
  0
LINE
  8
_0-5_建具
  6
CONTINUOUS
 62
    4
 10
828.50112
 20
1335.4448
 11
828.50112
 21
1410.4448
  0
LINE
  8
_0-5_建具
  6
CONTINUOUS
 62
    4
 10
825.50111
 20
1335.4448
 11
825.50111
 21
1410.4448
  0
LINE
  8
_0-5_建具
  6
CONTINUOUS
 62
    4
 10
822.5011
 20
1335.4448
 11
822.5011
 21
1410.4448
  0
LINE
  8
_0-5_建具
  6
CONTINUOUS
 62
    4
 10
819.50109
 20
1335.4448
 11
819.50109
 21
1410.4448
  0
LINE
  8
_0-5_建具
  6
CONTINUOUS
 62
    4
 10
816.50108
 20
1335.4448
 11
816.50108
 21
1410.4448
  0
LINE
  8
_0-5_建具
  6
CONTINUOUS
 62
    4
 10
813.50107
 20
1335.4448
 11
813.50107
 21
1410.4448
  0
LINE
  8
_0-5_建具
  6
CONTINUOUS
 62
    4
 10
810.50106
 20
1335.4448
 11
810.50106
 21
1410.4448
  0
LINE
  8
_0-5_建具
  6
CONTINUOUS
 62
    4
 10
807.50105
 20
1335.4448
 11
807.50105
 21
1410.4448
  0
LINE
  8
_0-5_建具
  6
CONTINUOUS
 62
    4
 10
804.50104
 20
1335.4448
 11
804.50104
 21
1410.4448
  0
LINE
  8
_0-5_建具
  6
CONTINUOUS
 62
    4
 10
801.50118
 20
1335.4448
 11
801.50118
 21
1410.4448
  0
LINE
  8
_0-5_建具
  6
CONTINUOUS
 62
    4
 10
798.50117
 20
1335.4448
 11
798.50117
 21
1410.4448
  0
LINE
  8
_0-5_建具
  6
CONTINUOUS
 62
    4
 10
795.50116
 20
1335.4448
 11
795.50116
 21
1410.4448
  0
LINE
  8
_0-5_建具
  6
CONTINUOUS
 62
    4
 10
792.50115
 20
1335.4448
 11
792.50115
 21
1410.4448
  0
LINE
  8
_0-5_建具
  6
CONTINUOUS
 62
    4
 10
789.50114
 20
1335.4448
 11
789.50114
 21
1410.4448
  0
LINE
  8
_0-5_建具
  6
CONTINUOUS
 62
    4
 10
786.50113
 20
1335.4448
 11
786.50113
 21
1410.4448
  0
LINE
  8
_0-5_建具
  6
CONTINUOUS
 62
    4
 10
783.50112
 20
1335.4448
 11
783.50112
 21
1410.4448
  0
LINE
  8
_0-5_建具
  6
CONTINUOUS
 62
    4
 10
780.50111
 20
1335.4448
 11
780.50111
 21
1410.4448
  0
LINE
  8
_0-5_建具
  6
CONTINUOUS
 62
    4
 10
777.5011
 20
1335.4448
 11
777.5011
 21
1410.4448
  0
LINE
  8
_0-5_建具
  6
CONTINUOUS
 62
    4
 10
774.50109
 20
1335.4448
 11
774.50109
 21
1410.4448
  0
LINE
  8
_0-5_建具
  6
CONTINUOUS
 62
    4
 10
771.50108
 20
1335.4448
 11
771.50108
 21
1410.4448
  0
LINE
  8
_0-5_建具
  6
CONTINUOUS
 62
    4
 10
768.50107
 20
1335.4448
 11
768.50107
 21
1410.4448
  0
LINE
  8
_0-5_建具
  6
CONTINUOUS
 62
    4
 10
765.50106
 20
1335.4448
 11
765.50106
 21
1410.4448
  0
LINE
  8
_0-5_建具
  6
CONTINUOUS
 62
    4
 10
762.50105
 20
1335.4448
 11
762.50105
 21
1410.4448
  0
LINE
  8
_0-5_建具
  6
CONTINUOUS
 62
    4
 10
759.50112
 20
1335.4448
 11
759.50112
 21
1410.4448
  0
LINE
  8
_0-5_建具
  6
CONTINUOUS
 62
    4
 10
756.50111
 20
1335.4448
 11
756.50111
 21
1410.4448
  0
LINE
  8
_0-5_建具
  6
CONTINUOUS
 62
    4
 10
753.5011
 20
1335.4448
 11
753.5011
 21
1410.4448
  0
LINE
  8
_0-5_建具
  6
CONTINUOUS
 62
    4
 10
750.50116
 20
1335.4448
 11
750.50116
 21
1410.4448
  0
LINE
  8
_0-5_建具
  6
CONTINUOUS
 62
    4
 10
747.501
 20
1335.4448
 11
747.501
 21
1410.4448
  0
LINE
  8
_0-5_建具
  6
CONTINUOUS
 62
    4
 10
744.50107
 20
1335.4448
 11
744.50107
 21
1410.4448
  0
LINE
  8
_0-5_建具
  6
CONTINUOUS
 62
    4
 10
741.50106
 20
1335.4448
 11
741.50106
 21
1410.4448
  0
LINE
  8
_0-5_建具
  6
CONTINUOUS
 62
    4
 10
738.50112
 20
1335.4448
 11
738.50112
 21
1410.4448
  0
LINE
  8
_0-5_建具
  6
CONTINUOUS
 62
    4
 10
735.50111
 20
1335.4448
 11
735.50111
 21
1410.4448
  0
LINE
  8
_0-5_建具
  6
CONTINUOUS
 62
    4
 10
732.5011
 20
1335.4448
 11
732.5011
 21
1410.4448
  0
LINE
  8
_0-5_建具
  6
CONTINUOUS
 62
    4
 10
729.50109
 20
1335.4448
 11
729.50109
 21
1410.4448
  0
LINE
  8
_0-5_建具
  6
CONTINUOUS
 62
    4
 10
726.50108
 20
1335.4448
 11
726.50108
 21
1410.4448
  0
LINE
  8
_0-5_建具
  6
CONTINUOUS
 62
    4
 10
723.50107
 20
1335.4448
 11
723.50107
 21
1410.4448
  0
LINE
  8
_0-5_建具
  6
CONTINUOUS
 62
    4
 10
720.50106
 20
1335.4448
 11
720.50106
 21
1410.4448
  0
LINE
  8
_0-5_建具
  6
CONTINUOUS
 62
    4
 10
717.50112
 20
1335.4448
 11
717.50112
 21
1410.4448
  0
LINE
  8
_0-5_建具
  6
CONTINUOUS
 62
    4
 10
714.50112
 20
1335.4448
 11
714.50112
 21
1410.4448
  0
LINE
  8
_0-5_建具
  6
CONTINUOUS
 62
    4
 10
711.50111
 20
1335.4448
 11
711.50111
 21
1410.4448
  0
LINE
  8
_0-5_建具
  6
CONTINUOUS
 62
    4
 10
708.5011
 20
1335.4448
 11
708.5011
 21
1410.4448
  0
LINE
  8
_0-5_建具
  6
CONTINUOUS
 62
    4
 10
705.50116
 20
1335.4448
 11
705.50116
 21
1410.4448
  0
LINE
  8
_0-5_建具
  6
CONTINUOUS
 62
    4
 10
702.501
 20
1335.4448
 11
702.501
 21
1410.4448
  0
LINE
  8
_0-5_建具
  6
CONTINUOUS
 62
    4
 10
699.50107
 20
1335.4448
 11
699.50107
 21
1410.4448
  0
LINE
  8
_0-5_建具
  6
CONTINUOUS
 62
    4
 10
696.50113
 20
1335.4448
 11
696.50113
 21
1410.4448
  0
LINE
  8
_0-5_建具
  6
CONTINUOUS
 62
    4
 10
693.50112
 20
1335.4448
 11
693.50112
 21
1410.4448
  0
LINE
  8
_0-5_建具
  6
CONTINUOUS
 62
    4
 10
690.50111
 20
1335.4448
 11
690.50111
 21
1410.4448
  0
LINE
  8
_0-5_建具
  6
CONTINUOUS
 62
    4
 10
687.5011
 20
1335.4448
 11
687.5011
 21
1410.4448
  0
LINE
  8
_0-5_建具
  6
CONTINUOUS
 62
    4
 10
684.50109
 20
1335.4448
 11
684.50109
 21
1410.4448
  0
LINE
  8
_0-5_建具
  6
CONTINUOUS
 62
    4
 10
681.50108
 20
1335.4448
 11
681.50108
 21
1410.4448
  0
LINE
  8
_0-5_建具
  6
CONTINUOUS
 62
    4
 10
678.50107
 20
1335.4448
 11
678.50107
 21
1410.4448
  0
LINE
  8
_0-5_建具
  6
CONTINUOUS
 62
    4
 10
675.50106
 20
1335.4448
 11
675.50106
 21
1410.4448
  0
LINE
  8
_0-5_建具
  6
CONTINUOUS
 62
    4
 10
672.50112
 20
1335.4448
 11
672.50112
 21
1410.4448
  0
LINE
  8
_0-5_建具
  6
CONTINUOUS
 62
    4
 10
669.50112
 20
1335.4448
 11
669.50112
 21
1410.4448
  0
LINE
  8
_0-5_建具
  6
CONTINUOUS
 62
    4
 10
666.50111
 20
1335.4448
 11
666.50111
 21
1410.4448
  0
LINE
  8
_0-5_建具
  6
CONTINUOUS
 62
    4
 10
663.5011
 20
1335.4448
 11
663.5011
 21
1410.4448
  0
LINE
  8
_0-5_建具
  6
CONTINUOUS
 62
    4
 10
660.50109
 20
1335.4448
 11
660.50109
 21
1410.4448
  0
LINE
  8
_0-5_建具
  6
CONTINUOUS
 62
    4
 10
657.50108
 20
1335.4448
 11
657.50108
 21
1410.4448
  0
LINE
  8
_0-5_建具
  6
CONTINUOUS
 62
    4
 10
654.50114
 20
1335.4448
 11
654.50114
 21
1410.4448
  0
LINE
  8
_0-5_建具
  6
CONTINUOUS
 62
    4
 10
651.50113
 20
1335.4448
 11
651.50113
 21
1410.4448
  0
LINE
  8
_0-5_建具
  6
CONTINUOUS
 62
    4
 10
648.50112
 20
1335.4448
 11
648.50112
 21
1410.4448
  0
LINE
  8
_0-5_建具
  6
CONTINUOUS
 62
    4
 10
645.50111
 20
1335.4448
 11
645.50111
 21
1410.4448
  0
LINE
  8
_0-5_建具
  6
CONTINUOUS
 62
    4
 10
642.5011
 20
1335.4448
 11
642.5011
 21
1410.4448
  0
LINE
  8
_0-5_建具
  6
CONTINUOUS
 62
    4
 10
639.50109
 20
1335.4448
 11
639.50109
 21
1410.4448
  0
LINE
  8
_0-5_建具
  6
CONTINUOUS
 62
    4
 10
636.50108
 20
1335.4448
 11
636.50108
 21
1410.4448
  0
LINE
  8
_0-5_建具
  6
CONTINUOUS
 62
    4
 10
633.50114
 20
1335.4448
 11
633.50114
 21
1410.4448
  0
LINE
  8
_0-5_建具
  6
CONTINUOUS
 62
    4
 10
630.50113
 20
1335.4448
 11
630.50113
 21
1410.4448
  0
LINE
  8
_0-1_基準線
  6
CENTER2
 62
    7
 10
630
 20
1463.3299
 11
630
 21
1078.3297
  0
LINE
  8
_0-2_躯体
  6
CONTINUOUS
 62
    3
 10
969.33412
 20
1385.0217
 11
630
 21
1463.3299
  0
LINE
  8
_0-2_躯体
  6
CONTINUOUS
 62
    3
 10
795.99903
 20
1425.0222
 11
777.20224
 21
1415.4448
  0
LINE
  8
_0-2_躯体
  6
CONTINUOUS
 62
    3
 10
795.99903
 20
1425.0222
 11
630
 21
1425.0222
  0
LINE
  8
_0-4_仕上
  6
CONTINUOUS
 62
    3
 10
911.83509
 20
1234.3297
 11
840.50116
 21
1305.6637
  0
LINE
  8
_0-4_仕上
  6
CONTINUOUS
 62
    3
 10
952.00111
 20
1234.3297
 11
911.83509
 21
1234.3297
  0
LINE
  8
_0-4_仕上
  6
CONTINUOUS
 62
    3
 10
910.59245
 20
1231.3297
 11
837.50115
 21
1304.4211
  0
LINE
  8
_0-2_躯体
  6
CONTINUOUS
 62
    3
 10
840.50012
 20
1228.3299
 11
840.50012
 21
1163.3301
  0
LINE
  8
_0-2_躯体
  6
CONTINUOUS
 62
    3
 10
955.00112
 20
1263.5794
 11
955.00112
 21
1228.3299
  0
LINE
  8
_0-2_躯体
  6
CONTINUOUS
 62
    3
 10
952.00111
 20
1263.5791
 11
952.00111
 21
1231.3297
  0
LINE
  8
_0-2_躯体
  6
CONTINUOUS
 62
    3
 10
952.00111
 20
1231.3297
 11
837.50011
 21
1231.3297
  0
ARC
  8
_0-2_躯体
  6
CONTINUOUS
 62
    3
 10
422.49995
 20
1084.8294
 40
6.4996993
 50
90
 51
270
  0
ARC
  8
_0-2_躯体
  6
CONTINUOUS
 62
    3
 10
422.49995
 20
1143.3292
 40
6.4996993
 50
90
 51
270
  0
ARC
  8
_0-2_躯体
  6
CONTINUOUS
 62
    3
 10
837.50011
 20
1084.8294
 40
6.4996993
 50
270
 51
90
  0
ARC
  8
_0-2_躯体
  6
CONTINUOUS
 62
    3
 10
837.50011
 20
1143.3292
 40
6.4996993
 50
270
 51
90
  0
ARC
  8
_0-2_躯体
  6
CONTINUOUS
 62
    3
 10
304.99991
 20
1270.0792
 40
6.4996993
 50
90
 51
270
  0
ARC
  8
_0-2_躯体
  6
CONTINUOUS
 62
    3
 10
304.99991
 20
1234.8296
 40
6.4996993
 50
90
 51
270
  0
ARC
  8
_0-2_躯体
  6
CONTINUOUS
 62
    3
 10
955.00008
 20
1270.0792
 40
6.4996993
 50
270
 51
90
  0
ARC
  8
_0-2_躯体
  6
CONTINUOUS
 62
    3
 10
955.00008
 20
1234.8296
 40
6.4996993
 50
270
 51
90
  0
ARC
  8
_0-3_軸組
  6
CONTINUOUS
 62
    3
 10
636.43628
 20
1219.8683
 40
4.0294089
 50
270
 51
0
  0
ARC
  8
_0-3_軸組
  6
CONTINUOUS
 62
    3
 10
636.43628
 20
1273.7205
 40
4.0294089
 50
0
 51
90
  0
ARC
  8
_0-3_軸組
  6
CONTINUOUS
 62
    3
 10
662.24843
 20
1165.0425
 40
5.3905494
 50
270
 51
0
  0
ARC
  8
_0-3_軸組
  6
CONTINUOUS
 62
    3
 10
659.55329
 20
1157.5004
 40
2.6952747
 50
270
 51
0
  0
ARC
  8
_0-2_躯体
  6
CONTINUOUS
 62
    3
 10
837.50115
 20
1321.83
 40
6.4996993
 50
270
 51
90
  0
ARC
  8
_0-2_躯体
  6
CONTINUOUS
 62
    3
 10
837.50115
 20
1286.5803
 40
6.4996993
 50
270
 51
90
  0
TEXT
  8
_0-d_文字
 62
    7
 10
152.99987
 20
94.499931
 40
15
 41
1
 50
0.0000354
  1
図
  0
TEXT
  8
_0-d_文字
 62
    7
 10
152.99987
 20
58.49997
 40
15
 41
1
 50
0
  1
番
  0
TEXT
  8
_0-d_文字
 62
    7
 10
393.00026
 20
94.499931
 40
15
 41
1
 50
0.0000354
  1
承
  0
TEXT
  8
_0-d_文字
 62
    7
 10
393.00026
 20
58.49997
 40
15
 41
1
 50
0
  1
認
  0
TEXT
  8
_0-d_文字
 62
    7
 10
612.00015
 20
142.49995
 40
15
 41
1
 50
0
  1
尺
  0
TEXT
  8
_0-d_文字
 62
    7
 10
612.00015
 20
118.49985
 40
15
 41
1
 50
0.0000708
  1
度
  0
TEXT
  8
_0-d_文字
 62
    7
 10
513.00006
 20
94.499931
 40
15
 41
1
 50
0.0000354
  1
製
  0
TEXT
  8
_0-d_文字
 62
    7
 10
513.00006
 20
58.49997
 40
15
 41
1
 50
0
  1
図
  0
TEXT
  8
_0-d_文字
 62
    7
 10
933.00002
 20
142.49995
 40
15
 41
1
 50
0
  1
日
  0
TEXT
  8
_0-d_文字
 62
    7
 10
933.00002
 20
118.49985
 40
15
 41
1
 50
0.0000708
  1
付
  0
TEXT
  8
_0-d_文字
 62
    7
 10
666.85579
 20
98.089352
 40
12
 41
1
 50
0
  1
株式
  0
TEXT
  8
_0-d_文字
 62
    7
 10
666.85579
 20
85.111074
 40
12
 41
1
 50
0.0000196
  1
会社
  0
TEXT
  8
_0-d_文字
 62
    3
 10
704.5348
 20
85.948271
 40
24
 41
1
 50
0
  1
スズキベンチレーター
  0
TEXT
  8
_0-d_文字
 62
    7
 10
742.75091
 20
56.414507
 40
12
 41
1
 50
0
  1
TEL(054)296-7000  FAX(054)296-7001
  0
TEXT
  8
_0-d_文字
 62
    3
 10
650.6094
 20
126.06037
 40
24
 41
1
 50
0.0000136
  1
１／６
  0
TEXT
  8
_0-8_寸法
 62
    3
 10
612.37512
 20
1568.2741
 40
18
 41
1
 50
0
  1
650
  0
TEXT
  8
_0-8_寸法
 62
    3
 10
600.99996
 20
1021.7902
 40
18
 41
1
 50
0
  1
415φ
  0
TEXT
  8
_0-8_寸法
 62
    3
 10
130.5005
 20
1244.3283
 40
18
 41
1
 50
90
  1
385
  0
TEXT
  8
_0-d_文字
 62
    7
 10
741.40752
 20
71.187555
 40
12
 41
1
 50
0
  1
〒421-2114　静岡市葵区安倍口新田１５２番地
  0
TEXT
  8
_0-1_基準線
 62
    3
 10
152.99997
 20
1663.6207
 40
30
 41
1
 50
0
  1
ＳＴ－４０Ｌ　直付型（低騒音）網付断面
  0
TEXT
  8
_0-d_文字
 62
    3
 10
167.61647
 20
125.44811
 40
18
 41
1
 50
0
  1
ＳＴ－４０Ｌ　直付型（低騒音）網付断面
  0
TEXT
  8
_0-d_文字
 62
    3
 10
185.07555
 20
84.181282
 40
18
 41
1
 50
0
  1
40L-04a
  0
POINT
  8
_0-8_寸法
 62
    2
 10
150.00049
 20
1078.3294
  0
POINT
  8
_0-8_寸法
 62
    2
 10
150.00049
 20
1463.3299
  0
POINT
  8
_0-8_寸法
 62
    2
 10
304.99991
 20
1548.7734
  0
POINT
  8
_0-8_寸法
 62
    2
 10
955.00112
 20
1548.7734
  0
POINT
  8
_0-8_寸法
 62
    2
 10
422.49995
 20
1008.7901
  0
POINT
  8
_0-8_寸法
 62
    2
 10
837.50011
 20
1008.7901
  0
ENDSEC
  0
EOF
