  0
SECTION
  2
HEADER
  9
$ACADVER
  1
AC1009
  9
$INSBASE
 10
0
 20
0
 30
0
  9
$EXTMIN
 10
0
 20
0
  9
$EXTMAX
 10
2520
 20
1782
  9
$LIMMIN
 10
0
 20
0
  9
$LIMMAX
 10
2520
 20
1782
  9
$LTSCALE
 40
6
  0
ENDSEC
  0
SECTION
  2
TABLES
  0
TABLE
  2
LTYPE
 70
     9
  0
LTYPE
  2
CONTINUOUS
 70
    64
  3
実線
 72
    65
 73
     0
 40
0.0
  0
LTYPE
  2
DASHED1
 70
    64
  3
--  --  --  --  --  --  --  --  
 72
    65
 73
     2
 40
2.5
 49
1.25
 49
-1.25
  0
LTYPE
  2
DASHED2
 70
    64
  3
----    ----    ----    ----    
 72
    65
 73
     2
 40
5.0
 49
2.5
 49
-2.5
  0
LTYPE
  2
DASHED3
 70
    64
  3
------  ------  ------  ------  
 72
    65
 73
     2
 40
5.0
 49
3.75
 49
-1.25
  0
LTYPE
  2
CENTER1
 70
    64
  3
----- - ----- - ----- - ----- - 
 72
    65
 73
     4
 40
10.0
 49
6.25
 49
-1.25
 49
1.25
 49
-1.25
  0
LTYPE
  2
CENTER2
 70
    64
  3
----------  --  ----------  --  
 72
    65
 73
     4
 40
20.0
 49
12.5
 49
-2.5
 49
2.5
 49
-2.5
  0
LTYPE
  2
PHANTOM1
 70
    64
  3
--- - - --- - - --- - - --- - - 
 72
    65
 73
     6
 40
10.0
 49
3.25
 49
-1.25
 49
1.25
 49
-1.25
 49
1.25
 49
-1.25
  0
LTYPE
  2
PHANTOM2
 70
    64
  3
--------  -  -  --------  -  -  
 72
    65
 73
     6
 40
20.0
 49
10.0
 49
-2.5
 49
1.25
 49
-2.5
 49
1.25
 49
-2.5
  0
LTYPE
  2
DOT
 70
    64
  3
-   -   -   -   -   -   -   -   
 72
    65
 73
     2
 40
2.5
 49
0.625
 49
-1.875
  0
LTYPE
  2
DUMMY
 70
    64
  3
ダミー
 72
    65
 73
     0
 40
0.0
  0
LTYPE
  2
RAND1
 70
    64
  3
----- - ----- - ----- - ----- - 
 72
    65
 73
     4
 40
10.0
 49
6.25
 49
-1.25
 49
1.25
 49
-1.25
  0
LTYPE
  2
RAND2
 70
    64
  3
----------  --  ----------  --  
 72
    65
 73
     4
 40
20.0
 49
12.5
 49
-2.5
 49
2.5
 49
-2.5
  0
LTYPE
  2
RAND3
 70
    64
  3
--- - - --- - - --- - - --- - - 
 72
    65
 73
     6
 40
10.0
 49
3.25
 49
-1.25
 49
1.25
 49
-1.25
 49
1.25
 49
-1.25
  0
LTYPE
  2
RAND4
 70
    64
  3
--------  -  -  --------  -  -  
 72
    65
 73
     6
 40
20.0
 49
10.0
 49
-2.5
 49
1.25
 49
-2.5
 49
1.25
 49
-2.5
  0
LTYPE
  2
RAND5
 70
    64
  3
----- - ----- - ----- - ----- - 
 72
    65
 73
     4
 40
10.0
 49
6.25
 49
-1.25
 49
1.25
 49
-1.25
  0
LTYPE
  2
LONG1
 70
    64
  3
----------  --  ----------  --  
 72
    65
 73
     4
 40
20.0
 49
12.5
 49
-2.5
 49
2.5
 49
-2.5
  0
LTYPE
  2
LONG2
 70
    64
  3
--- - - --- - - --- - - --- - - 
 72
    65
 73
     6
 40
10.0
 49
3.25
 49
-1.25
 49
1.25
 49
-1.25
 49
1.25
 49
-1.25
  0
LTYPE
  2
LONG3
 70
    64
  3
--------  -  -  --------  -  -  
 72
    65
 73
     6
 40
20.0
 49
10.0
 49
-2.5
 49
1.25
 49
-2.5
 49
1.25
 49
-2.5
  0
LTYPE
  2
LONG4
 70
    64
  3
----- - ----- - ----- - ----- - 
 72
    65
 73
     4
 40
10.0
 49
6.25
 49
-1.25
 49
1.25
 49
-1.25
  0
LTYPE
  2
LONG5
 70
    64
  3
----------  --  ----------  --  
 72
    65
 73
     4
 40
20.0
 49
12.5
 49
-2.5
 49
2.5
 49
-2.5
  0
ENDTAB
  0
TABLE
  2
STYLE
  5
3
100
AcDbSymbolTable
 70
     1
  0
STYLE
  5
10
100
AcDbSymbolTableRecord
100
AcDbTextStyleTableRecord
  2
STANDARD
 70
     0
 40
0.0
 41
1.0
 50
0.0
 71
     0
 42
0.2
  3
txt
  4
bigfont.shx
  0
STYLE
  5
26
100
AcDbSymbolTableRecord
100
AcDbTextStyleTableRecord
  2
TATEGAKI
 70
    68
 40
0.0
 41
1.0
 50
0.0
 71
     0
 42
1.0
  3
txt
  4
bigfont.shx
  0
ENDTAB
  0
TABLE
  2
LAYER
 70
    4
  0
LAYER
  2
_0-2_躯体
 70
   64
 62
    7
  6
CONTINUOUS
  0
LAYER
  2
_0-8_寸法
 70
   64
 62
    7
  6
CONTINUOUS
  0
LAYER
  2
_0-d_文字
 70
   64
 62
    7
  6
CONTINUOUS
  0
LAYER
  2
ADD_LINE
 70
   64
 62
    7
  6
CONTINUOUS
  0
ENDTAB
  0
ENDSEC
  0
SECTION
  2
BLOCKS
  0
ENDSEC
  0
SECTION
  2
ENTITIES
  0
LINE
  8
_0-d_文字
  6
CONTINUOUS
 62
    7
 10
149.99978
 20
113.99993
 11
1110.0001
 21
113.99993
  0
LINE
  8
_0-d_文字
  6
CONTINUOUS
 62
    7
 10
149.99978
 20
53.999881
 11
149.99978
 21
161.99994
  0
LINE
  8
_0-d_文字
  6
CONTINUOUS
 62
    7
 10
149.99978
 20
53.999881
 11
1110.0001
 21
53.999881
  0
LINE
  8
_0-d_文字
  6
CONTINUOUS
 62
    7
 10
1110.0001
 20
161.99994
 11
1110.0001
 21
53.999881
  0
LINE
  8
_0-d_文字
  6
CONTINUOUS
 62
    7
 10
149.99978
 20
161.99994
 11
1110.0001
 21
161.99994
  0
LINE
  8
_0-d_文字
  6
CONTINUOUS
 62
    7
 10
630
 20
161.99994
 11
630
 21
53.999881
  0
LINE
  8
_0-d_文字
  6
CONTINUOUS
 62
    7
 10
390.00009
 20
53.999881
 11
390.00009
 21
113.99993
  0
LINE
  8
_0-d_文字
  6
CONTINUOUS
 62
    7
 10
630
 20
113.99993
 11
630
 21
161.99994
  0
LINE
  8
_0-d_文字
  6
CONTINUOUS
 62
    7
 10
509.99982
 20
53.999881
 11
509.99982
 21
113.99993
  0
LINE
  8
_0-d_文字
  6
CONTINUOUS
 62
    7
 10
171
 20
53.999881
 11
171
 21
113.99993
  0
LINE
  8
_0-d_文字
  6
CONTINUOUS
 62
    7
 10
411.00001
 20
53.999881
 11
411.00001
 21
113.99993
  0
LINE
  8
_0-d_文字
  6
CONTINUOUS
 62
    7
 10
531.00004
 20
53.999881
 11
531.00004
 21
113.99993
  0
LINE
  8
_0-d_文字
  6
CONTINUOUS
 62
    7
 10
609
 20
113.99993
 11
609
 21
161.99994
  0
LINE
  8
_0-d_文字
  6
CONTINUOUS
 62
    7
 10
930.00017
 20
113.99993
 11
930.00017
 21
161.99994
  0
LINE
  8
_0-d_文字
  6
CONTINUOUS
 62
    7
 10
951.00009
 20
113.99993
 11
951.00009
 21
161.99994
  0
LINE
  8
_0-d_文字
  6
CONTINUOUS
 62
    7
 10
149.99997
 20
1654.6207
 11
1109.9999
 21
1654.6207
  0
LINE
  8
_0-d_文字
  6
CONTINUOUS
 62
    7
 10
149.99997
 20
1660.6207
 11
1109.9999
 21
1660.6207
  0
LINE
  8
_0-8_寸法
  6
CONTINUOUS
 62
    7
 10
304.99984
 20
1574.9174
 11
955.00104
 21
1574.9174
  0
LINE
  8
_0-2_躯体
  6
CONTINUOUS
 62
    3
 10
304.99984
 20
1414.474
 11
304.99984
 21
1302.7231
  0
LINE
  8
_0-2_躯体
  6
CONTINUOUS
 62
    3
 10
304.99984
 20
1289.7233
 11
304.99984
 21
1267.4736
  0
LINE
  8
_0-2_躯体
  6
CONTINUOUS
 62
    3
 10
955.00104
 20
1414.474
 11
955.00104
 21
1302.7231
  0
LINE
  8
_0-2_躯体
  6
CONTINUOUS
 62
    3
 10
422.49995
 20
1254.4741
 11
422.49995
 21
1222.4738
  0
LINE
  8
_0-8_寸法
  6
CONTINUOUS
 62
    7
 10
304.99984
 20
1452.7892
 11
304.99984
 21
1574.9174
  0
LINE
  8
_0-8_寸法
  6
CONTINUOUS
 62
    7
 10
955.00104
 20
1452.7892
 11
955.00104
 21
1574.9174
  0
LINE
  8
_0-2_躯体
  6
CONTINUOUS
 62
    3
 10
955
 20
1289.7233
 11
955
 21
1267.4736
  0
LINE
  8
_0-8_寸法
  6
CONTINUOUS
 62
    7
 10
320.00004
 20
988.69262
 11
320.00004
 21
934.93451
  0
LINE
  8
_0-8_寸法
  6
CONTINUOUS
 62
    7
 10
939.99995
 20
988.69262
 11
939.99995
 21
934.93451
  0
LINE
  8
_0-8_寸法
  6
CONTINUOUS
 62
    7
 10
150.00042
 20
1059.4741
 11
150.00042
 21
1489.4741
  0
LINE
  8
_0-8_寸法
  6
CONTINUOUS
 62
    7
 10
320.00004
 20
934.93451
 11
939.99995
 21
934.93451
  0
LINE
  8
_0-8_寸法
  6
CONTINUOUS
 62
    7
 10
273.85983
 20
1059.4741
 11
150.00042
 21
1059.4741
  0
LINE
  8
_0-8_寸法
  6
CONTINUOUS
 62
    7
 10
273.85983
 20
1489.4741
 11
150.00042
 21
1489.4741
  0
LINE
  8
_0-2_躯体
  6
CONTINUOUS
 62
    3
 10
320.00004
 20
1059.4741
 11
320.00004
 21
1119.474
  0
LINE
  8
_0-2_躯体
  6
CONTINUOUS
 62
    3
 10
320.00004
 20
1059.4741
 11
939.99995
 21
1059.4741
  0
LINE
  8
_0-2_躯体
  6
CONTINUOUS
 62
    3
 10
939.99995
 20
1059.4741
 11
939.99995
 21
1119.474
  0
LINE
  8
_0-2_躯体
  6
CONTINUOUS
 62
    3
 10
320.00004
 20
1119.474
 11
939.99995
 21
1119.474
  0
LINE
  8
_0-2_躯体
  6
CONTINUOUS
 62
    3
 10
320.00004
 20
1119.474
 11
466.89912
 21
1204.2863
  0
LINE
  8
_0-2_躯体
  6
CONTINUOUS
 62
    3
 10
466.89912
 20
1204.2863
 11
466.89912
 21
1119.474
  0
LINE
  8
_0-2_躯体
  6
CONTINUOUS
 62
    3
 10
422.49995
 20
1209.4741
 11
422.49995
 21
1178.6525
  0
LINE
  8
_0-2_躯体
  6
CONTINUOUS
 62
    3
 10
644.76228
 20
1291.0236
 11
648.64728
 21
1293.4112
  0
LINE
  8
_0-2_躯体
  6
CONTINUOUS
 62
    3
 10
648.64728
 20
1293.4112
 11
652.51388
 21
1295.8463
  0
LINE
  8
_0-2_躯体
  6
CONTINUOUS
 62
    3
 10
652.51388
 20
1295.8463
 11
656.3441
 21
1298.3725
  0
LINE
  8
_0-2_躯体
  6
CONTINUOUS
 62
    3
 10
656.3441
 20
1298.3725
 11
660.09474
 21
1301.0394
  0
LINE
  8
_0-2_躯体
  6
CONTINUOUS
 62
    3
 10
660.09474
 20
1301.0394
 11
663.69796
 21
1303.9004
  0
LINE
  8
_0-2_躯体
  6
CONTINUOUS
 62
    3
 10
663.69796
 20
1303.9004
 11
667.07789
 21
1307.002
  0
LINE
  8
_0-2_躯体
  6
CONTINUOUS
 62
    3
 10
667.07789
 20
1307.002
 11
670.16059
 21
1310.4002
  0
LINE
  8
_0-2_躯体
  6
CONTINUOUS
 62
    3
 10
670.16059
 20
1310.4002
 11
672.87243
 21
1314.1421
  0
LINE
  8
_0-2_躯体
  6
CONTINUOUS
 62
    3
 10
672.87243
 20
1314.1421
 11
675.23776
 21
1318.1898
  0
LINE
  8
_0-2_躯体
  6
CONTINUOUS
 62
    3
 10
675.23776
 20
1318.1898
 11
677.47259
 21
1322.3233
  0
LINE
  8
_0-2_躯体
  6
CONTINUOUS
 62
    3
 10
677.47259
 20
1322.3233
 11
679.80377
 21
1326.309
  0
LINE
  8
_0-2_躯体
  6
CONTINUOUS
 62
    3
 10
679.80377
 20
1326.309
 11
682.47122
 21
1329.9137
  0
LINE
  8
_0-2_躯体
  6
CONTINUOUS
 62
    3
 10
682.47122
 20
1329.9137
 11
685.69971
 21
1332.9024
  0
LINE
  8
_0-2_躯体
  6
CONTINUOUS
 62
    3
 10
685.69971
 20
1332.9024
 11
689.56111
 21
1335.2135
  0
LINE
  8
_0-2_躯体
  6
CONTINUOUS
 62
    3
 10
689.56111
 20
1335.2135
 11
693.81965
 21
1337.1014
  0
LINE
  8
_0-2_躯体
  6
CONTINUOUS
 62
    3
 10
693.81965
 20
1337.1014
 11
695.83594
 21
1337.907
  0
LINE
  8
_0-2_躯体
  6
CONTINUOUS
 62
    3
 10
693.81965
 20
1337.1014
 11
696.62413
 21
1337.5471
  0
LINE
  8
_0-2_躯体
  6
CONTINUOUS
 62
    3
 10
696.62413
 20
1337.5471
 11
699.45371
 21
1337.9347
  0
LINE
  8
_0-2_躯体
  6
CONTINUOUS
 62
    3
 10
699.45371
 20
1337.9347
 11
702.33005
 21
1338.2122
  0
LINE
  8
_0-2_躯体
  6
CONTINUOUS
 62
    3
 10
702.33005
 20
1338.2122
 11
705.2769
 21
1338.3176
  0
LINE
  8
_0-2_躯体
  6
CONTINUOUS
 62
    3
 10
705.2769
 20
1338.3176
 11
708.31373
 21
1338.1987
  0
LINE
  8
_0-2_躯体
  6
CONTINUOUS
 62
    3
 10
708.31373
 20
1338.1987
 11
711.35205
 21
1337.756
  0
LINE
  8
_0-2_躯体
  6
CONTINUOUS
 62
    3
 10
711.35205
 20
1337.756
 11
714.18667
 21
1336.8677
  0
LINE
  8
_0-2_躯体
  6
CONTINUOUS
 62
    3
 10
714.18667
 20
1336.8677
 11
716.60262
 21
1335.3962
  0
LINE
  8
_0-2_躯体
  6
CONTINUOUS
 62
    3
 10
716.60262
 20
1335.3962
 11
718.4265
 21
1333.2457
  0
LINE
  8
_0-2_躯体
  6
CONTINUOUS
 62
    3
 10
718.4265
 20
1333.2457
 11
719.84819
 21
1330.6634
  0
LINE
  8
_0-2_躯体
  6
CONTINUOUS
 62
    3
 10
643.23711
 20
1280.352
 11
647.78961
 21
1281.0276
  0
LINE
  8
_0-2_躯体
  6
CONTINUOUS
 62
    3
 10
647.78961
 20
1281.0276
 11
652.31434
 21
1281.7927
  0
LINE
  8
_0-2_躯体
  6
CONTINUOUS
 62
    3
 10
652.31434
 20
1281.7927
 11
656.78904
 21
1282.7271
  0
LINE
  8
_0-2_躯体
  6
CONTINUOUS
 62
    3
 10
656.78904
 20
1282.7271
 11
661.18343
 21
1283.923
  0
LINE
  8
_0-2_躯体
  6
CONTINUOUS
 62
    3
 10
661.18343
 20
1283.923
 11
665.47492
 21
1285.4625
  0
LINE
  8
_0-2_躯体
  6
CONTINUOUS
 62
    3
 10
665.47492
 20
1285.4625
 11
669.63889
 21
1287.367
  0
LINE
  8
_0-2_躯体
  6
CONTINUOUS
 62
    3
 10
669.63889
 20
1287.367
 11
673.65796
 21
1289.599
  0
LINE
  8
_0-2_躯体
  6
CONTINUOUS
 62
    3
 10
673.65796
 20
1289.599
 11
677.51
 21
1292.1335
  0
LINE
  8
_0-2_躯体
  6
CONTINUOUS
 62
    3
 10
677.51
 20
1292.1335
 11
681.17676
 21
1294.9252
  0
LINE
  8
_0-2_躯体
  6
CONTINUOUS
 62
    3
 10
681.17676
 20
1294.9252
 11
684.64057
 21
1297.9467
  0
LINE
  8
_0-2_躯体
  6
CONTINUOUS
 62
    3
 10
684.64057
 20
1297.9467
 11
687.92801
 21
1301.1437
  0
LINE
  8
_0-2_躯体
  6
CONTINUOUS
 62
    3
 10
687.92801
 20
1301.1437
 11
691.10558
 21
1304.4432
  0
LINE
  8
_0-2_躯体
  6
CONTINUOUS
 62
    3
 10
691.10558
 20
1304.4432
 11
694.24262
 21
1307.7733
  0
LINE
  8
_0-2_躯体
  6
CONTINUOUS
 62
    3
 10
694.24262
 20
1307.7733
 11
697.40609
 21
1311.0585
  0
LINE
  8
_0-2_躯体
  6
CONTINUOUS
 62
    3
 10
697.40609
 20
1311.0585
 11
700.66784
 21
1314.2286
  0
LINE
  8
_0-2_躯体
  6
CONTINUOUS
 62
    3
 10
700.66784
 20
1314.2286
 11
704.09053
 21
1317.22
  0
LINE
  8
_0-2_躯体
  6
CONTINUOUS
 62
    3
 10
704.09053
 20
1317.22
 11
707.66955
 21
1320.0309
  0
LINE
  8
_0-2_躯体
  6
CONTINUOUS
 62
    3
 10
707.66955
 20
1320.0309
 11
711.37595
 21
1322.7035
  0
LINE
  8
_0-2_躯体
  6
CONTINUOUS
 62
    3
 10
711.37595
 20
1322.7035
 11
715.17069
 21
1325.2722
  0
LINE
  8
_0-2_躯体
  6
CONTINUOUS
 62
    3
 10
715.17069
 20
1325.2722
 11
719.0254
 21
1327.7765
  0
LINE
  8
_0-2_躯体
  6
CONTINUOUS
 62
    3
 10
719.0254
 20
1327.7765
 11
721.75432
 21
1329.5207
  0
LINE
  8
_0-2_躯体
  6
CONTINUOUS
 62
    3
 10
721.75432
 20
1329.5207
 11
726.01256
 21
1331.287
  0
LINE
  8
_0-2_躯体
  6
CONTINUOUS
 62
    3
 10
726.01256
 20
1331.287
 11
730.29485
 21
1332.9358
  0
LINE
  8
_0-2_躯体
  6
CONTINUOUS
 62
    3
 10
730.29485
 20
1332.9358
 11
734.62807
 21
1334.3516
  0
LINE
  8
_0-2_躯体
  6
CONTINUOUS
 62
    3
 10
734.62807
 20
1334.3516
 11
739.03715
 21
1335.4184
  0
LINE
  8
_0-2_躯体
  6
CONTINUOUS
 62
    3
 10
739.03715
 20
1335.4184
 11
743.53264
 21
1336.0717
  0
LINE
  8
_0-2_躯体
  6
CONTINUOUS
 62
    3
 10
743.53264
 20
1336.0717
 11
748.0927
 21
1336.3588
  0
LINE
  8
_0-2_躯体
  6
CONTINUOUS
 62
    3
 10
748.0927
 20
1336.3588
 11
752.69108
 21
1336.342
  0
LINE
  8
_0-2_躯体
  6
CONTINUOUS
 62
    3
 10
752.69108
 20
1336.342
 11
757.30296
 21
1336.0832
  0
LINE
  8
_0-2_躯体
  6
CONTINUOUS
 62
    3
 10
757.30296
 20
1336.0832
 11
761.90682
 21
1335.6463
  0
LINE
  8
_0-2_躯体
  6
CONTINUOUS
 62
    3
 10
761.90682
 20
1335.6463
 11
766.47506
 21
1335.0847
  0
LINE
  8
_0-2_躯体
  6
CONTINUOUS
 62
    3
 10
766.47506
 20
1335.0847
 11
771.00336
 21
1334.3857
  0
LINE
  8
_0-2_躯体
  6
CONTINUOUS
 62
    3
 10
771.00336
 20
1334.3857
 11
775.49275
 21
1333.5352
  0
LINE
  8
_0-2_躯体
  6
CONTINUOUS
 62
    3
 10
775.49275
 20
1333.5352
 11
779.93702
 21
1332.5032
  0
LINE
  8
_0-2_躯体
  6
CONTINUOUS
 62
    3
 10
779.93702
 20
1332.5032
 11
784.33883
 21
1331.2727
  0
LINE
  8
_0-2_躯体
  6
CONTINUOUS
 62
    3
 10
784.33883
 20
1331.2727
 11
788.69609
 21
1329.8155
  0
LINE
  8
_0-2_躯体
  6
CONTINUOUS
 62
    3
 10
788.69609
 20
1329.8155
 11
792.9916
 21
1328.1113
  0
LINE
  8
_0-2_躯体
  6
CONTINUOUS
 62
    3
 10
792.9916
 20
1328.1113
 11
797.18496
 21
1326.1412
  0
LINE
  8
_0-2_躯体
  6
CONTINUOUS
 62
    3
 10
797.18496
 20
1326.1412
 11
801.21516
 21
1323.8929
  0
LINE
  8
_0-2_躯体
  6
CONTINUOUS
 62
    3
 10
801.21516
 20
1323.8929
 11
805.0298
 21
1321.3457
  0
LINE
  8
_0-2_躯体
  6
CONTINUOUS
 62
    3
 10
805.0298
 20
1321.3457
 11
808.57348
 21
1318.4803
  0
LINE
  8
_0-2_躯体
  6
CONTINUOUS
 62
    3
 10
808.57348
 20
1318.4803
 11
811.79722
 21
1315.2888
  0
LINE
  8
_0-2_躯体
  6
CONTINUOUS
 62
    3
 10
811.79722
 20
1315.2888
 11
814.7426
 21
1311.8179
  0
LINE
  8
_0-2_躯体
  6
CONTINUOUS
 62
    3
 10
814.7426
 20
1311.8179
 11
817.4828
 21
1308.1447
  0
LINE
  8
_0-2_躯体
  6
CONTINUOUS
 62
    3
 10
817.4828
 20
1308.1447
 11
820.09547
 21
1304.3467
  0
LINE
  8
_0-2_躯体
  6
CONTINUOUS
 62
    3
 10
820.09547
 20
1304.3467
 11
821.61381
 21
1302.0785
  0
LINE
  8
_0-2_躯体
  6
CONTINUOUS
 62
    3
 10
820.09547
 20
1304.3467
 11
822.13848
 21
1300.1164
  0
LINE
  8
_0-2_躯体
  6
CONTINUOUS
 62
    3
 10
822.13848
 20
1300.1164
 11
824.07252
 21
1295.867
  0
LINE
  8
_0-2_躯体
  6
CONTINUOUS
 62
    3
 10
824.07252
 20
1295.867
 11
825.79336
 21
1291.5882
  0
LINE
  8
_0-2_躯体
  6
CONTINUOUS
 62
    3
 10
825.79336
 20
1291.5882
 11
827.19115
 21
1287.2558
  0
LINE
  8
_0-2_躯体
  6
CONTINUOUS
 62
    3
 10
827.19115
 20
1287.2558
 11
828.15928
 21
1282.8588
  0
LINE
  8
_0-2_躯体
  6
CONTINUOUS
 62
    3
 10
828.15928
 20
1282.8588
 11
828.59473
 21
1278.3787
  0
LINE
  8
_0-2_躯体
  6
CONTINUOUS
 62
    3
 10
828.59473
 20
1278.3787
 11
828.46987
 21
1273.835
  0
LINE
  8
_0-2_躯体
  6
CONTINUOUS
 62
    3
 10
828.46987
 20
1273.835
 11
827.86072
 21
1269.2709
  0
LINE
  8
_0-2_躯体
  6
CONTINUOUS
 62
    3
 10
827.86072
 20
1269.2709
 11
826.84582
 21
1264.7395
  0
LINE
  8
_0-2_躯体
  6
CONTINUOUS
 62
    3
 10
826.84582
 20
1264.7395
 11
825.49495
 21
1260.293
  0
LINE
  8
_0-2_躯体
  6
CONTINUOUS
 62
    3
 10
825.49495
 20
1260.293
 11
823.83067
 21
1255.9923
  0
LINE
  8
_0-2_躯体
  6
CONTINUOUS
 62
    3
 10
823.83067
 20
1255.9923
 11
821.8077
 21
1251.8986
  0
LINE
  8
_0-2_躯体
  6
CONTINUOUS
 62
    3
 10
821.8077
 20
1251.8986
 11
819.37735
 21
1248.0749
  0
LINE
  8
_0-2_躯体
  6
CONTINUOUS
 62
    3
 10
819.37735
 20
1248.0749
 11
816.5454
 21
1244.5443
  0
LINE
  8
_0-2_躯体
  6
CONTINUOUS
 62
    3
 10
816.5454
 20
1244.5443
 11
813.39752
 21
1241.2408
  0
LINE
  8
_0-2_躯体
  6
CONTINUOUS
 62
    3
 10
813.39752
 20
1241.2408
 11
810.03258
 21
1238.0961
  0
LINE
  8
_0-2_躯体
  6
CONTINUOUS
 62
    3
 10
810.03258
 20
1238.0961
 11
806.54487
 21
1235.0428
  0
LINE
  8
_0-2_躯体
  6
CONTINUOUS
 62
    3
 10
806.54487
 20
1235.0428
 11
805.6048
 21
1234.2349
  0
LINE
  8
_0-2_躯体
  6
CONTINUOUS
 62
    3
 10
806.54487
 20
1235.0428
 11
802.54213
 21
1232.7989
  0
LINE
  8
_0-2_躯体
  6
CONTINUOUS
 62
    3
 10
802.54213
 20
1232.7989
 11
798.52411
 21
1230.5962
  0
LINE
  8
_0-2_躯体
  6
CONTINUOUS
 62
    3
 10
798.52411
 20
1230.5962
 11
794.47282
 21
1228.4738
  0
LINE
  8
_0-2_躯体
  6
CONTINUOUS
 62
    3
 10
794.47282
 20
1228.4738
 11
790.36587
 21
1226.4716
  0
LINE
  8
_0-2_躯体
  6
CONTINUOUS
 62
    3
 10
790.36587
 20
1226.4716
 11
786.19329
 21
1224.6295
  0
LINE
  8
_0-2_躯体
  6
CONTINUOUS
 62
    3
 10
786.19329
 20
1224.6295
 11
781.93149
 21
1222.9867
  0
LINE
  8
_0-2_躯体
  6
CONTINUOUS
 62
    3
 10
781.93149
 20
1222.9867
 11
777.57986
 21
1221.5669
  0
LINE
  8
_0-2_躯体
  6
CONTINUOUS
 62
    3
 10
777.57986
 20
1221.5669
 11
773.15623
 21
1220.3754
  0
LINE
  8
_0-2_躯体
  6
CONTINUOUS
 62
    3
 10
773.15623
 20
1220.3754
 11
768.67737
 21
1219.4099
  0
LINE
  8
_0-2_躯体
  6
CONTINUOUS
 62
    3
 10
768.67737
 20
1219.4099
 11
764.15754
 21
1218.6717
  0
LINE
  8
_0-2_躯体
  6
CONTINUOUS
 62
    3
 10
764.15754
 20
1218.6717
 11
759.61781
 21
1218.155
  0
LINE
  8
_0-2_躯体
  6
CONTINUOUS
 62
    3
 10
759.61781
 20
1218.155
 11
755.06323
 21
1217.8208
  0
LINE
  8
_0-2_躯体
  6
CONTINUOUS
 62
    3
 10
755.06323
 20
1217.8208
 11
750.49678
 21
1217.6256
  0
LINE
  8
_0-2_躯体
  6
CONTINUOUS
 62
    3
 10
750.49678
 20
1217.6256
 11
745.91994
 21
1217.5198
  0
LINE
  8
_0-2_躯体
  6
CONTINUOUS
 62
    3
 10
745.91994
 20
1217.5198
 11
741.95313
 21
1217.4641
  0
LINE
  8
_0-2_躯体
  6
CONTINUOUS
 62
    3
 10
690.81622
 20
1217.0436
 11
695.09644
 21
1215.3113
  0
LINE
  8
_0-2_躯体
  6
CONTINUOUS
 62
    3
 10
695.09644
 20
1215.3113
 11
699.40174
 21
1213.5986
  0
LINE
  8
_0-2_躯体
  6
CONTINUOUS
 62
    3
 10
699.40174
 20
1213.5986
 11
703.74743
 21
1212.0203
  0
LINE
  8
_0-2_躯体
  6
CONTINUOUS
 62
    3
 10
703.74743
 20
1212.0203
 11
708.13483
 21
1210.7044
  0
LINE
  8
_0-2_躯体
  6
CONTINUOUS
 62
    3
 10
708.13483
 20
1210.7044
 11
712.57569
 21
1209.7765
  0
LINE
  8
_0-2_躯体
  6
CONTINUOUS
 62
    3
 10
712.57569
 20
1209.7765
 11
717.07978
 21
1209.3608
  0
LINE
  8
_0-2_躯体
  6
CONTINUOUS
 62
    3
 10
717.07978
 20
1209.3608
 11
721.63659
 21
1209.4257
  0
LINE
  8
_0-2_躯体
  6
CONTINUOUS
 62
    3
 10
721.63659
 20
1209.4257
 11
726.2265
 21
1209.7643
  0
LINE
  8
_0-2_躯体
  6
CONTINUOUS
 62
    3
 10
726.2265
 20
1209.7643
 11
727.08877
 21
1209.8405
  0
LINE
  8
_0-2_躯体
  6
CONTINUOUS
 62
    3
 10
726.2265
 20
1209.7643
 11
729.97952
 21
1210.6013
  0
LINE
  8
_0-2_躯体
  6
CONTINUOUS
 62
    3
 10
729.97952
 20
1210.6013
 11
733.58184
 21
1211.7594
  0
LINE
  8
_0-2_躯体
  6
CONTINUOUS
 62
    3
 10
733.58184
 20
1211.7594
 11
736.8868
 21
1213.5627
  0
LINE
  8
_0-2_躯体
  6
CONTINUOUS
 62
    3
 10
736.8868
 20
1213.5627
 11
739.70464
 21
1216.1501
  0
LINE
  8
_0-2_躯体
  6
CONTINUOUS
 62
    3
 10
739.70464
 20
1216.1501
 11
741.79383
 21
1219.3933
  0
LINE
  8
_0-2_躯体
  6
CONTINUOUS
 62
    3
 10
741.79383
 20
1219.3933
 11
742.93165
 21
1223.1018
  0
LINE
  8
_0-2_躯体
  6
CONTINUOUS
 62
    3
 10
742.93165
 20
1223.1018
 11
743.01568
 21
1226.937
  0
LINE
  8
_0-2_躯体
  6
CONTINUOUS
 62
    3
 10
743.01568
 20
1226.937
 11
742.00079
 21
1230.5304
  0
LINE
  8
_0-2_躯体
  6
CONTINUOUS
 62
    3
 10
742.00079
 20
1230.5304
 11
740.10401
 21
1233.7992
  0
LINE
  8
_0-2_躯体
  6
CONTINUOUS
 62
    3
 10
740.10401
 20
1233.7992
 11
737.76125
 21
1236.9022
  0
LINE
  8
_0-2_躯体
  6
CONTINUOUS
 62
    3
 10
649.82282
 20
1274.436
 11
654.43559
 21
1273.6508
  0
LINE
  8
_0-2_躯体
  6
CONTINUOUS
 62
    3
 10
654.43559
 20
1273.6508
 11
659.03307
 21
1272.9981
  0
LINE
  8
_0-2_躯体
  6
CONTINUOUS
 62
    3
 10
659.03307
 20
1272.9981
 11
663.597
 21
1272.6105
  0
LINE
  8
_0-2_躯体
  6
CONTINUOUS
 62
    3
 10
663.597
 20
1272.6105
 11
668.11149
 21
1272.6173
  0
LINE
  8
_0-2_躯体
  6
CONTINUOUS
 62
    3
 10
668.11149
 20
1272.6173
 11
672.55977
 21
1273.1485
  0
LINE
  8
_0-2_躯体
  6
CONTINUOUS
 62
    3
 10
672.55977
 20
1273.1485
 11
676.94287
 21
1274.2275
  0
LINE
  8
_0-2_躯体
  6
CONTINUOUS
 62
    3
 10
676.94287
 20
1274.2275
 11
681.26985
 21
1275.7085
  0
LINE
  8
_0-2_躯体
  6
CONTINUOUS
 62
    3
 10
681.26985
 20
1275.7085
 11
685.56194
 21
1277.4452
  0
LINE
  8
_0-2_躯体
  6
CONTINUOUS
 62
    3
 10
685.56194
 20
1277.4452
 11
689.82731
 21
1279.2804
  0
LINE
  8
_0-2_躯体
  6
CONTINUOUS
 62
    3
 10
689.82731
 20
1279.2804
 11
694.08792
 21
1281.0821
  0
LINE
  8
_0-2_躯体
  6
CONTINUOUS
 62
    3
 10
694.08792
 20
1281.0821
 11
698.34423
 21
1282.8165
  0
LINE
  8
_0-2_躯体
  6
CONTINUOUS
 62
    3
 10
698.34423
 20
1282.8165
 11
702.60025
 21
1284.499
  0
LINE
  8
_0-2_躯体
  6
CONTINUOUS
 62
    3
 10
702.60025
 20
1284.499
 11
706.85151
 21
1286.1398
  0
LINE
  8
_0-2_躯体
  6
CONTINUOUS
 62
    3
 10
706.85151
 20
1286.1398
 11
711.10263
 21
1287.7504
  0
LINE
  8
_0-2_躯体
  6
CONTINUOUS
 62
    3
 10
711.10263
 20
1287.7504
 11
715.35493
 21
1289.3458
  0
LINE
  8
_0-2_躯体
  6
CONTINUOUS
 62
    3
 10
715.35493
 20
1289.3458
 11
715.29555
 21
1285.4294
  0
LINE
  8
_0-2_躯体
  6
CONTINUOUS
 62
    3
 10
715.29555
 20
1285.4294
 11
715.23913
 21
1281.5177
  0
LINE
  8
_0-2_躯体
  6
CONTINUOUS
 62
    3
 10
715.23913
 20
1281.5177
 11
715.18286
 21
1277.6012
  0
LINE
  8
_0-2_躯体
  6
CONTINUOUS
 62
    3
 10
715.18286
 20
1277.6012
 11
715.12377
 21
1273.6886
  0
LINE
  8
_0-2_躯体
  6
CONTINUOUS
 62
    3
 10
715.12377
 20
1273.6886
 11
715.06795
 21
1269.7764
  0
LINE
  8
_0-2_躯体
  6
CONTINUOUS
 62
    3
 10
715.06795
 20
1269.7764
 11
715.01124
 21
1265.8598
  0
LINE
  8
_0-2_躯体
  6
CONTINUOUS
 62
    3
 10
715.01124
 20
1265.8598
 11
714.9523
 21
1261.9481
  0
LINE
  8
_0-2_躯体
  6
CONTINUOUS
 62
    3
 10
714.9523
 20
1261.9481
 11
714.89618
 21
1258.0319
  0
LINE
  8
_0-2_躯体
  6
CONTINUOUS
 62
    3
 10
714.89618
 20
1258.0319
 11
714.83783
 21
1254.1188
  0
LINE
  8
_0-2_躯体
  6
CONTINUOUS
 62
    3
 10
714.83783
 20
1254.1188
 11
714.78097
 21
1250.2036
  0
LINE
  8
_0-2_躯体
  6
CONTINUOUS
 62
    3
 10
737.76125
 20
1236.9022
 11
736.82548
 21
1237.727
  0
LINE
  8
_0-2_躯体
  6
CONTINUOUS
 62
    3
 10
736.82548
 20
1237.727
 11
735.4804
 21
1238.7248
  0
LINE
  8
_0-2_躯体
  6
CONTINUOUS
 62
    3
 10
735.4804
 20
1238.7248
 11
733.7796
 21
1239.866
  0
LINE
  8
_0-2_躯体
  6
CONTINUOUS
 62
    3
 10
733.7796
 20
1239.866
 11
731.76865
 21
1241.1234
  0
LINE
  8
_0-2_躯体
  6
CONTINUOUS
 62
    3
 10
731.76865
 20
1241.1234
 11
729.47622
 21
1242.4717
  0
LINE
  8
_0-2_躯体
  6
CONTINUOUS
 62
    3
 10
729.47622
 20
1242.4717
 11
726.94328
 21
1243.8935
  0
LINE
  8
_0-2_躯体
  6
CONTINUOUS
 62
    3
 10
726.94328
 20
1243.8935
 11
724.19373
 21
1245.3717
  0
LINE
  8
_0-2_躯体
  6
CONTINUOUS
 62
    3
 10
724.19373
 20
1245.3717
 11
721.24865
 21
1246.8897
  0
LINE
  8
_0-2_躯体
  6
CONTINUOUS
 62
    3
 10
721.24865
 20
1246.8897
 11
718.13447
 21
1248.4364
  0
LINE
  8
_0-2_躯体
  6
CONTINUOUS
 62
    3
 10
718.13447
 20
1248.4364
 11
714.86812
 21
1249.9996
  0
LINE
  8
_0-2_躯体
  6
CONTINUOUS
 62
    3
 10
714.86812
 20
1249.9996
 11
711.46191
 21
1251.5691
  0
LINE
  8
_0-2_躯体
  6
CONTINUOUS
 62
    3
 10
711.46191
 20
1251.5691
 11
707.93708
 21
1253.1409
  0
LINE
  8
_0-2_躯体
  6
CONTINUOUS
 62
    3
 10
707.93708
 20
1253.1409
 11
704.30328
 21
1254.7045
  0
LINE
  8
_0-2_躯体
  6
CONTINUOUS
 62
    3
 10
704.30328
 20
1254.7045
 11
700.57891
 21
1256.2555
  0
LINE
  8
_0-2_躯体
  6
CONTINUOUS
 62
    3
 10
700.57891
 20
1256.2555
 11
696.77364
 21
1257.7905
  0
LINE
  8
_0-2_躯体
  6
CONTINUOUS
 62
    3
 10
696.77364
 20
1257.7905
 11
692.90303
 21
1259.3019
  0
LINE
  8
_0-2_躯体
  6
CONTINUOUS
 62
    3
 10
692.90303
 20
1259.3019
 11
688.98091
 21
1260.7881
  0
LINE
  8
_0-2_躯体
  6
CONTINUOUS
 62
    3
 10
688.98091
 20
1260.7881
 11
685.02331
 21
1262.2467
  0
LINE
  8
_0-2_躯体
  6
CONTINUOUS
 62
    3
 10
685.02331
 20
1262.2467
 11
681.04656
 21
1263.6756
  0
LINE
  8
_0-2_躯体
  6
CONTINUOUS
 62
    3
 10
681.04656
 20
1263.6756
 11
677.06565
 21
1265.0664
  0
LINE
  8
_0-2_躯体
  6
CONTINUOUS
 62
    3
 10
677.06565
 20
1265.0664
 11
673.09661
 21
1266.4195
  0
LINE
  8
_0-2_躯体
  6
CONTINUOUS
 62
    3
 10
673.09661
 20
1266.4195
 11
669.1592
 21
1267.7343
  0
LINE
  8
_0-2_躯体
  6
CONTINUOUS
 62
    3
 10
669.1592
 20
1267.7343
 11
665.27464
 21
1269.0025
  0
LINE
  8
_0-2_躯体
  6
CONTINUOUS
 62
    3
 10
665.27464
 20
1269.0025
 11
661.45764
 21
1270.2247
  0
LINE
  8
_0-2_躯体
  6
CONTINUOUS
 62
    3
 10
661.45764
 20
1270.2247
 11
657.73312
 21
1271.3953
  0
LINE
  8
_0-2_躯体
  6
CONTINUOUS
 62
    3
 10
657.73312
 20
1271.3953
 11
654.1204
 21
1272.5091
  0
LINE
  8
_0-2_躯体
  6
CONTINUOUS
 62
    3
 10
654.1204
 20
1272.5091
 11
650.63997
 21
1273.5614
  0
LINE
  8
_0-2_躯体
  6
CONTINUOUS
 62
    3
 10
650.63997
 20
1273.5614
 11
647.31022
 21
1274.5499
  0
LINE
  8
_0-2_躯体
  6
CONTINUOUS
 62
    3
 10
647.31022
 20
1274.5499
 11
644.15224
 21
1275.4657
  0
LINE
  8
_0-2_躯体
  6
CONTINUOUS
 62
    3
 10
715.35493
 20
1289.3458
 11
715.40912
 21
1289.3643
  0
LINE
  8
_0-2_躯体
  6
CONTINUOUS
 62
    3
 10
653.11857
 20
1213.2195
 11
653.11857
 21
1204.2323
  0
LINE
  8
_0-2_躯体
  6
CONTINUOUS
 62
    3
 10
653.11857
 20
1204.2323
 11
680.4291
 21
1204.2323
  0
LINE
  8
_0-2_躯体
  6
CONTINUOUS
 62
    3
 10
680.4291
 20
1213.2195
 11
680.4291
 21
1204.2323
  0
LINE
  8
_0-2_躯体
  6
CONTINUOUS
 62
    3
 10
653.11857
 20
1213.2195
 11
680.4291
 21
1213.2195
  0
LINE
  8
_0-2_躯体
  6
CONTINUOUS
 62
    3
 10
640.46455
 20
1299.8646
 11
640.46455
 21
1270.3776
  0
LINE
  8
_0-2_躯体
  6
CONTINUOUS
 62
    3
 10
644.76228
 20
1291.0236
 11
644.31629
 21
1290.7712
  0
LINE
  8
_0-2_躯体
  6
CONTINUOUS
 62
    3
 10
644.31629
 20
1290.7712
 11
643.85947
 21
1290.506
  0
LINE
  8
_0-2_躯体
  6
CONTINUOUS
 62
    3
 10
643.85947
 20
1290.506
 11
643.3973
 21
1290.2285
  0
LINE
  8
_0-2_躯体
  6
CONTINUOUS
 62
    3
 10
643.3973
 20
1290.2285
 11
642.92519
 21
1289.9377
  0
LINE
  8
_0-2_躯体
  6
CONTINUOUS
 62
    3
 10
642.92519
 20
1289.9377
 11
642.44372
 21
1289.6374
  0
LINE
  8
_0-2_躯体
  6
CONTINUOUS
 62
    3
 10
642.44372
 20
1289.6374
 11
641.95394
 21
1289.3216
  0
LINE
  8
_0-2_躯体
  6
CONTINUOUS
 62
    3
 10
641.95394
 20
1289.3216
 11
641.45599
 21
1288.9954
  0
LINE
  8
_0-2_躯体
  6
CONTINUOUS
 62
    3
 10
641.45599
 20
1288.9954
 11
640.94809
 21
1288.6547
  0
LINE
  8
_0-2_躯体
  6
CONTINUOUS
 62
    3
 10
640.94809
 20
1288.6547
 11
640.43337
 21
1288.304
  0
LINE
  8
_0-2_躯体
  6
CONTINUOUS
 62
    3
 10
643.23711
 20
1280.352
 11
642.90633
 21
1280.2884
  0
LINE
  8
_0-2_躯体
  6
CONTINUOUS
 62
    3
 10
642.90633
 20
1280.2884
 11
642.58001
 21
1280.2295
  0
LINE
  8
_0-2_躯体
  6
CONTINUOUS
 62
    3
 10
642.58001
 20
1280.2295
 11
642.25962
 21
1280.1711
  0
LINE
  8
_0-2_躯体
  6
CONTINUOUS
 62
    3
 10
642.25962
 20
1280.1711
 11
641.94236
 21
1280.1138
  0
LINE
  8
_0-2_躯体
  6
CONTINUOUS
 62
    3
 10
641.94236
 20
1280.1138
 11
641.63192
 21
1280.0595
  0
LINE
  8
_0-2_躯体
  6
CONTINUOUS
 62
    3
 10
641.63192
 20
1280.0595
 11
641.3246
 21
1280.0086
  0
LINE
  8
_0-2_躯体
  6
CONTINUOUS
 62
    3
 10
641.3246
 20
1280.0086
 11
641.02277
 21
1279.9609
  0
LINE
  8
_0-2_躯体
  6
CONTINUOUS
 62
    3
 10
641.02277
 20
1279.9609
 11
640.72466
 21
1279.9145
  0
LINE
  8
_0-2_躯体
  6
CONTINUOUS
 62
    3
 10
640.72466
 20
1279.9145
 11
640.43337
 21
1279.8692
  0
LINE
  8
_0-2_躯体
  6
CONTINUOUS
 62
    3
 10
649.82282
 20
1274.436
 11
648.56563
 21
1274.7028
  0
LINE
  8
_0-2_躯体
  6
CONTINUOUS
 62
    3
 10
648.56563
 20
1274.7028
 11
647.35921
 21
1274.9604
  0
LINE
  8
_0-2_躯体
  6
CONTINUOUS
 62
    3
 10
647.35921
 20
1274.9604
 11
646.20817
 21
1275.2096
  0
LINE
  8
_0-2_躯体
  6
CONTINUOUS
 62
    3
 10
646.20817
 20
1275.2096
 11
645.11087
 21
1275.4515
  0
LINE
  8
_0-2_躯体
  6
CONTINUOUS
 62
    3
 10
645.11087
 20
1275.4515
 11
644.06687
 21
1275.684
  0
LINE
  8
_0-2_躯体
  6
CONTINUOUS
 62
    3
 10
644.06687
 20
1275.684
 11
643.07811
 21
1275.9099
  0
LINE
  8
_0-2_躯体
  6
CONTINUOUS
 62
    3
 10
643.07811
 20
1275.9099
 11
642.14219
 21
1276.1264
  0
LINE
  8
_0-2_躯体
  6
CONTINUOUS
 62
    3
 10
642.14219
 20
1276.1264
 11
641.26076
 21
1276.3354
  0
LINE
  8
_0-2_躯体
  6
CONTINUOUS
 62
    3
 10
641.26076
 20
1276.3354
 11
640.43337
 21
1276.5345
  0
LINE
  8
_0-2_躯体
  6
CONTINUOUS
 62
    3
 10
644.15224
 20
1275.4657
 11
643.66023
 21
1275.5995
  0
LINE
  8
_0-2_躯体
  6
CONTINUOUS
 62
    3
 10
643.66023
 20
1275.5995
 11
643.18827
 21
1275.7285
  0
LINE
  8
_0-2_躯体
  6
CONTINUOUS
 62
    3
 10
643.18827
 20
1275.7285
 11
642.73664
 21
1275.8556
  0
LINE
  8
_0-2_躯体
  6
CONTINUOUS
 62
    3
 10
642.73664
 20
1275.8556
 11
642.30609
 21
1275.9779
  0
LINE
  8
_0-2_躯体
  6
CONTINUOUS
 62
    3
 10
642.30609
 20
1275.9779
 11
641.89767
 21
1276.0957
  0
LINE
  8
_0-2_躯体
  6
CONTINUOUS
 62
    3
 10
641.89767
 20
1276.0957
 11
641.50765
 21
1276.2078
  0
LINE
  8
_0-2_躯体
  6
CONTINUOUS
 62
    3
 10
641.50765
 20
1276.2078
 11
641.13872
 21
1276.3176
  0
LINE
  8
_0-2_躯体
  6
CONTINUOUS
 62
    3
 10
641.13872
 20
1276.3176
 11
640.79146
 21
1276.4244
  0
LINE
  8
_0-2_躯体
  6
CONTINUOUS
 62
    3
 10
640.79146
 20
1276.4244
 11
640.46455
 21
1276.5283
  0
LINE
  8
_0-2_躯体
  6
CONTINUOUS
 62
    3
 10
636.43628
 20
1303.8951
 11
630.00066
 21
1303.8951
  0
LINE
  8
_0-2_躯体
  6
CONTINUOUS
 62
    3
 10
636.43628
 20
1241.982
 11
630.00066
 21
1241.982
  0
LINE
  8
_0-2_躯体
  6
CONTINUOUS
 62
    3
 10
633.36233
 20
1262.974
 11
635.69633
 21
1260.3392
  0
LINE
  8
_0-2_躯体
  6
CONTINUOUS
 62
    3
 10
635.69633
 20
1260.3392
 11
638.26194
 21
1257.602
  0
LINE
  8
_0-2_躯体
  6
CONTINUOUS
 62
    3
 10
638.26194
 20
1257.602
 11
641.02114
 21
1254.7942
  0
LINE
  8
_0-2_躯体
  6
CONTINUOUS
 62
    3
 10
641.02114
 20
1254.7942
 11
643.93905
 21
1251.9452
  0
LINE
  8
_0-2_躯体
  6
CONTINUOUS
 62
    3
 10
643.93905
 20
1251.9452
 11
646.98196
 21
1249.0822
  0
LINE
  8
_0-2_躯体
  6
CONTINUOUS
 62
    3
 10
646.98196
 20
1249.0822
 11
650.11915
 21
1246.2302
  0
LINE
  8
_0-2_躯体
  6
CONTINUOUS
 62
    3
 10
650.11915
 20
1246.2302
 11
653.32152
 21
1243.4117
  0
LINE
  8
_0-2_躯体
  6
CONTINUOUS
 62
    3
 10
653.32152
 20
1243.4117
 11
656.56234
 21
1240.6472
  0
LINE
  8
_0-2_躯体
  6
CONTINUOUS
 62
    3
 10
656.56234
 20
1240.6472
 11
659.81667
 21
1237.956
  0
LINE
  8
_0-2_躯体
  6
CONTINUOUS
 62
    3
 10
659.81667
 20
1237.956
 11
663.06238
 21
1235.3543
  0
LINE
  8
_0-2_躯体
  6
CONTINUOUS
 62
    3
 10
663.06238
 20
1235.3543
 11
666.279
 21
1232.8568
  0
LINE
  8
_0-2_躯体
  6
CONTINUOUS
 62
    3
 10
666.279
 20
1232.8568
 11
669.44811
 21
1230.4749
  0
LINE
  8
_0-2_躯体
  6
CONTINUOUS
 62
    3
 10
669.44811
 20
1230.4749
 11
672.55368
 21
1228.2198
  0
LINE
  8
_0-2_躯体
  6
CONTINUOUS
 62
    3
 10
672.55368
 20
1228.2198
 11
675.58175
 21
1226.0984
  0
LINE
  8
_0-2_躯体
  6
CONTINUOUS
 62
    3
 10
675.58175
 20
1226.0984
 11
678.52089
 21
1224.1169
  0
LINE
  8
_0-2_躯体
  6
CONTINUOUS
 62
    3
 10
678.52089
 20
1224.1169
 11
681.36071
 21
1222.2792
  0
LINE
  8
_0-2_躯体
  6
CONTINUOUS
 62
    3
 10
681.36071
 20
1222.2792
 11
684.09437
 21
1220.5864
  0
LINE
  8
_0-2_躯体
  6
CONTINUOUS
 62
    3
 10
684.09437
 20
1220.5864
 11
686.7161
 21
1219.0385
  0
LINE
  8
_0-2_躯体
  6
CONTINUOUS
 62
    3
 10
686.7161
 20
1219.0385
 11
689.22261
 21
1217.6322
  0
LINE
  8
_0-2_躯体
  6
CONTINUOUS
 62
    3
 10
689.22261
 20
1217.6322
 11
689.40715
 21
1217.5515
  0
LINE
  8
_0-2_躯体
  6
CONTINUOUS
 62
    3
 10
689.40715
 20
1217.5515
 11
689.58976
 21
1217.4748
  0
LINE
  8
_0-2_躯体
  6
CONTINUOUS
 62
    3
 10
689.58976
 20
1217.4748
 11
689.77074
 21
1217.4015
  0
LINE
  8
_0-2_躯体
  6
CONTINUOUS
 62
    3
 10
689.77074
 20
1217.4015
 11
689.94964
 21
1217.3325
  0
LINE
  8
_0-2_躯体
  6
CONTINUOUS
 62
    3
 10
689.94964
 20
1217.3325
 11
690.12661
 21
1217.2673
  0
LINE
  8
_0-2_躯体
  6
CONTINUOUS
 62
    3
 10
690.12661
 20
1217.2673
 11
690.3018
 21
1217.2055
  0
LINE
  8
_0-2_躯体
  6
CONTINUOUS
 62
    3
 10
690.3018
 20
1217.2055
 11
690.47535
 21
1217.1475
  0
LINE
  8
_0-2_躯体
  6
CONTINUOUS
 62
    3
 10
690.47535
 20
1217.1475
 11
690.64668
 21
1217.0942
  0
LINE
  8
_0-2_躯体
  6
CONTINUOUS
 62
    3
 10
690.64668
 20
1217.0942
 11
690.81622
 21
1217.0436
  0
LINE
  8
_0-2_躯体
  6
CONTINUOUS
 62
    3
 10
633.36233
 20
1262.974
 11
634.7423
 21
1263.6594
  0
LINE
  8
_0-2_躯体
  6
CONTINUOUS
 62
    3
 10
634.7423
 20
1263.6594
 11
635.97426
 21
1264.3789
  0
LINE
  8
_0-2_躯体
  6
CONTINUOUS
 62
    3
 10
635.97426
 20
1264.3789
 11
637.05879
 21
1265.1329
  0
LINE
  8
_0-2_躯体
  6
CONTINUOUS
 62
    3
 10
637.05879
 20
1265.1329
 11
637.99559
 21
1265.9211
  0
LINE
  8
_0-2_躯体
  6
CONTINUOUS
 62
    3
 10
637.99559
 20
1265.9211
 11
638.78468
 21
1266.7442
  0
LINE
  8
_0-2_躯体
  6
CONTINUOUS
 62
    3
 10
638.78468
 20
1266.7442
 11
639.42634
 21
1267.601
  0
LINE
  8
_0-2_躯体
  6
CONTINUOUS
 62
    3
 10
639.42634
 20
1267.601
 11
639.91998
 21
1268.4924
  0
LINE
  8
_0-2_躯体
  6
CONTINUOUS
 62
    3
 10
639.91998
 20
1268.4924
 11
640.2662
 21
1269.4176
  0
LINE
  8
_0-2_躯体
  6
CONTINUOUS
 62
    3
 10
640.2662
 20
1269.4176
 11
640.46455
 21
1270.3776
  0
LINE
  8
_0-2_躯体
  6
CONTINUOUS
 62
    3
 10
640.46573
 20
1246.0123
 11
640.46573
 21
1255.3594
  0
LINE
  8
_0-2_躯体
  6
CONTINUOUS
 62
    3
 10
692.79837
 20
1280.7931
 11
684.86342
 21
1298.2823
  0
LINE
  8
_0-2_躯体
  6
CONTINUOUS
 62
    3
 10
662.24836
 20
1185.7961
 11
630.00066
 21
1185.7961
  0
LINE
  8
_0-2_躯体
  6
CONTINUOUS
 62
    3
 10
667.63908
 20
1191.1866
 11
667.63908
 21
1204.2323
  0
LINE
  8
_0-2_躯体
  6
CONTINUOUS
 62
    3
 10
659.55329
 20
1180.9489
 11
630.00066
 21
1180.9489
  0
LINE
  8
_0-2_躯体
  6
CONTINUOUS
 62
    3
 10
662.24836
 20
1183.6444
 11
662.24836
 21
1185.7961
  0
LINE
  8
_0-2_躯体
  6
CONTINUOUS
 62
    3
 10
667.63908
 20
1230.5691
 11
667.63908
 21
1213.2195
  0
LINE
  8
_0-2_躯体
  6
CONTINUOUS
 62
    3
 10
660.98419
 20
1237.224
 11
630.00066
 21
1237.224
  0
LINE
  8
_0-2_躯体
  6
CONTINUOUS
 62
    3
 10
629.99992
 20
1354.4738
 11
837.50108
 21
1354.4738
  0
LINE
  8
_0-2_躯体
  6
CONTINUOUS
 62
    3
 10
629.99992
 20
1341.474
 11
837.50211
 21
1341.474
  0
LINE
  8
_0-2_躯体
  6
CONTINUOUS
 62
    3
 10
792.67775
 20
1449.474
 11
629.99992
 21
1366.5856
  0
LINE
  8
_0-2_躯体
  6
CONTINUOUS
 62
    3
 10
837.50004
 20
1302.7231
 11
955.00104
 21
1302.7231
  0
LINE
  8
_0-2_躯体
  6
CONTINUOUS
 62
    3
 10
837.50004
 20
1289.7233
 11
955.00104
 21
1289.7233
  0
LINE
  8
_0-2_躯体
  6
CONTINUOUS
 62
    3
 10
837.50004
 20
1267.4736
 11
955.00104
 21
1267.4736
  0
LINE
  8
_0-2_躯体
  6
CONTINUOUS
 62
    3
 10
837.50004
 20
1254.4741
 11
955.00104
 21
1254.4741
  0
LINE
  8
_0-2_躯体
  6
CONTINUOUS
 62
    3
 10
304.99984
 20
1302.7231
 11
629.99992
 21
1302.7231
  0
LINE
  8
_0-2_躯体
  6
CONTINUOUS
 62
    3
 10
304.99984
 20
1289.7233
 11
629.99992
 21
1289.7233
  0
LINE
  8
_0-2_躯体
  6
CONTINUOUS
 62
    3
 10
304.99984
 20
1267.4736
 11
629.99992
 21
1267.4736
  0
LINE
  8
_0-2_躯体
  6
CONTINUOUS
 62
    3
 10
304.99984
 20
1254.4741
 11
629.99992
 21
1254.4741
  0
LINE
  8
_0-2_躯体
  6
CONTINUOUS
 62
    3
 10
837.50004
 20
1209.4741
 11
837.50004
 21
1178.6525
  0
LINE
  8
_0-2_躯体
  6
CONTINUOUS
 62
    3
 10
837.50004
 20
1341.474
 11
837.50004
 21
1222.4738
  0
LINE
  8
_0-2_躯体
  6
CONTINUOUS
 62
    3
 10
780.3597
 20
1222.4738
 11
837.50108
 21
1222.4738
  0
LINE
  8
_0-2_躯体
  6
CONTINUOUS
 62
    3
 10
422.49995
 20
1222.4738
 11
629.99992
 21
1222.4738
  0
LINE
  8
_0-2_躯体
  6
CONTINUOUS
 62
    3
 10
422.49995
 20
1209.4741
 11
629.99992
 21
1209.4741
  0
LINE
  8
_0-2_躯体
  6
CONTINUOUS
 62
    3
 10
680.4291
 20
1209.4741
 11
837.50108
 21
1209.4741
  0
LINE
  8
_0-2_躯体
  6
CONTINUOUS
 62
    3
 10
289.95391
 20
1411.0017
 11
629.99992
 21
1489.4741
  0
LINE
  8
_0-2_躯体
  6
CONTINUOUS
 62
    3
 10
969.33404
 20
1411.1659
 11
629.99992
 21
1489.4741
  0
LINE
  8
_0-2_躯体
  6
CONTINUOUS
 62
    3
 10
629.99992
 20
1449.474
 11
792.67775
 21
1449.474
  0
LINE
  8
_0-2_躯体
  6
CONTINUOUS
 62
    3
 10
304.99984
 20
1414.474
 11
629.64376
 21
1414.474
  0
LINE
  8
_0-2_躯体
  6
CONTINUOUS
 62
    3
 10
723.98632
 20
1414.474
 11
955
 21
1414.474
  0
LINE
  8
_0-2_躯体
  6
CENTER2
 62
    7
 10
629.99992
 20
1489.4741
 11
629.99992
 21
1059.4739
  0
LINE
  8
_0-2_躯体
  6
CENTER2
 62
    7
 10
629.99992
 20
1489.4741
 11
629.99992
 21
1059.4741
  0
LINE
  8
_0-2_躯体
  6
CONTINUOUS
 62
    3
 10
837.50004
 20
1119.474
 11
837.50004
 21
1209.4741
  0
LINE
  8
_0-2_躯体
  6
CONTINUOUS
 62
    3
 10
939.99995
 20
1119.474
 11
837.50004
 21
1178.6524
  0
ARC
  8
_0-2_躯体
  6
CONTINUOUS
 62
    3
 10
422.49995
 20
1215.9739
 40
6.4996993
 50
90
 51
270
  0
ARC
  8
_0-2_躯体
  6
CONTINUOUS
 62
    3
 10
837.50004
 20
1215.9739
 40
6.4996993
 50
270
 51
90
  0
ARC
  8
_0-2_躯体
  6
CONTINUOUS
 62
    3
 10
304.99984
 20
1296.2234
 40
6.4996993
 50
90
 51
270
  0
ARC
  8
_0-2_躯体
  6
CONTINUOUS
 62
    3
 10
304.99984
 20
1260.9739
 40
6.4996993
 50
90
 51
270
  0
ARC
  8
_0-2_躯体
  6
CONTINUOUS
 62
    3
 10
955
 20
1296.2234
 40
6.4996993
 50
270
 51
90
  0
ARC
  8
_0-2_躯体
  6
CONTINUOUS
 62
    3
 10
955
 20
1260.9739
 40
6.4996993
 50
270
 51
90
  0
ARC
  8
_0-2_躯体
  6
CONTINUOUS
 62
    3
 10
636.43628
 20
1246.0123
 40
4.0294089
 50
270
 51
0
  0
ARC
  8
_0-2_躯体
  6
CONTINUOUS
 62
    3
 10
636.43628
 20
1299.8646
 40
4.0294089
 50
0
 51
90
  0
ARC
  8
_0-2_躯体
  6
CONTINUOUS
 62
    3
 10
662.24836
 20
1191.1866
 40
5.3905494
 50
270
 51
0
  0
ARC
  8
_0-2_躯体
  6
CONTINUOUS
 62
    3
 10
659.55329
 20
1183.6444
 40
2.6952747
 50
270
 51
0
  0
ARC
  8
_0-2_躯体
  6
CONTINUOUS
 62
    3
 10
837.50108
 20
1347.974
 40
6.4996993
 50
270
 51
90
  0
TEXT
  8
_0-d_文字
 62
    7
 10
152.99987
 20
94.499931
 40
15
 41
1
 50
0.0000354
  1
図
  0
TEXT
  8
_0-d_文字
 62
    7
 10
152.99987
 20
58.49997
 40
15
 41
1
 50
0
  1
番
  0
TEXT
  8
_0-d_文字
 62
    7
 10
393.00026
 20
94.499931
 40
15
 41
1
 50
0.0000354
  1
承
  0
TEXT
  8
_0-d_文字
 62
    7
 10
393.00026
 20
58.49997
 40
15
 41
1
 50
0
  1
認
  0
TEXT
  8
_0-d_文字
 62
    7
 10
612.00015
 20
142.49995
 40
15
 41
1
 50
0
  1
尺
  0
TEXT
  8
_0-d_文字
 62
    7
 10
612.00015
 20
118.49985
 40
15
 41
1
 50
0.0000708
  1
度
  0
TEXT
  8
_0-d_文字
 62
    7
 10
513.00006
 20
94.499931
 40
15
 41
1
 50
0.0000354
  1
製
  0
TEXT
  8
_0-d_文字
 62
    7
 10
513.00006
 20
58.49997
 40
15
 41
1
 50
0
  1
図
  0
TEXT
  8
_0-d_文字
 62
    7
 10
933.00002
 20
142.49995
 40
15
 41
1
 50
0
  1
日
  0
TEXT
  8
_0-d_文字
 62
    7
 10
933.00002
 20
118.49985
 40
15
 41
1
 50
0.0000708
  1
付
  0
TEXT
  8
_0-d_文字
 62
    7
 10
666.85579
 20
98.089352
 40
12
 41
1
 50
0
  1
株式
  0
TEXT
  8
_0-d_文字
 62
    7
 10
666.85579
 20
85.111074
 40
12
 41
1
 50
0.0000196
  1
会社
  0
TEXT
  8
_0-d_文字
 62
    3
 10
704.5348
 20
85.948271
 40
24
 41
1
 50
0
  1
スズキベンチレーター
  0
TEXT
  8
_0-d_文字
 62
    7
 10
742.75091
 20
56.414507
 40
12
 41
1
 50
0
  1
TEL(054)296-7000  FAX(054)296-7001
  0
TEXT
  8
_0-d_文字
 62
    3
 10
650.6094
 20
126.06037
 40
24
 41
1
 50
0.0000136
  1
１／６
  0
TEXT
  8
_0-8_寸法
 62
    3
 10
612.37504
 20
1594.4181
 40
18
 41
1
 50
0
  1
650
  0
TEXT
  8
_0-8_寸法
 62
    3
 10
600.99988
 20
947.93461
 40
18
 41
1
 50
0
  1
620*620
  0
TEXT
  8
_0-8_寸法
 62
    3
 10
144.0004
 20
1261.724
 40
18
 41
1
 50
90
  1
430
  0
TEXT
  8
_0-d_文字
 62
    7
 10
741.40752
 20
71.187555
 40
12
 41
1
 50
0
  1
〒421-2114　静岡市葵区安倍口新田１５２番地
  0
TEXT
  8
_0-d_文字
 62
    3
 10
152.99997
 20
1669.6207
 40
30
 41
1
 50
0
  1
ＳＴ－４０Ｌ　架台型（低騒音）断面
  0
TEXT
  8
_0-d_文字
 62
    3
 10
169.70143
 20
125.58896
 40
18
 41
1
 50
0
  1
ＳＴ－４０Ｌ　架台型（低騒音）断面
  0
TEXT
  8
_0-d_文字
 62
    3
 10
185.07555
 20
84.181282
 40
18
 41
1
 50
0
  1
40L-02b
  0
POINT
  8
_0-8_寸法
 62
    2
 10
150.00042
 20
1489.4741
  0
POINT
  8
_0-8_寸法
 62
    2
 10
304.99984
 20
1574.9174
  0
POINT
  8
_0-8_寸法
 62
    2
 10
955.00104
 20
1574.9174
  0
POINT
  8
_0-8_寸法
 62
    2
 10
320.00004
 20
934.93451
  0
POINT
  8
_0-8_寸法
 62
    2
 10
939.99995
 20
934.93451
  0
POINT
  8
_0-8_寸法
 62
    2
 10
150.00042
 20
1059.4741
  0
ENDSEC
  0
EOF
