  0
SECTION
  2
HEADER
  9
$ACADVER
  1
AC1009
  9
$INSBASE
 10
0
 20
0
 30
0
  9
$EXTMIN
 10
0
 20
0
  9
$EXTMAX
 10
2520
 20
1782
  9
$LIMMIN
 10
0
 20
0
  9
$LIMMAX
 10
2520
 20
1782
  9
$LTSCALE
 40
6
  0
ENDSEC
  0
SECTION
  2
TABLES
  0
TABLE
  2
LTYPE
 70
     9
  0
LTYPE
  2
CONTINUOUS
 70
    64
  3
実線
 72
    65
 73
     0
 40
0.0
  0
LTYPE
  2
DASHED1
 70
    64
  3
--  --  --  --  --  --  --  --  
 72
    65
 73
     2
 40
2.5
 49
1.25
 49
-1.25
  0
LTYPE
  2
DASHED2
 70
    64
  3
----    ----    ----    ----    
 72
    65
 73
     2
 40
5.0
 49
2.5
 49
-2.5
  0
LTYPE
  2
DASHED3
 70
    64
  3
------  ------  ------  ------  
 72
    65
 73
     2
 40
5.0
 49
3.75
 49
-1.25
  0
LTYPE
  2
CENTER1
 70
    64
  3
----- - ----- - ----- - ----- - 
 72
    65
 73
     4
 40
10.0
 49
6.25
 49
-1.25
 49
1.25
 49
-1.25
  0
LTYPE
  2
CENTER2
 70
    64
  3
----------  --  ----------  --  
 72
    65
 73
     4
 40
20.0
 49
12.5
 49
-2.5
 49
2.5
 49
-2.5
  0
LTYPE
  2
PHANTOM1
 70
    64
  3
--- - - --- - - --- - - --- - - 
 72
    65
 73
     6
 40
10.0
 49
3.25
 49
-1.25
 49
1.25
 49
-1.25
 49
1.25
 49
-1.25
  0
LTYPE
  2
PHANTOM2
 70
    64
  3
--------  -  -  --------  -  -  
 72
    65
 73
     6
 40
20.0
 49
10.0
 49
-2.5
 49
1.25
 49
-2.5
 49
1.25
 49
-2.5
  0
LTYPE
  2
DOT
 70
    64
  3
-   -   -   -   -   -   -   -   
 72
    65
 73
     2
 40
2.5
 49
0.625
 49
-1.875
  0
LTYPE
  2
DUMMY
 70
    64
  3
ダミー
 72
    65
 73
     0
 40
0.0
  0
LTYPE
  2
RAND1
 70
    64
  3
----- - ----- - ----- - ----- - 
 72
    65
 73
     4
 40
10.0
 49
6.25
 49
-1.25
 49
1.25
 49
-1.25
  0
LTYPE
  2
RAND2
 70
    64
  3
----------  --  ----------  --  
 72
    65
 73
     4
 40
20.0
 49
12.5
 49
-2.5
 49
2.5
 49
-2.5
  0
LTYPE
  2
RAND3
 70
    64
  3
--- - - --- - - --- - - --- - - 
 72
    65
 73
     6
 40
10.0
 49
3.25
 49
-1.25
 49
1.25
 49
-1.25
 49
1.25
 49
-1.25
  0
LTYPE
  2
RAND4
 70
    64
  3
--------  -  -  --------  -  -  
 72
    65
 73
     6
 40
20.0
 49
10.0
 49
-2.5
 49
1.25
 49
-2.5
 49
1.25
 49
-2.5
  0
LTYPE
  2
RAND5
 70
    64
  3
----- - ----- - ----- - ----- - 
 72
    65
 73
     4
 40
10.0
 49
6.25
 49
-1.25
 49
1.25
 49
-1.25
  0
LTYPE
  2
LONG1
 70
    64
  3
----------  --  ----------  --  
 72
    65
 73
     4
 40
20.0
 49
12.5
 49
-2.5
 49
2.5
 49
-2.5
  0
LTYPE
  2
LONG2
 70
    64
  3
--- - - --- - - --- - - --- - - 
 72
    65
 73
     6
 40
10.0
 49
3.25
 49
-1.25
 49
1.25
 49
-1.25
 49
1.25
 49
-1.25
  0
LTYPE
  2
LONG3
 70
    64
  3
--------  -  -  --------  -  -  
 72
    65
 73
     6
 40
20.0
 49
10.0
 49
-2.5
 49
1.25
 49
-2.5
 49
1.25
 49
-2.5
  0
LTYPE
  2
LONG4
 70
    64
  3
----- - ----- - ----- - ----- - 
 72
    65
 73
     4
 40
10.0
 49
6.25
 49
-1.25
 49
1.25
 49
-1.25
  0
LTYPE
  2
LONG5
 70
    64
  3
----------  --  ----------  --  
 72
    65
 73
     4
 40
20.0
 49
12.5
 49
-2.5
 49
2.5
 49
-2.5
  0
ENDTAB
  0
TABLE
  2
STYLE
  5
3
100
AcDbSymbolTable
 70
     1
  0
STYLE
  5
10
100
AcDbSymbolTableRecord
100
AcDbTextStyleTableRecord
  2
STANDARD
 70
     0
 40
0.0
 41
1.0
 50
0.0
 71
     0
 42
0.2
  3
txt
  4
bigfont.shx
  0
STYLE
  5
26
100
AcDbSymbolTableRecord
100
AcDbTextStyleTableRecord
  2
TATEGAKI
 70
    68
 40
0.0
 41
1.0
 50
0.0
 71
     0
 42
1.0
  3
txt
  4
bigfont.shx
  0
ENDTAB
  0
TABLE
  2
LAYER
 70
    4
  0
LAYER
  2
_0-2_躯体
 70
   64
 62
    7
  6
CONTINUOUS
  0
LAYER
  2
_0-8_寸法
 70
   64
 62
    7
  6
CONTINUOUS
  0
LAYER
  2
_0-d_文字
 70
   64
 62
    7
  6
CONTINUOUS
  0
LAYER
  2
ADD_LINE
 70
   64
 62
    7
  6
CONTINUOUS
  0
ENDTAB
  0
ENDSEC
  0
SECTION
  2
BLOCKS
  0
ENDSEC
  0
SECTION
  2
ENTITIES
  0
LINE
  8
_0-d_文字
  6
CONTINUOUS
 62
    7
 10
149.99978
 20
113.99993
 11
1110.0001
 21
113.99993
  0
LINE
  8
_0-d_文字
  6
CONTINUOUS
 62
    7
 10
149.99978
 20
53.999881
 11
149.99978
 21
161.99994
  0
LINE
  8
_0-d_文字
  6
CONTINUOUS
 62
    7
 10
149.99978
 20
53.999881
 11
1110.0001
 21
53.999881
  0
LINE
  8
_0-d_文字
  6
CONTINUOUS
 62
    7
 10
1110.0001
 20
161.99994
 11
1110.0001
 21
53.999881
  0
LINE
  8
_0-d_文字
  6
CONTINUOUS
 62
    7
 10
149.99978
 20
161.99994
 11
1110.0001
 21
161.99994
  0
LINE
  8
_0-d_文字
  6
CONTINUOUS
 62
    7
 10
630
 20
161.99994
 11
630
 21
53.999881
  0
LINE
  8
_0-d_文字
  6
CONTINUOUS
 62
    7
 10
390.00009
 20
53.999881
 11
390.00009
 21
113.99993
  0
LINE
  8
_0-d_文字
  6
CONTINUOUS
 62
    7
 10
630
 20
113.99993
 11
630
 21
161.99994
  0
LINE
  8
_0-d_文字
  6
CONTINUOUS
 62
    7
 10
509.99982
 20
53.999881
 11
509.99982
 21
113.99993
  0
LINE
  8
_0-d_文字
  6
CONTINUOUS
 62
    7
 10
171
 20
53.999881
 11
171
 21
113.99993
  0
LINE
  8
_0-d_文字
  6
CONTINUOUS
 62
    7
 10
411.00001
 20
53.999881
 11
411.00001
 21
113.99993
  0
LINE
  8
_0-d_文字
  6
CONTINUOUS
 62
    7
 10
531.00004
 20
53.999881
 11
531.00004
 21
113.99993
  0
LINE
  8
_0-d_文字
  6
CONTINUOUS
 62
    7
 10
609
 20
113.99993
 11
609
 21
161.99994
  0
LINE
  8
_0-d_文字
  6
CONTINUOUS
 62
    7
 10
930.00017
 20
113.99993
 11
930.00017
 21
161.99994
  0
LINE
  8
_0-d_文字
  6
CONTINUOUS
 62
    7
 10
951.00009
 20
113.99993
 11
951.00009
 21
161.99994
  0
LINE
  8
_0-8_寸法
  6
CONTINUOUS
 62
    7
 10
304.99991
 20
1568.9174
 11
955.00097
 21
1568.9174
  0
LINE
  8
_0-2_躯体
  6
CONTINUOUS
 62
    3
 10
304.99991
 20
1408.4739
 11
304.99991
 21
1296.7231
  0
LINE
  8
_0-2_躯体
  6
CONTINUOUS
 62
    3
 10
304.99991
 20
1283.7233
 11
304.99991
 21
1261.4736
  0
LINE
  8
_0-2_躯体
  6
CONTINUOUS
 62
    3
 10
422.49988
 20
1248.4741
 11
422.49988
 21
1216.4738
  0
LINE
  8
_0-8_寸法
  6
CONTINUOUS
 62
    7
 10
304.99991
 20
1446.7892
 11
304.99991
 21
1568.9174
  0
LINE
  8
_0-8_寸法
  6
CONTINUOUS
 62
    7
 10
955.00097
 20
1446.7892
 11
955.00097
 21
1568.9174
  0
LINE
  8
_0-8_寸法
  6
CONTINUOUS
 62
    7
 10
319.99996
 20
982.6926
 11
319.99996
 21
928.93449
  0
LINE
  8
_0-8_寸法
  6
CONTINUOUS
 62
    7
 10
939.99988
 20
982.6926
 11
939.99988
 21
928.93449
  0
LINE
  8
_0-8_寸法
  6
CONTINUOUS
 62
    7
 10
150.00049
 20
1053.4741
 11
150.00049
 21
1483.474
  0
LINE
  8
_0-8_寸法
  6
CONTINUOUS
 62
    7
 10
319.99996
 20
928.93449
 11
939.99988
 21
928.93449
  0
LINE
  8
_0-8_寸法
  6
CONTINUOUS
 62
    7
 10
273.85976
 20
1053.4741
 11
150.00049
 21
1053.4741
  0
LINE
  8
_0-8_寸法
  6
CONTINUOUS
 62
    7
 10
273.85976
 20
1483.474
 11
150.00049
 21
1483.474
  0
LINE
  8
_0-2_躯体
  6
CONTINUOUS
 62
    3
 10
319.99996
 20
1053.4741
 11
319.99996
 21
1113.474
  0
LINE
  8
_0-2_躯体
  6
CONTINUOUS
 62
    3
 10
319.99996
 20
1053.4741
 11
939.99988
 21
1053.4741
  0
LINE
  8
_0-2_躯体
  6
CONTINUOUS
 62
    3
 10
319.99996
 20
1113.474
 11
939.99988
 21
1113.474
  0
LINE
  8
_0-2_躯体
  6
CONTINUOUS
 62
    3
 10
319.99996
 20
1113.474
 11
466.89905
 21
1198.2863
  0
LINE
  8
_0-2_躯体
  6
CONTINUOUS
 62
    3
 10
466.89905
 20
1198.2863
 11
466.89905
 21
1113.474
  0
LINE
  8
_0-2_躯体
  6
CONTINUOUS
 62
    3
 10
422.49988
 20
1203.4741
 11
422.49988
 21
1172.6525
  0
LINE
  8
_0-d_文字
  6
CONTINUOUS
 62
    7
 10
149.99997
 20
1654.6207
 11
1109.9999
 21
1654.6207
  0
LINE
  8
_0-d_文字
  6
CONTINUOUS
 62
    7
 10
149.99997
 20
1660.6207
 11
1109.9999
 21
1660.6207
  0
LINE
  8
_0-2_躯体
  6
CONTINUOUS
 62
    3
 10
304.99991
 20
1296.7231
 11
630
 21
1296.7231
  0
LINE
  8
_0-2_躯体
  6
CONTINUOUS
 62
    3
 10
304.99991
 20
1283.7233
 11
630
 21
1283.7233
  0
LINE
  8
_0-2_躯体
  6
CONTINUOUS
 62
    3
 10
304.99991
 20
1261.4736
 11
630
 21
1261.4736
  0
LINE
  8
_0-2_躯体
  6
CONTINUOUS
 62
    3
 10
304.99991
 20
1248.4741
 11
630
 21
1248.4741
  0
LINE
  8
_0-2_躯体
  6
CONTINUOUS
 62
    3
 10
422.49988
 20
1216.4738
 11
630
 21
1216.4738
  0
LINE
  8
_0-2_躯体
  6
CONTINUOUS
 62
    3
 10
422.49988
 20
1203.4741
 11
630
 21
1203.4741
  0
LINE
  8
_0-2_躯体
  6
CONTINUOUS
 62
    3
 10
289.95384
 20
1405.0017
 11
630
 21
1483.474
  0
LINE
  8
_0-2_躯体
  6
CONTINUOUS
 62
    3
 10
969.33397
 20
1405.1659
 11
630
 21
1483.474
  0
LINE
  8
_0-2_躯体
  6
CONTINUOUS
 62
    3
 10
304.99991
 20
1408.4739
 11
629.64368
 21
1408.4739
  0
LINE
  8
_0-2_躯体
  6
CONTINUOUS
 62
    3
 10
955.00008
 20
1408.4739
 11
955.00008
 21
1296.7231
  0
LINE
  8
_0-2_躯体
  6
CONTINUOUS
 62
    3
 10
955.00008
 20
1283.7233
 11
955.00008
 21
1261.4736
  0
LINE
  8
_0-2_躯体
  6
CONTINUOUS
 62
    3
 10
837.50011
 20
1248.4741
 11
837.50011
 21
1216.4738
  0
LINE
  8
_0-2_躯体
  6
CONTINUOUS
 62
    3
 10
940.00003
 20
1053.4741
 11
940.00003
 21
1113.474
  0
LINE
  8
_0-2_躯体
  6
CONTINUOUS
 62
    3
 10
940.00003
 20
1113.474
 11
793.10094
 21
1198.2863
  0
LINE
  8
_0-2_躯体
  6
CONTINUOUS
 62
    3
 10
793.10094
 20
1198.2863
 11
793.10094
 21
1113.474
  0
LINE
  8
_0-2_躯体
  6
CONTINUOUS
 62
    3
 10
837.50011
 20
1203.4741
 11
837.50011
 21
1172.6525
  0
LINE
  8
_0-2_躯体
  6
CONTINUOUS
 62
    3
 10
955.00008
 20
1296.7231
 11
630
 21
1296.7231
  0
LINE
  8
_0-2_躯体
  6
CONTINUOUS
 62
    3
 10
955.00008
 20
1283.7233
 11
630
 21
1283.7233
  0
LINE
  8
_0-2_躯体
  6
CONTINUOUS
 62
    3
 10
955.00008
 20
1261.4736
 11
630
 21
1261.4736
  0
LINE
  8
_0-2_躯体
  6
CONTINUOUS
 62
    3
 10
955.00008
 20
1248.4741
 11
630
 21
1248.4741
  0
LINE
  8
_0-2_躯体
  6
CONTINUOUS
 62
    3
 10
837.50011
 20
1216.4738
 11
630
 21
1216.4738
  0
LINE
  8
_0-2_躯体
  6
CONTINUOUS
 62
    3
 10
837.50011
 20
1203.4741
 11
630
 21
1203.4741
  0
LINE
  8
_0-2_躯体
  6
CONTINUOUS
 62
    3
 10
955.00008
 20
1408.4739
 11
630.35631
 21
1408.4739
  0
LINE
  8
_0-8_寸法
  6
CENTER2
 62
    7
 10
630
 20
1551.8918
 11
630
 21
982.57049
  0
ARC
  8
_0-2_躯体
  6
CONTINUOUS
 62
    3
 10
422.49988
 20
1209.9739
 40
6.4996993
 50
90
 51
270
  0
ARC
  8
_0-2_躯体
  6
CONTINUOUS
 62
    3
 10
304.99991
 20
1290.2233
 40
6.4996993
 50
90
 51
270
  0
ARC
  8
_0-2_躯体
  6
CONTINUOUS
 62
    3
 10
304.99991
 20
1254.9739
 40
6.4996993
 50
90
 51
270
  0
ARC
  8
_0-2_躯体
  6
CONTINUOUS
 62
    3
 10
837.50011
 20
1209.9739
 40
6.4996993
 50
270
 51
90
  0
ARC
  8
_0-2_躯体
  6
CONTINUOUS
 62
    3
 10
955.00008
 20
1290.2233
 40
6.4996993
 50
270
 51
90
  0
ARC
  8
_0-2_躯体
  6
CONTINUOUS
 62
    3
 10
955.00008
 20
1254.9739
 40
6.4996993
 50
270
 51
90
  0
TEXT
  8
_0-d_文字
 62
    7
 10
152.99987
 20
94.499931
 40
15
 41
1
 50
0.0000354
  1
図
  0
TEXT
  8
_0-d_文字
 62
    7
 10
152.99987
 20
58.49997
 40
15
 41
1
 50
0
  1
番
  0
TEXT
  8
_0-d_文字
 62
    7
 10
393.00026
 20
94.499931
 40
15
 41
1
 50
0.0000354
  1
承
  0
TEXT
  8
_0-d_文字
 62
    7
 10
393.00026
 20
58.49997
 40
15
 41
1
 50
0
  1
認
  0
TEXT
  8
_0-d_文字
 62
    7
 10
612.00015
 20
142.49995
 40
15
 41
1
 50
0
  1
尺
  0
TEXT
  8
_0-d_文字
 62
    7
 10
612.00015
 20
118.49985
 40
15
 41
1
 50
0.0000708
  1
度
  0
TEXT
  8
_0-d_文字
 62
    7
 10
513.00006
 20
94.499931
 40
15
 41
1
 50
0.0000354
  1
製
  0
TEXT
  8
_0-d_文字
 62
    7
 10
513.00006
 20
58.49997
 40
15
 41
1
 50
0
  1
図
  0
TEXT
  8
_0-d_文字
 62
    7
 10
933.00002
 20
142.49995
 40
15
 41
1
 50
0
  1
日
  0
TEXT
  8
_0-d_文字
 62
    7
 10
933.00002
 20
118.49985
 40
15
 41
1
 50
0.0000708
  1
付
  0
TEXT
  8
_0-d_文字
 62
    7
 10
666.85579
 20
98.089352
 40
12
 41
1
 50
0
  1
株式
  0
TEXT
  8
_0-d_文字
 62
    7
 10
666.85579
 20
85.111074
 40
12
 41
1
 50
0.0000196
  1
会社
  0
TEXT
  8
_0-d_文字
 62
    3
 10
704.5348
 20
85.948271
 40
24
 41
1
 50
0
  1
スズキベンチレーター
  0
TEXT
  8
_0-d_文字
 62
    7
 10
742.75091
 20
56.414507
 40
12
 41
1
 50
0
  1
TEL(054)296-7000  FAX(054)296-7001
  0
TEXT
  8
_0-d_文字
 62
    3
 10
650.6094
 20
126.06037
 40
24
 41
1
 50
0.0000136
  1
１／６
  0
TEXT
  8
_0-8_寸法
 62
    3
 10
612.37512
 20
1588.4181
 40
18
 41
1
 50
0.0002835
  1
650
  0
TEXT
  8
_0-8_寸法
 62
    3
 10
130.5005
 20
1264.4728
 40
18
 41
1
 50
90
  1
430
  0
TEXT
  8
_0-8_寸法
 62
    3
 10
600.99996
 20
941.93459
 40
18
 41
1
 50
0
  1
620*620
  0
TEXT
  8
_0-d_文字
 62
    7
 10
741.40752
 20
71.187555
 40
12
 41
1
 50
0
  1
〒421-2114　静岡市葵区安倍口新田１５２番地
  0
TEXT
  8
_0-d_文字
 62
    3
 10
152.99996
 20
1663.6207
 40
30
 41
1
 50
0
  1
ＳＴ－４０Ｌ　架台型（低騒音） 立面
  0
TEXT
  8
_0-d_文字
 62
    3
 10
169.70144
 20
125.58896
 40
18
 41
1
 50
0
  1
ＳＴ－４０Ｌ　架台型（低騒音） 立面
  0
TEXT
  8
_0-d_文字
 62
    3
 10
185.07555
 20
84.181282
 40
18
 41
1
 50
0
  1
40L-01B
  0
POINT
  8
_0-8_寸法
 62
    2
 10
150.00049
 20
1483.474
  0
POINT
  8
_0-8_寸法
 62
    2
 10
304.99991
 20
1568.9174
  0
POINT
  8
_0-8_寸法
 62
    2
 10
955.00097
 20
1568.9174
  0
POINT
  8
_0-8_寸法
 62
    2
 10
319.99996
 20
928.93449
  0
POINT
  8
_0-8_寸法
 62
    2
 10
939.99988
 20
928.93449
  0
POINT
  8
_0-8_寸法
 62
    2
 10
150.00049
 20
1053.4741
  0
ENDSEC
  0
EOF
