  0
SECTION
  2
HEADER
  9
$ACADVER
  1
AC1009
  9
$INSBASE
 10
0
 20
0
 30
0
  9
$EXTMIN
 10
0
 20
0
  9
$EXTMAX
 10
2520
 20
1782
  9
$LIMMIN
 10
0
 20
0
  9
$LIMMAX
 10
2520
 20
1782
  9
$LTSCALE
 40
6
  0
ENDSEC
  0
SECTION
  2
TABLES
  0
TABLE
  2
LTYPE
 70
     9
  0
LTYPE
  2
CONTINUOUS
 70
    64
  3
実線
 72
    65
 73
     0
 40
0.0
  0
LTYPE
  2
DASHED1
 70
    64
  3
--  --  --  --  --  --  --  --  
 72
    65
 73
     2
 40
2.5
 49
1.25
 49
-1.25
  0
LTYPE
  2
DASHED2
 70
    64
  3
----    ----    ----    ----    
 72
    65
 73
     2
 40
5.0
 49
2.5
 49
-2.5
  0
LTYPE
  2
DASHED3
 70
    64
  3
------  ------  ------  ------  
 72
    65
 73
     2
 40
5.0
 49
3.75
 49
-1.25
  0
LTYPE
  2
CENTER1
 70
    64
  3
----- - ----- - ----- - ----- - 
 72
    65
 73
     4
 40
10.0
 49
6.25
 49
-1.25
 49
1.25
 49
-1.25
  0
LTYPE
  2
CENTER2
 70
    64
  3
----------  --  ----------  --  
 72
    65
 73
     4
 40
20.0
 49
12.5
 49
-2.5
 49
2.5
 49
-2.5
  0
LTYPE
  2
PHANTOM1
 70
    64
  3
--- - - --- - - --- - - --- - - 
 72
    65
 73
     6
 40
10.0
 49
3.25
 49
-1.25
 49
1.25
 49
-1.25
 49
1.25
 49
-1.25
  0
LTYPE
  2
PHANTOM2
 70
    64
  3
--------  -  -  --------  -  -  
 72
    65
 73
     6
 40
20.0
 49
10.0
 49
-2.5
 49
1.25
 49
-2.5
 49
1.25
 49
-2.5
  0
LTYPE
  2
DOT
 70
    64
  3
-   -   -   -   -   -   -   -   
 72
    65
 73
     2
 40
2.5
 49
0.625
 49
-1.875
  0
LTYPE
  2
DUMMY
 70
    64
  3
ダミー
 72
    65
 73
     0
 40
0.0
  0
LTYPE
  2
RAND1
 70
    64
  3
----- - ----- - ----- - ----- - 
 72
    65
 73
     4
 40
10.0
 49
6.25
 49
-1.25
 49
1.25
 49
-1.25
  0
LTYPE
  2
RAND2
 70
    64
  3
----------  --  ----------  --  
 72
    65
 73
     4
 40
20.0
 49
12.5
 49
-2.5
 49
2.5
 49
-2.5
  0
LTYPE
  2
RAND3
 70
    64
  3
--- - - --- - - --- - - --- - - 
 72
    65
 73
     6
 40
10.0
 49
3.25
 49
-1.25
 49
1.25
 49
-1.25
 49
1.25
 49
-1.25
  0
LTYPE
  2
RAND4
 70
    64
  3
--------  -  -  --------  -  -  
 72
    65
 73
     6
 40
20.0
 49
10.0
 49
-2.5
 49
1.25
 49
-2.5
 49
1.25
 49
-2.5
  0
LTYPE
  2
RAND5
 70
    64
  3
----- - ----- - ----- - ----- - 
 72
    65
 73
     4
 40
10.0
 49
6.25
 49
-1.25
 49
1.25
 49
-1.25
  0
LTYPE
  2
LONG1
 70
    64
  3
----------  --  ----------  --  
 72
    65
 73
     4
 40
20.0
 49
12.5
 49
-2.5
 49
2.5
 49
-2.5
  0
LTYPE
  2
LONG2
 70
    64
  3
--- - - --- - - --- - - --- - - 
 72
    65
 73
     6
 40
10.0
 49
3.25
 49
-1.25
 49
1.25
 49
-1.25
 49
1.25
 49
-1.25
  0
LTYPE
  2
LONG3
 70
    64
  3
--------  -  -  --------  -  -  
 72
    65
 73
     6
 40
20.0
 49
10.0
 49
-2.5
 49
1.25
 49
-2.5
 49
1.25
 49
-2.5
  0
LTYPE
  2
LONG4
 70
    64
  3
----- - ----- - ----- - ----- - 
 72
    65
 73
     4
 40
10.0
 49
6.25
 49
-1.25
 49
1.25
 49
-1.25
  0
LTYPE
  2
LONG5
 70
    64
  3
----------  --  ----------  --  
 72
    65
 73
     4
 40
20.0
 49
12.5
 49
-2.5
 49
2.5
 49
-2.5
  0
ENDTAB
  0
TABLE
  2
STYLE
  5
3
100
AcDbSymbolTable
 70
     1
  0
STYLE
  5
10
100
AcDbSymbolTableRecord
100
AcDbTextStyleTableRecord
  2
STANDARD
 70
     0
 40
0.0
 41
1.0
 50
0.0
 71
     0
 42
0.2
  3
txt
  4
bigfont.shx
  0
STYLE
  5
26
100
AcDbSymbolTableRecord
100
AcDbTextStyleTableRecord
  2
TATEGAKI
 70
    68
 40
0.0
 41
1.0
 50
0.0
 71
     0
 42
1.0
  3
txt
  4
bigfont.shx
  0
ENDTAB
  0
TABLE
  2
LAYER
 70
    4
  0
LAYER
  2
_0-2_躯体
 70
   64
 62
    7
  6
CONTINUOUS
  0
LAYER
  2
_0-8_寸法
 70
   64
 62
    7
  6
CONTINUOUS
  0
LAYER
  2
_0-d_文字
 70
   64
 62
    7
  6
CONTINUOUS
  0
LAYER
  2
ADD_LINE
 70
   64
 62
    7
  6
CONTINUOUS
  0
ENDTAB
  0
ENDSEC
  0
SECTION
  2
BLOCKS
  0
ENDSEC
  0
SECTION
  2
ENTITIES
  0
LINE
  8
_0-2_躯体
  6
CONTINUOUS
 62
    3
 10
290.31015
 20
1295.1319
 11
630
 21
1378.6565
  0
LINE
  8
_0-2_躯体
  6
CONTINUOUS
 62
    3
 10
969.69036
 20
1295.1319
 11
630
 21
1378.6565
  0
LINE
  8
_0-8_寸法
  6
CONTINUOUS
 62
    7
 10
150.00047
 20
993.65629
 11
150.00047
 21
1378.6565
  0
LINE
  8
_0-8_寸法
  6
CONTINUOUS
 62
    7
 10
262.75132
 20
993.65629
 11
150.00047
 21
993.65629
  0
LINE
  8
_0-8_寸法
  6
CONTINUOUS
 62
    7
 10
304.99991
 20
1464.0998
 11
955.00104
 21
1464.0998
  0
LINE
  8
_0-8_寸法
  6
CONTINUOUS
 62
    7
 10
422.49995
 20
924.11684
 11
837.50004
 21
924.11684
  0
LINE
  8
_0-d_文字
  6
CONTINUOUS
 62
    7
 10
150.00001
 20
1654.6207
 11
1110
 21
1654.6207
  0
LINE
  8
_0-d_文字
  6
CONTINUOUS
 62
    7
 10
150.00001
 20
1660.6207
 11
1110
 21
1660.6207
  0
LINE
  8
_0-2_躯体
  6
CONTINUOUS
 62
    3
 10
304.99991
 20
1298.6564
 11
955.00104
 21
1298.6564
  0
LINE
  8
_0-2_躯体
  6
CONTINUOUS
 62
    3
 10
304.99991
 20
1178.9058
 11
955.00104
 21
1178.9058
  0
LINE
  8
_0-2_躯体
  6
CONTINUOUS
 62
    3
 10
304.99991
 20
1191.9054
 11
955.00104
 21
1191.9054
  0
LINE
  8
_0-2_躯体
  6
CONTINUOUS
 62
    3
 10
304.99991
 20
1156.6562
 11
955.00104
 21
1156.6562
  0
LINE
  8
_0-2_躯体
  6
CONTINUOUS
 62
    3
 10
304.99991
 20
1298.6564
 11
304.99991
 21
1191.9054
  0
LINE
  8
_0-2_躯体
  6
CONTINUOUS
 62
    3
 10
304.99991
 20
1178.9058
 11
304.99991
 21
1156.6559
  0
LINE
  8
_0-2_躯体
  6
CONTINUOUS
 62
    3
 10
955.00104
 20
1298.6564
 11
955.00104
 21
1191.9054
  0
LINE
  8
_0-2_躯体
  6
CONTINUOUS
 62
    3
 10
422.49995
 20
1052.1562
 11
837.50108
 21
1052.1562
  0
LINE
  8
_0-2_躯体
  6
CONTINUOUS
 62
    3
 10
422.49995
 20
1065.1559
 11
837.50108
 21
1065.1559
  0
LINE
  8
_0-2_躯体
  6
CONTINUOUS
 62
    3
 10
422.49995
 20
1006.6562
 11
837.50108
 21
1006.6562
  0
LINE
  8
_0-2_躯体
  6
CONTINUOUS
 62
    3
 10
422.49995
 20
993.65644
 11
837.50108
 21
993.65644
  0
LINE
  8
_0-2_躯体
  6
CONTINUOUS
 62
    3
 10
422.49995
 20
1052.1562
 11
422.49995
 21
1006.6559
  0
LINE
  8
_0-2_躯体
  6
CONTINUOUS
 62
    3
 10
837.50004
 20
1052.1562
 11
837.50004
 21
1006.6559
  0
LINE
  8
_0-2_躯体
  6
CONTINUOUS
 62
    3
 10
422.49995
 20
1143.6564
 11
422.49995
 21
1065.1559
  0
LINE
  8
_0-2_躯体
  6
CONTINUOUS
 62
    3
 10
837.50004
 20
1143.6564
 11
837.50004
 21
1065.1559
  0
LINE
  8
_0-8_寸法
  6
CONTINUOUS
 62
    7
 10
304.99991
 20
1341.9718
 11
304.99991
 21
1464.0998
  0
LINE
  8
_0-8_寸法
  6
CONTINUOUS
 62
    7
 10
370.06793
 20
1378.6565
 11
150.00047
 21
1378.6565
  0
LINE
  8
_0-8_寸法
  6
CONTINUOUS
 62
    7
 10
955.00104
 20
1341.9718
 11
955.00104
 21
1464.0998
  0
LINE
  8
_0-2_躯体
  6
CONTINUOUS
 62
    3
 10
837.50004
 20
1052.1562
 11
837.50004
 21
1006.6559
  0
LINE
  8
_0-2_躯体
  6
CONTINUOUS
 62
    3
 10
955
 20
1178.9058
 11
955
 21
1156.6559
  0
LINE
  8
_0-2_躯体
  6
CONTINUOUS
 62
    3
 10
304.99991
 20
1143.6564
 11
955.00104
 21
1143.6564
  0
LINE
  8
_0-8_寸法
  6
CONTINUOUS
 62
    7
 10
422.49995
 20
977.87502
 11
422.49995
 21
924.11684
  0
LINE
  8
_0-8_寸法
  6
CONTINUOUS
 62
    7
 10
837.50004
 20
977.87502
 11
837.50004
 21
924.11684
  0
LINE
  8
_0-d_文字
  6
CONTINUOUS
 62
    7
 10
149.99978
 20
113.99993
 11
1110.0001
 21
113.99993
  0
LINE
  8
_0-d_文字
  6
CONTINUOUS
 62
    7
 10
149.99978
 20
53.999881
 11
149.99978
 21
161.99994
  0
LINE
  8
_0-d_文字
  6
CONTINUOUS
 62
    7
 10
149.99978
 20
53.999881
 11
1110.0001
 21
53.999881
  0
LINE
  8
_0-d_文字
  6
CONTINUOUS
 62
    7
 10
1110.0001
 20
161.99994
 11
1110.0001
 21
53.999881
  0
LINE
  8
_0-d_文字
  6
CONTINUOUS
 62
    7
 10
149.99978
 20
161.99994
 11
1110.0001
 21
161.99994
  0
LINE
  8
_0-d_文字
  6
CONTINUOUS
 62
    7
 10
630
 20
161.99994
 11
630
 21
53.999881
  0
LINE
  8
_0-d_文字
  6
CONTINUOUS
 62
    7
 10
390.00009
 20
53.999881
 11
390.00009
 21
113.99993
  0
LINE
  8
_0-d_文字
  6
CONTINUOUS
 62
    7
 10
630
 20
113.99993
 11
630
 21
161.99994
  0
LINE
  8
_0-d_文字
  6
CONTINUOUS
 62
    7
 10
509.99982
 20
53.999881
 11
509.99982
 21
113.99993
  0
LINE
  8
_0-d_文字
  6
CONTINUOUS
 62
    7
 10
171
 20
53.999881
 11
171
 21
113.99993
  0
LINE
  8
_0-d_文字
  6
CONTINUOUS
 62
    7
 10
411.00001
 20
53.999881
 11
411.00001
 21
113.99993
  0
LINE
  8
_0-d_文字
  6
CONTINUOUS
 62
    7
 10
531.00004
 20
53.999881
 11
531.00004
 21
113.99993
  0
LINE
  8
_0-d_文字
  6
CONTINUOUS
 62
    7
 10
609
 20
113.99993
 11
609
 21
161.99994
  0
LINE
  8
_0-d_文字
  6
CONTINUOUS
 62
    7
 10
930.00017
 20
113.99993
 11
930.00017
 21
161.99994
  0
LINE
  8
_0-d_文字
  6
CONTINUOUS
 62
    7
 10
951.00009
 20
113.99993
 11
951.00009
 21
161.99994
  0
LINE
  8
_0-2_躯体
  6
CENTER2
 62
    7
 10
630
 20
1430.2702
 11
630
 21
794.76649
  0
ARC
  8
_0-2_躯体
  6
CONTINUOUS
 62
    3
 10
422.49995
 20
1000.1561
 40
6.4996993
 50
90
 51
270
  0
ARC
  8
_0-2_躯体
  6
CONTINUOUS
 62
    3
 10
422.49995
 20
1058.656
 40
6.4996993
 50
90
 51
270
  0
ARC
  8
_0-2_躯体
  6
CONTINUOUS
 62
    3
 10
837.50004
 20
1000.1561
 40
6.4996993
 50
270
 51
90
  0
ARC
  8
_0-2_躯体
  6
CONTINUOUS
 62
    3
 10
837.50004
 20
1058.656
 40
6.4996993
 50
270
 51
90
  0
ARC
  8
_0-2_躯体
  6
CONTINUOUS
 62
    3
 10
304.99991
 20
1185.4057
 40
6.4996993
 50
90
 51
270
  0
ARC
  8
_0-2_躯体
  6
CONTINUOUS
 62
    3
 10
304.99991
 20
1150.1562
 40
6.4996993
 50
90
 51
270
  0
ARC
  8
_0-2_躯体
  6
CONTINUOUS
 62
    3
 10
955
 20
1185.4057
 40
6.4996993
 50
270
 51
90
  0
ARC
  8
_0-2_躯体
  6
CONTINUOUS
 62
    3
 10
955
 20
1150.1562
 40
6.4996993
 50
270
 51
90
  0
TEXT
  8
_0-8_寸法
 62
    3
 10
612.37512
 20
1483.6005
 40
18
 41
1
 50
0
  1
650
  0
TEXT
  8
_0-8_寸法
 62
    3
 10
600.99996
 20
937.11693
 40
18
 41
1
 50
0
  1
415φ
  0
TEXT
  8
_0-8_寸法
 62
    3
 10
130.50048
 20
1159.6552
 40
18
 41
1
 50
90
  1
385
  0
TEXT
  8
_0-d_文字
 62
    7
 10
152.99987
 20
94.499931
 40
15
 41
1
 50
0.0000354
  1
図
  0
TEXT
  8
_0-d_文字
 62
    7
 10
152.99987
 20
58.49997
 40
15
 41
1
 50
0
  1
番
  0
TEXT
  8
_0-d_文字
 62
    7
 10
393.00026
 20
94.499931
 40
15
 41
1
 50
0.0000354
  1
承
  0
TEXT
  8
_0-d_文字
 62
    7
 10
393.00026
 20
58.49997
 40
15
 41
1
 50
0
  1
認
  0
TEXT
  8
_0-d_文字
 62
    7
 10
612.00015
 20
142.49995
 40
15
 41
1
 50
0
  1
尺
  0
TEXT
  8
_0-d_文字
 62
    7
 10
612.00015
 20
118.49985
 40
15
 41
1
 50
0.0000708
  1
度
  0
TEXT
  8
_0-d_文字
 62
    7
 10
513.00006
 20
94.499931
 40
15
 41
1
 50
0.0000354
  1
製
  0
TEXT
  8
_0-d_文字
 62
    7
 10
513.00006
 20
58.49997
 40
15
 41
1
 50
0
  1
図
  0
TEXT
  8
_0-d_文字
 62
    7
 10
933.00002
 20
142.49995
 40
15
 41
1
 50
0
  1
日
  0
TEXT
  8
_0-d_文字
 62
    7
 10
933.00002
 20
118.49985
 40
15
 41
1
 50
0.0000708
  1
付
  0
TEXT
  8
_0-d_文字
 62
    7
 10
666.85579
 20
98.089352
 40
12
 41
1
 50
0
  1
株式
  0
TEXT
  8
_0-d_文字
 62
    7
 10
666.85579
 20
85.111074
 40
12
 41
1
 50
0.0000196
  1
会社
  0
TEXT
  8
_0-d_文字
 62
    3
 10
704.5348
 20
85.948271
 40
24
 41
1
 50
0
  1
スズキベンチレーター
  0
TEXT
  8
_0-d_文字
 62
    7
 10
742.75091
 20
56.414507
 40
12
 41
1
 50
0
  1
TEL(054)296-7000  FAX(054)296-7001
  0
TEXT
  8
_0-d_文字
 62
    3
 10
650.6094
 20
126.06037
 40
24
 41
1
 50
0.0000136
  1
１／６
  0
TEXT
  8
_0-d_文字
 62
    7
 10
741.40752
 20
71.187555
 40
12
 41
1
 50
0
  1
〒421-2114　静岡市葵区安倍口新田１５２番地
  0
TEXT
  8
_0-d_文字
 62
    3
 10
185.07555
 20
84.181282
 40
18
 41
1
 50
0
  1
40L-01a
  0
TEXT
  8
_0-d_文字
 62
    3
 10
153.00001
 20
1663.6207
 40
30
 41
1
 50
0
  1
ＳＴ－４０Ｌ直付型（低騒音）立面
  0
TEXT
  8
_0-d_文字
 62
    3
 10
164.32941
 20
132.9708
 40
18
 41
1
 50
0
  1
ＳＴ－４０Ｌ直付型（低騒音）立面
  0
POINT
  8
_0-8_寸法
 62
    2
 10
150.00047
 20
993.65629
  0
POINT
  8
_0-8_寸法
 62
    2
 10
150.00047
 20
1378.6565
  0
POINT
  8
_0-8_寸法
 62
    2
 10
304.99991
 20
1464.0998
  0
POINT
  8
_0-8_寸法
 62
    2
 10
955.00104
 20
1464.0998
  0
POINT
  8
_0-8_寸法
 62
    2
 10
422.49995
 20
924.11684
  0
POINT
  8
_0-8_寸法
 62
    2
 10
837.50004
 20
924.11684
  0
ENDSEC
  0
EOF
