  0
SECTION
  2
HEADER
  9
$ACADVER
  1
AC1009
  9
$INSBASE
 10
0
 20
0
 30
0
  9
$EXTMIN
 10
0
 20
0
  9
$EXTMAX
 10
4200
 20
2970
  9
$LIMMIN
 10
0
 20
0
  9
$LIMMAX
 10
4200
 20
2970
  9
$LTSCALE
 40
10
  0
ENDSEC
  0
SECTION
  2
TABLES
  0
TABLE
  2
LTYPE
 70
     9
  0
LTYPE
  2
CONTINUOUS
 70
    64
  3
実線
 72
    65
 73
     0
 40
0.0
  0
LTYPE
  2
DASHED1
 70
    64
  3
--  --  --  --  --  --  --  --  
 72
    65
 73
     2
 40
2.5
 49
1.25
 49
-1.25
  0
LTYPE
  2
DASHED2
 70
    64
  3
----    ----    ----    ----    
 72
    65
 73
     2
 40
5.0
 49
2.5
 49
-2.5
  0
LTYPE
  2
DASHED3
 70
    64
  3
------  ------  ------  ------  
 72
    65
 73
     2
 40
5.0
 49
3.75
 49
-1.25
  0
LTYPE
  2
CENTER1
 70
    64
  3
----- - ----- - ----- - ----- - 
 72
    65
 73
     4
 40
10.0
 49
6.25
 49
-1.25
 49
1.25
 49
-1.25
  0
LTYPE
  2
CENTER2
 70
    64
  3
----------  --  ----------  --  
 72
    65
 73
     4
 40
20.0
 49
12.5
 49
-2.5
 49
2.5
 49
-2.5
  0
LTYPE
  2
PHANTOM1
 70
    64
  3
--- - - --- - - --- - - --- - - 
 72
    65
 73
     6
 40
10.0
 49
3.25
 49
-1.25
 49
1.25
 49
-1.25
 49
1.25
 49
-1.25
  0
LTYPE
  2
PHANTOM2
 70
    64
  3
--------  -  -  --------  -  -  
 72
    65
 73
     6
 40
20.0
 49
10.0
 49
-2.5
 49
1.25
 49
-2.5
 49
1.25
 49
-2.5
  0
LTYPE
  2
DOT
 70
    64
  3
-   -   -   -   -   -   -   -   
 72
    65
 73
     2
 40
2.5
 49
0.625
 49
-1.875
  0
LTYPE
  2
DUMMY
 70
    64
  3
ダミー
 72
    65
 73
     0
 40
0.0
  0
LTYPE
  2
RAND1
 70
    64
  3
----- - ----- - ----- - ----- - 
 72
    65
 73
     4
 40
10.0
 49
6.25
 49
-1.25
 49
1.25
 49
-1.25
  0
LTYPE
  2
RAND2
 70
    64
  3
----------  --  ----------  --  
 72
    65
 73
     4
 40
20.0
 49
12.5
 49
-2.5
 49
2.5
 49
-2.5
  0
LTYPE
  2
RAND3
 70
    64
  3
--- - - --- - - --- - - --- - - 
 72
    65
 73
     6
 40
10.0
 49
3.25
 49
-1.25
 49
1.25
 49
-1.25
 49
1.25
 49
-1.25
  0
LTYPE
  2
RAND4
 70
    64
  3
--------  -  -  --------  -  -  
 72
    65
 73
     6
 40
20.0
 49
10.0
 49
-2.5
 49
1.25
 49
-2.5
 49
1.25
 49
-2.5
  0
LTYPE
  2
RAND5
 70
    64
  3
----- - ----- - ----- - ----- - 
 72
    65
 73
     4
 40
10.0
 49
6.25
 49
-1.25
 49
1.25
 49
-1.25
  0
LTYPE
  2
LONG1
 70
    64
  3
----------  --  ----------  --  
 72
    65
 73
     4
 40
20.0
 49
12.5
 49
-2.5
 49
2.5
 49
-2.5
  0
LTYPE
  2
LONG2
 70
    64
  3
--- - - --- - - --- - - --- - - 
 72
    65
 73
     6
 40
10.0
 49
3.25
 49
-1.25
 49
1.25
 49
-1.25
 49
1.25
 49
-1.25
  0
LTYPE
  2
LONG3
 70
    64
  3
--------  -  -  --------  -  -  
 72
    65
 73
     6
 40
20.0
 49
10.0
 49
-2.5
 49
1.25
 49
-2.5
 49
1.25
 49
-2.5
  0
LTYPE
  2
LONG4
 70
    64
  3
----- - ----- - ----- - ----- - 
 72
    65
 73
     4
 40
10.0
 49
6.25
 49
-1.25
 49
1.25
 49
-1.25
  0
LTYPE
  2
LONG5
 70
    64
  3
----------  --  ----------  --  
 72
    65
 73
     4
 40
20.0
 49
12.5
 49
-2.5
 49
2.5
 49
-2.5
  0
ENDTAB
  0
TABLE
  2
STYLE
  5
3
100
AcDbSymbolTable
 70
     1
  0
STYLE
  5
10
100
AcDbSymbolTableRecord
100
AcDbTextStyleTableRecord
  2
STANDARD
 70
     0
 40
0.0
 41
1.0
 50
0.0
 71
     0
 42
0.2
  3
txt
  4
bigfont.shx
  0
STYLE
  5
26
100
AcDbSymbolTableRecord
100
AcDbTextStyleTableRecord
  2
TATEGAKI
 70
    68
 40
0.0
 41
1.0
 50
0.0
 71
     0
 42
1.0
  3
txt
  4
bigfont.shx
  0
ENDTAB
  0
TABLE
  2
LAYER
 70
    5
  0
LAYER
  2
_0-1_基準線
 70
   64
 62
    7
  6
CONTINUOUS
  0
LAYER
  2
_0-2_躯体
 70
   64
 62
    7
  6
CONTINUOUS
  0
LAYER
  2
_0-8_寸法
 70
   64
 62
    7
  6
CONTINUOUS
  0
LAYER
  2
_0-d_文字
 70
   64
 62
    7
  6
CONTINUOUS
  0
LAYER
  2
ADD_LINE
 70
   64
 62
    7
  6
CONTINUOUS
  0
ENDTAB
  0
ENDSEC
  0
SECTION
  2
BLOCKS
  0
ENDSEC
  0
SECTION
  2
ENTITIES
  0
LINE
  8
_0-2_躯体
  6
CONTINUOUS
 62
    3
 10
710.31015
 20
2436.5817
 11
1050
 21
2520.1063
  0
LINE
  8
_0-2_躯体
  6
CONTINUOUS
 62
    3
 10
1389.6903
 20
2436.5817
 11
1050
 21
2520.1063
  0
LINE
  8
_0-8_寸法
  6
CONTINUOUS
 62
    7
 10
370.00047
 20
2135.106
 11
370.00047
 21
2520.1063
  0
LINE
  8
_0-8_寸法
  6
CONTINUOUS
 62
    7
 10
682.75129
 20
2135.106
 11
370.00047
 21
2135.106
  0
LINE
  8
_0-8_寸法
  6
CONTINUOUS
 62
    7
 10
724.99991
 20
2605.5497
 11
1375.001
 21
2605.5497
  0
LINE
  8
_0-8_寸法
  6
CONTINUOUS
 62
    7
 10
842.49993
 20
2065.5666
 11
1257.5
 21
2065.5666
  0
LINE
  8
_0-d_文字
  6
CONTINUOUS
 62
    7
 10
250.00002
 20
2757.7012
 11
1850
 21
2757.7012
  0
LINE
  8
_0-d_文字
  6
CONTINUOUS
 62
    7
 10
250.00002
 20
2767.7012
 11
1850
 21
2767.7012
  0
LINE
  8
_0-2_躯体
  6
CONTINUOUS
 62
    3
 10
724.99991
 20
2440.1062
 11
1375.001
 21
2440.1062
  0
LINE
  8
_0-2_躯体
  6
CONTINUOUS
 62
    3
 10
724.99991
 20
2320.3555
 11
1375.001
 21
2320.3555
  0
LINE
  8
_0-2_躯体
  6
CONTINUOUS
 62
    3
 10
724.99991
 20
2333.3553
 11
1375.001
 21
2333.3553
  0
LINE
  8
_0-2_躯体
  6
CONTINUOUS
 62
    3
 10
724.99991
 20
2298.106
 11
1375.001
 21
2298.106
  0
LINE
  8
_0-2_躯体
  6
CONTINUOUS
 62
    3
 10
724.99991
 20
2440.1062
 11
724.99991
 21
2333.3553
  0
LINE
  8
_0-2_躯体
  6
CONTINUOUS
 62
    3
 10
724.99991
 20
2320.3555
 11
724.99991
 21
2298.1057
  0
LINE
  8
_0-2_躯体
  6
CONTINUOUS
 62
    3
 10
1375.001
 20
2440.1062
 11
1375.001
 21
2333.3553
  0
LINE
  8
_0-2_躯体
  6
CONTINUOUS
 62
    3
 10
842.49993
 20
2193.6059
 11
1257.501
 21
2193.6059
  0
LINE
  8
_0-2_躯体
  6
CONTINUOUS
 62
    3
 10
842.49993
 20
2206.6057
 11
1257.501
 21
2206.6057
  0
LINE
  8
_0-2_躯体
  6
CONTINUOUS
 62
    3
 10
842.49993
 20
2148.106
 11
1257.501
 21
2148.106
  0
LINE
  8
_0-2_躯体
  6
CONTINUOUS
 62
    3
 10
842.49993
 20
2135.1062
 11
1257.501
 21
2135.1062
  0
LINE
  8
_0-2_躯体
  6
CONTINUOUS
 62
    3
 10
842.49993
 20
2193.6059
 11
842.49993
 21
2148.1057
  0
LINE
  8
_0-2_躯体
  6
CONTINUOUS
 62
    3
 10
1257.5
 20
2193.6059
 11
1257.5
 21
2148.1057
  0
LINE
  8
_0-2_躯体
  6
CONTINUOUS
 62
    3
 10
842.49993
 20
2285.1062
 11
842.49993
 21
2206.6057
  0
LINE
  8
_0-2_躯体
  6
CONTINUOUS
 62
    3
 10
1257.5
 20
2285.1062
 11
1257.5
 21
2206.6057
  0
LINE
  8
_0-8_寸法
  6
CONTINUOUS
 62
    7
 10
724.99991
 20
2483.4216
 11
724.99991
 21
2605.5497
  0
LINE
  8
_0-8_寸法
  6
CONTINUOUS
 62
    7
 10
790.06793
 20
2520.1063
 11
370.00047
 21
2520.1063
  0
LINE
  8
_0-8_寸法
  6
CONTINUOUS
 62
    7
 10
1375.001
 20
2483.4216
 11
1375.001
 21
2605.5497
  0
LINE
  8
_0-2_躯体
  6
CONTINUOUS
 62
    3
 10
1257.5
 20
2193.6059
 11
1257.5
 21
2148.1057
  0
LINE
  8
_0-2_躯体
  6
CONTINUOUS
 62
    3
 10
1375
 20
2320.3555
 11
1375
 21
2298.1057
  0
LINE
  8
_0-2_躯体
  6
CONTINUOUS
 62
    3
 10
724.99991
 20
2285.1062
 11
1375.001
 21
2285.1062
  0
LINE
  8
_0-8_寸法
  6
CONTINUOUS
 62
    7
 10
682.75129
 20
1637.4212
 11
370.00047
 21
1637.4212
  0
LINE
  8
_0-8_寸法
  6
CONTINUOUS
 62
    7
 10
682.75129
 20
1847.4212
 11
370.00047
 21
1847.4212
  0
LINE
  8
_0-8_寸法
  6
CONTINUOUS
 62
    7
 10
682.75129
 20
1907.4209
 11
370.00047
 21
1907.4209
  0
LINE
  8
_0-2_躯体
  6
CONTINUOUS
 62
    3
 10
799.99991
 20
584.01198
 11
799.99991
 21
1084.0118
  0
LINE
  8
_0-2_躯体
  6
CONTINUOUS
 62
    3
 10
799.99991
 20
1084.0118
 11
1300
 21
1084.0118
  0
LINE
  8
_0-2_躯体
  6
CONTINUOUS
 62
    3
 10
1300
 20
1084.0118
 11
1300
 21
584.01192
  0
LINE
  8
_0-2_躯体
  6
CONTINUOUS
 62
    3
 10
1300
 20
584.01192
 11
799.99991
 21
584.01198
  0
LINE
  8
_0-8_寸法
  6
CONTINUOUS
 62
    7
 10
370.00047
 20
386.51198
 11
370.00047
 21
1281.5119
  0
LINE
  8
_0-8_寸法
  6
CONTINUOUS
 62
    7
 10
1730.0005
 20
584.01198
 11
1730.0005
 21
1084.0118
  0
LINE
  8
_0-8_寸法
  6
CONTINUOUS
 62
    7
 10
799.99991
 20
1389.2372
 11
1300
 21
1389.2372
  0
LINE
  8
_0-2_躯体
  6
CONTINUOUS
 62
    3
 10
799.99991
 20
1084.0118
 11
868.94283
 21
1015.0686
  0
LINE
  8
_0-2_躯体
  6
CONTINUOUS
 62
    3
 10
1300
 20
1084.0118
 11
1231.0571
 21
1015.0686
  0
LINE
  8
_0-2_躯体
  6
CONTINUOUS
 62
    3
 10
799.99991
 20
584.01198
 11
868.94283
 21
652.95465
  0
LINE
  8
_0-2_躯体
  6
CONTINUOUS
 62
    3
 10
1300
 20
584.01192
 11
1231.0571
 21
652.95459
  0
LINE
  8
_0-2_躯体
  6
CONTINUOUS
 62
    3
 10
847.49995
 20
1847.4212
 11
1252.5
 21
1847.4212
  0
LINE
  8
_0-2_躯体
  6
CONTINUOUS
 62
    3
 10
847.49995
 20
1907.4209
 11
1252.5
 21
1907.4209
  0
LINE
  8
_0-8_寸法
  6
CONTINUOUS
 62
    7
 10
847.49995
 20
1971.0667
 11
1252.5
 21
1971.0667
  0
LINE
  8
_0-8_寸法
  6
CONTINUOUS
 62
    7
 10
799.99991
 20
1585.6647
 11
799.99991
 21
1389.2372
  0
LINE
  8
_0-8_寸法
  6
CONTINUOUS
 62
    7
 10
1300
 20
1585.6647
 11
1300
 21
1389.2372
  0
LINE
  8
_0-8_寸法
  6
CONTINUOUS
 62
    7
 10
532.15026
 20
1281.5119
 11
370.00047
 21
1281.5119
  0
LINE
  8
_0-8_寸法
  6
CONTINUOUS
 62
    7
 10
532.15026
 20
386.51198
 11
370.00047
 21
386.51198
  0
LINE
  8
_0-8_寸法
  6
CONTINUOUS
 62
    7
 10
1567.26
 20
1084.0118
 11
1730.0005
 21
1084.0118
  0
LINE
  8
_0-8_寸法
  6
CONTINUOUS
 62
    7
 10
1567.26
 20
584.01198
 11
1730.0005
 21
584.01198
  0
LINE
  8
_0-2_躯体
  6
CONTINUOUS
 62
    3
 10
847.49995
 20
1894.4208
 11
1252.5
 21
1894.4208
  0
LINE
  8
_0-2_躯体
  6
CONTINUOUS
 62
    3
 10
847.49995
 20
1907.4209
 11
847.49995
 21
1894.4208
  0
LINE
  8
_0-2_躯体
  6
CONTINUOUS
 62
    3
 10
847.49995
 20
1881.4206
 11
847.49995
 21
1847.4212
  0
LINE
  8
_0-2_躯体
  6
CONTINUOUS
 62
    3
 10
847.49995
 20
1881.4208
 11
1252.5
 21
1881.4208
  0
LINE
  8
_0-2_躯体
  6
CONTINUOUS
 62
    3
 10
1252.5
 20
1881.4208
 11
1252.5
 21
1847.4212
  0
LINE
  8
_0-2_躯体
  6
CONTINUOUS
 62
    3
 10
1252.5002
 20
1907.4209
 11
1252.5002
 21
1894.4208
  0
LINE
  8
_0-d_文字
  6
CONTINUOUS
 62
    7
 10
403.46176
 20
1494.5281
 11
494.20215
 21
1494.5281
  0
LINE
  8
_0-d_文字
  6
CONTINUOUS
 62
    7
 10
403.46176
 20
1494.5281
 11
494.20215
 21
1521.749
  0
LINE
  8
_0-d_文字
  6
CONTINUOUS
 62
    7
 10
494.20215
 20
1494.5281
 11
494.20215
 21
1521.749
  0
LINE
  8
_0-8_寸法
  6
CONTINUOUS
 62
    7
 10
858.8849
 20
767.07006
 11
1241.1153
 21
900.95332
  0
LINE
  8
_0-8_寸法
  6
CONTINUOUS
 62
    7
 10
842.49993
 20
2119.3248
 11
842.49993
 21
2065.5666
  0
LINE
  8
_0-8_寸法
  6
CONTINUOUS
 62
    7
 10
1257.5
 20
2119.3248
 11
1257.5
 21
2065.5666
  0
LINE
  8
_0-8_寸法
  6
CONTINUOUS
 62
    7
 10
847.49995
 20
1927.8818
 11
847.49995
 21
1971.0667
  0
LINE
  8
_0-8_寸法
  6
CONTINUOUS
 62
    7
 10
1252.5
 20
1927.8818
 11
1252.5
 21
1971.0667
  0
LINE
  8
_0-1_基準線
  6
CENTER2
 62
    7
 10
602.50013
 20
834.01188
 11
1497.4998
 21
834.01188
  0
LINE
  8
_0-8_寸法
  6
CONTINUOUS
 62
    7
 10
370.00047
 20
1637.4212
 11
370.00047
 21
1907.4209
  0
LINE
  8
_0-2_躯体
  6
CONTINUOUS
 62
    3
 10
847.49995
 20
1847.4212
 11
799.99991
 21
1637.4212
  0
LINE
  8
_0-2_躯体
  6
CONTINUOUS
 62
    3
 10
1252.5
 20
1847.4212
 11
1299.9306
 21
1637.4212
  0
LINE
  8
_0-1_基準線
  6
CENTER2
 62
    7
 10
1050
 20
2520.1063
 11
1050
 21
209.99995
  0
LINE
  8
_0-d_文字
  6
CONTINUOUS
 62
    7
 10
249.99964
 20
189.99988
 11
1850.0002
 21
189.99988
  0
LINE
  8
_0-d_文字
  6
CONTINUOUS
 62
    7
 10
249.99964
 20
89.999802
 11
249.99964
 21
269.9999
  0
LINE
  8
_0-d_文字
  6
CONTINUOUS
 62
    7
 10
249.99964
 20
89.999802
 11
1850.0002
 21
89.999802
  0
LINE
  8
_0-d_文字
  6
CONTINUOUS
 62
    7
 10
1850.0002
 20
269.9999
 11
1850.0002
 21
89.999802
  0
LINE
  8
_0-d_文字
  6
CONTINUOUS
 62
    7
 10
249.99964
 20
269.9999
 11
1850.0002
 21
269.9999
  0
LINE
  8
_0-d_文字
  6
CONTINUOUS
 62
    7
 10
1050
 20
269.9999
 11
1050
 21
89.999802
  0
LINE
  8
_0-d_文字
  6
CONTINUOUS
 62
    7
 10
650.00016
 20
89.999802
 11
650.00016
 21
189.99988
  0
LINE
  8
_0-d_文字
  6
CONTINUOUS
 62
    7
 10
1050
 20
189.99988
 11
1050
 21
269.9999
  0
LINE
  8
_0-d_文字
  6
CONTINUOUS
 62
    7
 10
849.99971
 20
89.999802
 11
849.99971
 21
189.99988
  0
LINE
  8
_0-d_文字
  6
CONTINUOUS
 62
    7
 10
285.00001
 20
89.999802
 11
285.00001
 21
189.99988
  0
LINE
  8
_0-d_文字
  6
CONTINUOUS
 62
    7
 10
685.00003
 20
89.999802
 11
685.00003
 21
189.99988
  0
LINE
  8
_0-d_文字
  6
CONTINUOUS
 62
    7
 10
885.00007
 20
89.999802
 11
885.00007
 21
189.99988
  0
LINE
  8
_0-d_文字
  6
CONTINUOUS
 62
    7
 10
1015
 20
189.99988
 11
1015
 21
269.9999
  0
LINE
  8
_0-d_文字
  6
CONTINUOUS
 62
    7
 10
1550.0002
 20
189.99988
 11
1550.0002
 21
269.9999
  0
LINE
  8
_0-d_文字
  6
CONTINUOUS
 62
    7
 10
1585.0001
 20
189.99988
 11
1585.0001
 21
269.9999
  0
LINE
  8
_0-2_躯体
  6
CONTINUOUS
 62
    3
 10
1500.1023
 20
1281.5119
 11
1500.1023
 21
386.51198
  0
LINE
  8
_0-2_躯体
  6
CONTINUOUS
 62
    3
 10
599.89768
 20
1281.5119
 11
1500.1023
 21
1281.5119
  0
LINE
  8
_0-2_躯体
  6
CONTINUOUS
 62
    3
 10
599.89768
 20
1281.5119
 11
599.89768
 21
386.51198
  0
LINE
  8
_0-2_躯体
  6
CONTINUOUS
 62
    3
 10
1500.1023
 20
386.51198
 11
599.89768
 21
386.51198
  0
LINE
  8
_0-2_躯体
  6
CONTINUOUS
 62
    3
 10
1050
 20
1712.4181
 11
599.89768
 21
1577.3929
  0
LINE
  8
_0-2_躯体
  6
CONTINUOUS
 62
    3
 10
1500.1023
 20
1577.1122
 11
1050
 21
1712.4181
  0
ARC
  8
_0-2_躯体
  6
CONTINUOUS
 62
    3
 10
842.49993
 20
2141.606
 40
6.4996994
 50
90
 51
270
  0
ARC
  8
_0-2_躯体
  6
CONTINUOUS
 62
    3
 10
842.49993
 20
2200.1057
 40
6.4996994
 50
90
 51
270
  0
ARC
  8
_0-2_躯体
  6
CONTINUOUS
 62
    3
 10
1257.5
 20
2141.606
 40
6.4996994
 50
270
 51
90
  0
ARC
  8
_0-2_躯体
  6
CONTINUOUS
 62
    3
 10
1257.5
 20
2200.1057
 40
6.4996994
 50
270
 51
90
  0
ARC
  8
_0-2_躯体
  6
CONTINUOUS
 62
    3
 10
724.99991
 20
2326.8555
 40
6.4996994
 50
90
 51
270
  0
ARC
  8
_0-2_躯体
  6
CONTINUOUS
 62
    3
 10
724.99991
 20
2291.606
 40
6.4996994
 50
90
 51
270
  0
ARC
  8
_0-2_躯体
  6
CONTINUOUS
 62
    3
 10
1375
 20
2326.8555
 40
6.4996994
 50
270
 51
90
  0
ARC
  8
_0-2_躯体
  6
CONTINUOUS
 62
    3
 10
1375
 20
2291.606
 40
6.4996994
 50
270
 51
90
  0
ARC
  8
_0-2_躯体
  6
CONTINUOUS
 62
    3
 10
1252.5002
 20
1887.9208
 40
6.4996994
 50
90
 51
270
  0
ARC
  8
_0-2_躯体
  6
CONTINUOUS
 62
    3
 10
847.4997
 20
1887.9208
 40
6.4996994
 50
270
 51
90
  0
CIRCLE
  8
_0-2_躯体
  6
CONTINUOUS
 62
    3
 10
1050
 20
834.012
 40
202.49998
  0
TEXT
  8
_0-d_文字
 62
    3
 10
510.82466
 20
1494.7762
 40
30
 41
1
 50
0
  1
3
  0
TEXT
  8
_0-d_文字
 62
    3
 10
437.83139
 20
1459.03
 40
30
 41
1
 50
0.0002181
  1
10
  0
TEXT
  8
_0-8_寸法
 62
    3
 10
1022.375
 20
2625.0504
 40
30
 41
1
 50
0
  1
650
  0
TEXT
  8
_0-8_寸法
 62
    3
 10
1004.5
 20
2078.5667
 40
30
 41
1
 50
0
  1
415φ
  0
TEXT
  8
_0-8_寸法
 62
    3
 10
1004.5
 20
1984.0668
 40
30
 41
1
 50
0
  1
405φ
  0
TEXT
  8
_0-8_寸法
 62
    3
 10
350.50048
 20
2291.1049
 40
30
 41
1
 50
90
  1
385
  0
TEXT
  8
_0-8_寸法
 62
    3
 10
350.50048
 20
1862.046
 40
30
 41
1
 50
90
  1
60
  0
TEXT
  8
_0-8_寸法
 62
    3
 10
350.50048
 20
1730.0464
 40
30
 41
1
 50
90
  1
210
  0
TEXT
  8
_0-8_寸法
 62
    3
 10
1022.3533
 20
1402.2372
 40
30
 41
1
 50
0
  1
500
  0
TEXT
  8
_0-8_寸法
 62
    3
 10
1717
 20
806.38713
 40
30
 41
1
 50
90
  1
500
  0
TEXT
  8
_0-8_寸法
 62
    3
 10
1002.7607
 20
831.23956
 40
30
 41
1
 50
19.303739
  1
405φ
  0
TEXT
  8
_0-d_文字
 62
    7
 10
254.99978
 20
157.49988
 40
25
 41
1
 50
0.0000354
  1
図
  0
TEXT
  8
_0-d_文字
 62
    7
 10
254.99978
 20
97.49995
 40
25
 41
1
 50
0
  1
番
  0
TEXT
  8
_0-d_文字
 62
    7
 10
655.00043
 20
157.49988
 40
25
 41
1
 50
0.0000354
  1
承
  0
TEXT
  8
_0-d_文字
 62
    7
 10
655.00043
 20
97.49995
 40
25
 41
1
 50
0
  1
認
  0
TEXT
  8
_0-d_文字
 62
    7
 10
1020.0002
 20
237.49991
 40
25
 41
1
 50
0
  1
尺
  0
TEXT
  8
_0-d_文字
 62
    7
 10
1020.0002
 20
197.49975
 40
25
 41
1
 50
0.0000708
  1
度
  0
TEXT
  8
_0-d_文字
 62
    7
 10
855.0001
 20
157.49988
 40
25
 41
1
 50
0.0000354
  1
製
  0
TEXT
  8
_0-d_文字
 62
    7
 10
855.0001
 20
97.49995
 40
25
 41
1
 50
0
  1
図
  0
TEXT
  8
_0-d_文字
 62
    7
 10
1555
 20
237.49991
 40
25
 41
1
 50
0
  1
日
  0
TEXT
  8
_0-d_文字
 62
    7
 10
1555
 20
197.49975
 40
25
 41
1
 50
0.0000708
  1
付
  0
TEXT
  8
_0-d_文字
 62
    7
 10
1111.4263
 20
163.48225
 40
20
 41
1
 50
0
  1
株式
  0
TEXT
  8
_0-d_文字
 62
    7
 10
1111.4263
 20
141.85179
 40
20
 41
1
 50
0.0000196
  1
会社
  0
TEXT
  8
_0-d_文字
 62
    3
 10
1174.2246
 20
143.24711
 40
40
 41
1
 50
0
  1
スズキベンチレーター
  0
TEXT
  8
_0-d_文字
 62
    7
 10
1237.9181
 20
94.024178
 40
20
 41
1
 50
0
  1
TEL(054)296-7000  FAX(054)296-7001
  0
TEXT
  8
_0-8_寸法
 62
    3
 10
357.00048
 20
806.38715
 40
30
 41
1
 50
90
  1
≒ 895
  0
TEXT
  8
_0-d_文字
 62
    3
 10
1084.3489
 20
210.10062
 40
40
 41
1
 50
0.0000101
  1
１／１０
  0
TEXT
  8
_0-d_文字
 62
    7
 10
1235.6792
 20
118.64592
 40
20
 41
1
 50
0
  1
〒421-2114　静岡市葵区安倍口新田１５２番地
  0
TEXT
  8
_0-d_文字
 62
    3
 10
254.99998
 20
2772.7012
 40
50
 41
1
 50
0
  1
ＳＴ－４０Ｌ　直付型（低騒音） 立面、直付袴立面・平面
  0
TEXT
  8
_0-8_寸法
 62
    3
 10
265.46121
 20
235.2515
 40
30
 41
1
 50
0
  1
ＳＴ－４０Ｌ　直付型（低騒音）
  0
TEXT
  8
_0-d_文字
 62
    3
 10
267.62128
 20
196.37014
 40
30
 41
1
 50
0
  1
　　　　　　 立面、直付袴立面・平面
  0
TEXT
  8
_0-d_文字
 62
    3
 10
308.45925
 20
140.30213
 40
30
 41
1
 50
0
  1
40L-01
  0
POINT
  8
_0-8_寸法
 62
    2
 10
370.00047
 20
2135.106
  0
POINT
  8
_0-8_寸法
 62
    2
 10
370.00047
 20
2520.1063
  0
POINT
  8
_0-8_寸法
 62
    2
 10
724.99991
 20
2605.5497
  0
POINT
  8
_0-8_寸法
 62
    2
 10
1375.001
 20
2605.5497
  0
POINT
  8
_0-8_寸法
 62
    2
 10
842.49993
 20
2065.5666
  0
POINT
  8
_0-8_寸法
 62
    2
 10
1257.5
 20
2065.5666
  0
POINT
  8
_0-8_寸法
 62
    2
 10
370.00047
 20
1637.4212
  0
POINT
  8
_0-8_寸法
 62
    2
 10
370.00047
 20
1847.4212
  0
POINT
  8
_0-8_寸法
 62
    2
 10
370.00047
 20
1907.4209
  0
POINT
  8
_0-8_寸法
 62
    2
 10
370.00047
 20
386.51198
  0
POINT
  8
_0-8_寸法
 62
    2
 10
370.00047
 20
1281.5119
  0
POINT
  8
_0-8_寸法
 62
    2
 10
1730.0005
 20
584.01198
  0
POINT
  8
_0-8_寸法
 62
    2
 10
1730.0005
 20
1084.0118
  0
POINT
  8
_0-8_寸法
 62
    2
 10
799.99991
 20
1389.2372
  0
POINT
  8
_0-8_寸法
 62
    2
 10
1300
 20
1389.2372
  0
POINT
  8
_0-8_寸法
 62
    2
 10
858.8849
 20
767.07006
  0
POINT
  8
_0-8_寸法
 62
    2
 10
1241.1153
 20
900.95332
  0
POINT
  8
_0-8_寸法
 62
    2
 10
847.49995
 20
1971.0667
  0
POINT
  8
_0-8_寸法
 62
    2
 10
1252.5
 20
1971.0667
  0
ENDSEC
  0
EOF
