  0
SECTION
  2
HEADER
  9
$ACADVER
  1
AC1009
  9
$INSBASE
 10
0
 20
0
 30
0
  9
$EXTMIN
 10
0
 20
0
  9
$EXTMAX
 10
8400
 20
5940
  9
$LIMMIN
 10
0
 20
0
  9
$LIMMAX
 10
8400
 20
5940
  9
$LTSCALE
 40
20
  0
ENDSEC
  0
SECTION
  2
TABLES
  0
TABLE
  2
LTYPE
 70
     9
  0
LTYPE
  2
CONTINUOUS
 70
    64
  3
実線
 72
    65
 73
     0
 40
0.0
  0
LTYPE
  2
DASHED1
 70
    64
  3
--  --  --  --  --  --  --  --  
 72
    65
 73
     2
 40
2.5
 49
1.25
 49
-1.25
  0
LTYPE
  2
DASHED2
 70
    64
  3
----    ----    ----    ----    
 72
    65
 73
     2
 40
5.0
 49
2.5
 49
-2.5
  0
LTYPE
  2
DASHED3
 70
    64
  3
------  ------  ------  ------  
 72
    65
 73
     2
 40
5.0
 49
3.75
 49
-1.25
  0
LTYPE
  2
CENTER1
 70
    64
  3
----- - ----- - ----- - ----- - 
 72
    65
 73
     4
 40
10.0
 49
6.25
 49
-1.25
 49
1.25
 49
-1.25
  0
LTYPE
  2
CENTER2
 70
    64
  3
----------  --  ----------  --  
 72
    65
 73
     4
 40
20.0
 49
12.5
 49
-2.5
 49
2.5
 49
-2.5
  0
LTYPE
  2
PHANTOM1
 70
    64
  3
--- - - --- - - --- - - --- - - 
 72
    65
 73
     6
 40
10.0
 49
3.25
 49
-1.25
 49
1.25
 49
-1.25
 49
1.25
 49
-1.25
  0
LTYPE
  2
PHANTOM2
 70
    64
  3
--------  -  -  --------  -  -  
 72
    65
 73
     6
 40
20.0
 49
10.0
 49
-2.5
 49
1.25
 49
-2.5
 49
1.25
 49
-2.5
  0
LTYPE
  2
DOT
 70
    64
  3
-   -   -   -   -   -   -   -   
 72
    65
 73
     2
 40
2.5
 49
0.625
 49
-1.875
  0
LTYPE
  2
DUMMY
 70
    64
  3
ダミー
 72
    65
 73
     0
 40
0.0
  0
LTYPE
  2
RAND1
 70
    64
  3
----- - ----- - ----- - ----- - 
 72
    65
 73
     4
 40
10.0
 49
6.25
 49
-1.25
 49
1.25
 49
-1.25
  0
LTYPE
  2
RAND2
 70
    64
  3
----------  --  ----------  --  
 72
    65
 73
     4
 40
20.0
 49
12.5
 49
-2.5
 49
2.5
 49
-2.5
  0
LTYPE
  2
RAND3
 70
    64
  3
--- - - --- - - --- - - --- - - 
 72
    65
 73
     6
 40
10.0
 49
3.25
 49
-1.25
 49
1.25
 49
-1.25
 49
1.25
 49
-1.25
  0
LTYPE
  2
RAND4
 70
    64
  3
--------  -  -  --------  -  -  
 72
    65
 73
     6
 40
20.0
 49
10.0
 49
-2.5
 49
1.25
 49
-2.5
 49
1.25
 49
-2.5
  0
LTYPE
  2
RAND5
 70
    64
  3
----- - ----- - ----- - ----- - 
 72
    65
 73
     4
 40
10.0
 49
6.25
 49
-1.25
 49
1.25
 49
-1.25
  0
LTYPE
  2
LONG1
 70
    64
  3
----------  --  ----------  --  
 72
    65
 73
     4
 40
20.0
 49
12.5
 49
-2.5
 49
2.5
 49
-2.5
  0
LTYPE
  2
LONG2
 70
    64
  3
--- - - --- - - --- - - --- - - 
 72
    65
 73
     6
 40
10.0
 49
3.25
 49
-1.25
 49
1.25
 49
-1.25
 49
1.25
 49
-1.25
  0
LTYPE
  2
LONG3
 70
    64
  3
--------  -  -  --------  -  -  
 72
    65
 73
     6
 40
20.0
 49
10.0
 49
-2.5
 49
1.25
 49
-2.5
 49
1.25
 49
-2.5
  0
LTYPE
  2
LONG4
 70
    64
  3
----- - ----- - ----- - ----- - 
 72
    65
 73
     4
 40
10.0
 49
6.25
 49
-1.25
 49
1.25
 49
-1.25
  0
LTYPE
  2
LONG5
 70
    64
  3
----------  --  ----------  --  
 72
    65
 73
     4
 40
20.0
 49
12.5
 49
-2.5
 49
2.5
 49
-2.5
  0
ENDTAB
  0
TABLE
  2
STYLE
  5
3
100
AcDbSymbolTable
 70
     1
  0
STYLE
  5
10
100
AcDbSymbolTableRecord
100
AcDbTextStyleTableRecord
  2
STANDARD
 70
     0
 40
0.0
 41
1.0
 50
0.0
 71
     0
 42
0.2
  3
txt
  4
bigfont.shx
  0
STYLE
  5
26
100
AcDbSymbolTableRecord
100
AcDbTextStyleTableRecord
  2
TATEGAKI
 70
    68
 40
0.0
 41
1.0
 50
0.0
 71
     0
 42
1.0
  3
txt
  4
bigfont.shx
  0
ENDTAB
  0
TABLE
  2
LAYER
 70
    4
  0
LAYER
  2
_0-2_躯体
 70
   64
 62
    7
  6
CONTINUOUS
  0
LAYER
  2
_0-8_寸法
 70
   64
 62
    7
  6
CONTINUOUS
  0
LAYER
  2
_0-d_文字
 70
   64
 62
    7
  6
CONTINUOUS
  0
LAYER
  2
ADD_LINE
 70
   64
 62
    7
  6
CONTINUOUS
  0
ENDTAB
  0
ENDSEC
  0
SECTION
  2
BLOCKS
  0
ENDSEC
  0
SECTION
  2
ENTITIES
  0
LINE
  8
_0-d_文字
  6
CONTINUOUS
 62
    7
 10
500.00004
 20
5515.4024
 11
3700
 21
5515.4024
  0
LINE
  8
_0-d_文字
  6
CONTINUOUS
 62
    7
 10
500.00004
 20
5535.4025
 11
3700
 21
5535.4025
  0
LINE
  8
_0-d_文字
  6
CONTINUOUS
 62
    7
 10
499.99979
 20
375.13522
 11
3699.9998
 21
375.13522
  0
LINE
  8
_0-d_文字
  6
CONTINUOUS
 62
    7
 10
499.99979
 20
175.13518
 11
499.99979
 21
535.13513
  0
LINE
  8
_0-d_文字
  6
CONTINUOUS
 62
    7
 10
499.99979
 20
175.13518
 11
3699.9998
 21
175.13518
  0
LINE
  8
_0-d_文字
  6
CONTINUOUS
 62
    7
 10
2100
 20
535.13513
 11
2100
 21
175.13518
  0
LINE
  8
_0-d_文字
  6
CONTINUOUS
 62
    7
 10
1299.9999
 20
175.13518
 11
1299.9999
 21
375.13522
  0
LINE
  8
_0-d_文字
  6
CONTINUOUS
 62
    7
 10
2100
 20
375.13522
 11
2100
 21
535.13513
  0
LINE
  8
_0-d_文字
  6
CONTINUOUS
 62
    7
 10
1699.9999
 20
175.13518
 11
1699.9999
 21
375.13522
  0
LINE
  8
_0-d_文字
  6
CONTINUOUS
 62
    7
 10
569.99965
 20
175.13518
 11
569.99965
 21
375.13522
  0
LINE
  8
_0-d_文字
  6
CONTINUOUS
 62
    7
 10
1369.9995
 20
175.13518
 11
1369.9995
 21
375.13522
  0
LINE
  8
_0-d_文字
  6
CONTINUOUS
 62
    7
 10
1769.9995
 20
175.13518
 11
1769.9995
 21
375.13522
  0
LINE
  8
_0-d_文字
  6
CONTINUOUS
 62
    7
 10
2029.9998
 20
375.13522
 11
2029.9998
 21
535.13513
  0
LINE
  8
_0-d_文字
  6
CONTINUOUS
 62
    7
 10
3099.9998
 20
375.13522
 11
3099.9998
 21
535.13513
  0
LINE
  8
_0-d_文字
  6
CONTINUOUS
 62
    7
 10
3169.9995
 20
375.13522
 11
3169.9995
 21
535.13513
  0
LINE
  8
_0-d_文字
  6
CONTINUOUS
 62
    7
 10
499.99979
 20
535.13513
 11
3699.9998
 21
535.13513
  0
LINE
  8
_0-d_文字
  6
CONTINUOUS
 62
    7
 10
3699.9998
 20
535.13513
 11
3699.9998
 21
175.13518
  0
LINE
  8
_0-8_寸法
  6
CONTINUOUS
 62
    7
 10
1299.9998
 20
5179.0609
 11
2899.9996
 21
5179.0609
  0
LINE
  8
_0-2_躯体
  6
CONTINUOUS
 62
    3
 10
1300.0003
 20
4854.8197
 11
1299.9998
 21
4617.8199
  0
LINE
  8
_0-8_寸法
  6
CONTINUOUS
 62
    7
 10
1567.4996
 20
4098.462
 11
1567.4996
 21
3983.0031
  0
LINE
  8
_0-8_寸法
  6
CONTINUOUS
 62
    7
 10
2632.4994
 20
4098.462
 11
2632.4994
 21
3983.0031
  0
LINE
  8
_0-8_寸法
  6
CONTINUOUS
 62
    7
 10
1299.9998
 20
4935.3678
 11
1299.9998
 21
5179.0609
  0
LINE
  8
_0-8_寸法
  6
CONTINUOUS
 62
    7
 10
1604.5542
 20
5039.8196
 11
1013.2749
 21
5039.8196
  0
LINE
  8
_0-8_寸法
  6
CONTINUOUS
 62
    7
 10
2899.9996
 20
4935.3678
 11
2899.9996
 21
5179.0609
  0
LINE
  8
_0-2_躯体
  6
CONTINUOUS
 62
    3
 10
1299.9998
 20
4598.3207
 11
1299.9998
 21
4539.8199
  0
LINE
  8
_0-2_躯体
  6
CONTINUOUS
 62
    3
 10
1299.9998
 20
4520.3207
 11
1299.9998
 21
4474.8195
  0
LINE
  8
_0-2_躯体
  6
CONTINUOUS
 62
    3
 10
1300.0003
 20
4854.8197
 11
2100
 21
4854.8197
  0
LINE
  8
_0-2_躯体
  6
CONTINUOUS
 62
    3
 10
1299.9998
 20
4474.8195
 11
2100
 21
4474.8195
  0
LINE
  8
_0-2_躯体
  6
CONTINUOUS
 62
    3
 10
1299.9998
 20
4520.3207
 11
2100
 21
4520.3207
  0
LINE
  8
_0-2_躯体
  6
CONTINUOUS
 62
    3
 10
1299.9998
 20
4539.8199
 11
2100
 21
4539.8199
  0
LINE
  8
_0-2_躯体
  6
CONTINUOUS
 62
    3
 10
1299.9998
 20
4598.3207
 11
2100
 21
4598.3207
  0
LINE
  8
_0-2_躯体
  6
CONTINUOUS
 62
    3
 10
1299.9998
 20
4617.8199
 11
2100
 21
4617.8199
  0
LINE
  8
_0-8_寸法
  6
CONTINUOUS
 62
    7
 10
1567.4996
 20
3983.0031
 11
2632.4994
 21
3983.0031
  0
LINE
  8
_0-8_寸法
  6
CONTINUOUS
 62
    7
 10
1013.2749
 20
4164.8199
 11
1013.2749
 21
5039.8196
  0
LINE
  8
_0-8_寸法
  6
CONTINUOUS
 62
    7
 10
1313.8965
 20
4164.8199
 11
1013.2749
 21
4164.8199
  0
LINE
  8
_0-2_躯体
  6
CONTINUOUS
 62
    3
 10
1567.4996
 20
4164.8199
 11
2632.4994
 21
4164.8199
  0
LINE
  8
_0-2_躯体
  6
CONTINUOUS
 62
    3
 10
1567.4996
 20
4282.819
 11
2100
 21
4282.819
  0
LINE
  8
_0-2_躯体
  6
CONTINUOUS
 62
    3
 10
1567.4996
 20
4263.3188
 11
2100
 21
4263.3188
  0
LINE
  8
_0-2_躯体
  6
CONTINUOUS
 62
    3
 10
1567.4996
 20
4194.8195
 11
2632.4994
 21
4194.8195
  0
LINE
  8
_0-2_躯体
  6
CONTINUOUS
 62
    3
 10
1567.4996
 20
4194.8195
 11
2100
 21
4194.8195
  0
LINE
  8
_0-2_躯体
  6
CONTINUOUS
 62
    3
 10
1567.4996
 20
4214.3198
 11
2632.4994
 21
4214.3198
  0
LINE
  8
_0-2_躯体
  6
CONTINUOUS
 62
    3
 10
1567.4996
 20
4474.8205
 11
1567.4996
 21
4282.819
  0
LINE
  8
_0-2_躯体
  6
CONTINUOUS
 62
    3
 10
1567.4996
 20
4263.3188
 11
1567.4996
 21
4214.3198
  0
LINE
  8
_0-2_躯体
  6
CONTINUOUS
 62
    3
 10
1567.4996
 20
4194.8195
 11
1567.4996
 21
4164.8199
  0
LINE
  8
_0-2_躯体
  6
CONTINUOUS
 62
    3
 10
2899.9996
 20
4854.8197
 11
2900.0001
 21
4617.8199
  0
LINE
  8
_0-2_躯体
  6
CONTINUOUS
 62
    3
 10
2900.0001
 20
4598.3207
 11
2900.0001
 21
4539.8199
  0
LINE
  8
_0-2_躯体
  6
CONTINUOUS
 62
    3
 10
2900.0001
 20
4520.3207
 11
2900.0001
 21
4474.8195
  0
LINE
  8
_0-2_躯体
  6
CONTINUOUS
 62
    3
 10
2900.0001
 20
4474.8195
 11
2100
 21
4474.8195
  0
LINE
  8
_0-2_躯体
  6
CONTINUOUS
 62
    3
 10
2900.0001
 20
4520.3207
 11
2100
 21
4520.3207
  0
LINE
  8
_0-2_躯体
  6
CONTINUOUS
 62
    3
 10
2900.0001
 20
4539.8199
 11
2100
 21
4539.8199
  0
LINE
  8
_0-2_躯体
  6
CONTINUOUS
 62
    3
 10
2900.0001
 20
4598.3207
 11
2100
 21
4598.3207
  0
LINE
  8
_0-2_躯体
  6
CONTINUOUS
 62
    3
 10
2900.0001
 20
4617.8199
 11
2100
 21
4617.8199
  0
LINE
  8
_0-2_躯体
  6
CONTINUOUS
 62
    3
 10
2632.5003
 20
4282.819
 11
2100
 21
4282.819
  0
LINE
  8
_0-2_躯体
  6
CONTINUOUS
 62
    3
 10
2632.5003
 20
4263.3188
 11
2100
 21
4263.3188
  0
LINE
  8
_0-2_躯体
  6
CONTINUOUS
 62
    3
 10
2632.5003
 20
4194.8195
 11
2100
 21
4194.8195
  0
LINE
  8
_0-2_躯体
  6
CONTINUOUS
 62
    3
 10
2632.5003
 20
4474.8205
 11
2632.5003
 21
4282.819
  0
LINE
  8
_0-2_躯体
  6
CONTINUOUS
 62
    3
 10
2632.5003
 20
4263.3188
 11
2632.5003
 21
4214.3198
  0
LINE
  8
_0-2_躯体
  6
CONTINUOUS
 62
    3
 10
2632.5003
 20
4194.8195
 11
2632.5003
 21
4164.8199
  0
LINE
  8
_0-2_躯体
  6
CONTINUOUS
 62
    3
 10
2100
 20
5039.8196
 11
1271.8743
 21
4848.315
  0
LINE
  8
_0-2_躯体
  6
CONTINUOUS
 62
    3
 10
2899.9996
 20
4854.8197
 11
2100
 21
4854.8197
  0
LINE
  8
_0-2_躯体
  6
CONTINUOUS
 62
    3
 10
2100
 20
5039.8196
 11
2928.1256
 21
4848.315
  0
LINE
  8
_0-d_文字
  6
CENTER2
 62
    7
 10
2100
 20
3874.8197
 11
2100
 21
5127.5222
  0
LINE
  8
_0-2_躯体
  6
CONTINUOUS
 62
    3
 10
1299.9998
 20
4617.8197
 11
1299.9998
 21
4617.8197
  0
LINE
  8
_0-2_躯体
  6
CONTINUOUS
 62
    3
 10
1299.9998
 20
4617.8197
 11
1298.3863
 21
4617.6716
  0
LINE
  8
_0-2_躯体
  6
CONTINUOUS
 62
    3
 10
1298.3863
 20
4617.6716
 11
1296.8219
 21
4617.2317
  0
LINE
  8
_0-2_躯体
  6
CONTINUOUS
 62
    3
 10
1296.8219
 20
4617.2317
 11
1295.354
 21
4616.5134
  0
LINE
  8
_0-2_躯体
  6
CONTINUOUS
 62
    3
 10
1295.354
 20
4616.5134
 11
1294.0272
 21
4615.5386
  0
LINE
  8
_0-2_躯体
  6
CONTINUOUS
 62
    3
 10
1294.0272
 20
4615.5386
 11
1292.882
 21
4614.3369
  0
LINE
  8
_0-2_躯体
  6
CONTINUOUS
 62
    3
 10
1292.882
 20
4614.3369
 11
1291.953
 21
4612.9447
  0
LINE
  8
_0-2_躯体
  6
CONTINUOUS
 62
    3
 10
1291.953
 20
4612.9447
 11
1291.2685
 21
4611.4044
  0
LINE
  8
_0-2_躯体
  6
CONTINUOUS
 62
    3
 10
1291.2685
 20
4611.4044
 11
1290.8493
 21
4609.7628
  0
LINE
  8
_0-2_躯体
  6
CONTINUOUS
 62
    3
 10
1290.8493
 20
4609.7628
 11
1290.7081
 21
4608.0698
  0
LINE
  8
_0-2_躯体
  6
CONTINUOUS
 62
    3
 10
1290.7081
 20
4608.0698
 11
1290.8493
 21
4606.3767
  0
LINE
  8
_0-2_躯体
  6
CONTINUOUS
 62
    3
 10
1290.8493
 20
4606.3767
 11
1291.2685
 21
4604.7351
  0
LINE
  8
_0-2_躯体
  6
CONTINUOUS
 62
    3
 10
1291.2685
 20
4604.7351
 11
1291.953
 21
4603.1948
  0
LINE
  8
_0-2_躯体
  6
CONTINUOUS
 62
    3
 10
1291.953
 20
4603.1948
 11
1292.882
 21
4601.8027
  0
LINE
  8
_0-2_躯体
  6
CONTINUOUS
 62
    3
 10
1292.882
 20
4601.8027
 11
1294.0272
 21
4600.6009
  0
LINE
  8
_0-2_躯体
  6
CONTINUOUS
 62
    3
 10
1294.0272
 20
4600.6009
 11
1295.354
 21
4599.6261
  0
LINE
  8
_0-2_躯体
  6
CONTINUOUS
 62
    3
 10
1295.354
 20
4599.6261
 11
1296.8219
 21
4598.9079
  0
LINE
  8
_0-2_躯体
  6
CONTINUOUS
 62
    3
 10
1296.8219
 20
4598.9079
 11
1298.3863
 21
4598.468
  0
LINE
  8
_0-2_躯体
  6
CONTINUOUS
 62
    3
 10
1298.3863
 20
4598.468
 11
1299.9998
 21
4598.3199
  0
LINE
  8
_0-2_躯体
  6
CONTINUOUS
 62
    3
 10
1299.9998
 20
4598.3199
 11
1299.9998
 21
4598.3199
  0
LINE
  8
_0-2_躯体
  6
CONTINUOUS
 62
    3
 10
1299.9998
 20
4539.8197
 11
1299.9998
 21
4539.8197
  0
LINE
  8
_0-2_躯体
  6
CONTINUOUS
 62
    3
 10
1299.9998
 20
4539.8197
 11
1298.3863
 21
4539.6716
  0
LINE
  8
_0-2_躯体
  6
CONTINUOUS
 62
    3
 10
1298.3863
 20
4539.6716
 11
1296.8219
 21
4539.2317
  0
LINE
  8
_0-2_躯体
  6
CONTINUOUS
 62
    3
 10
1296.8219
 20
4539.2317
 11
1295.354
 21
4538.5135
  0
LINE
  8
_0-2_躯体
  6
CONTINUOUS
 62
    3
 10
1295.354
 20
4538.5135
 11
1294.0272
 21
4537.5387
  0
LINE
  8
_0-2_躯体
  6
CONTINUOUS
 62
    3
 10
1294.0272
 20
4537.5387
 11
1292.882
 21
4536.3369
  0
LINE
  8
_0-2_躯体
  6
CONTINUOUS
 62
    3
 10
1292.882
 20
4536.3369
 11
1291.953
 21
4534.9448
  0
LINE
  8
_0-2_躯体
  6
CONTINUOUS
 62
    3
 10
1291.953
 20
4534.9448
 11
1291.2685
 21
4533.4045
  0
LINE
  8
_0-2_躯体
  6
CONTINUOUS
 62
    3
 10
1291.2685
 20
4533.4045
 11
1290.8493
 21
4531.7629
  0
LINE
  8
_0-2_躯体
  6
CONTINUOUS
 62
    3
 10
1290.8493
 20
4531.7629
 11
1290.7081
 21
4530.0698
  0
LINE
  8
_0-2_躯体
  6
CONTINUOUS
 62
    3
 10
1290.7081
 20
4530.0698
 11
1290.8493
 21
4528.3768
  0
LINE
  8
_0-2_躯体
  6
CONTINUOUS
 62
    3
 10
1290.8493
 20
4528.3768
 11
1291.2685
 21
4526.7352
  0
LINE
  8
_0-2_躯体
  6
CONTINUOUS
 62
    3
 10
1291.2685
 20
4526.7352
 11
1291.953
 21
4525.1949
  0
LINE
  8
_0-2_躯体
  6
CONTINUOUS
 62
    3
 10
1291.953
 20
4525.1949
 11
1292.882
 21
4523.8027
  0
LINE
  8
_0-2_躯体
  6
CONTINUOUS
 62
    3
 10
1292.882
 20
4523.8027
 11
1294.0272
 21
4522.601
  0
LINE
  8
_0-2_躯体
  6
CONTINUOUS
 62
    3
 10
1294.0272
 20
4522.601
 11
1295.354
 21
4521.6262
  0
LINE
  8
_0-2_躯体
  6
CONTINUOUS
 62
    3
 10
1295.354
 20
4521.6262
 11
1296.8219
 21
4520.9079
  0
LINE
  8
_0-2_躯体
  6
CONTINUOUS
 62
    3
 10
1296.8219
 20
4520.9079
 11
1298.3863
 21
4520.468
  0
LINE
  8
_0-2_躯体
  6
CONTINUOUS
 62
    3
 10
1298.3863
 20
4520.468
 11
1299.9998
 21
4520.3199
  0
LINE
  8
_0-2_躯体
  6
CONTINUOUS
 62
    3
 10
1299.9998
 20
4520.3199
 11
1299.9998
 21
4520.3199
  0
LINE
  8
_0-2_躯体
  6
CONTINUOUS
 62
    3
 10
1567.4996
 20
4282.8188
 11
1567.4996
 21
4282.8188
  0
LINE
  8
_0-2_躯体
  6
CONTINUOUS
 62
    3
 10
1567.4996
 20
4282.8188
 11
1565.8861
 21
4282.6707
  0
LINE
  8
_0-2_躯体
  6
CONTINUOUS
 62
    3
 10
1565.8861
 20
4282.6707
 11
1564.3216
 21
4282.2308
  0
LINE
  8
_0-2_躯体
  6
CONTINUOUS
 62
    3
 10
1564.3216
 20
4282.2308
 11
1562.8537
 21
4281.5126
  0
LINE
  8
_0-2_躯体
  6
CONTINUOUS
 62
    3
 10
1562.8537
 20
4281.5126
 11
1561.527
 21
4280.5378
  0
LINE
  8
_0-2_躯体
  6
CONTINUOUS
 62
    3
 10
1561.527
 20
4280.5378
 11
1560.3817
 21
4279.336
  0
LINE
  8
_0-2_躯体
  6
CONTINUOUS
 62
    3
 10
1560.3817
 20
4279.336
 11
1559.4527
 21
4277.9439
  0
LINE
  8
_0-2_躯体
  6
CONTINUOUS
 62
    3
 10
1559.4527
 20
4277.9439
 11
1558.7683
 21
4276.4036
  0
LINE
  8
_0-2_躯体
  6
CONTINUOUS
 62
    3
 10
1558.7683
 20
4276.4036
 11
1558.3491
 21
4274.762
  0
LINE
  8
_0-2_躯体
  6
CONTINUOUS
 62
    3
 10
1558.3491
 20
4274.762
 11
1558.2079
 21
4273.0689
  0
LINE
  8
_0-2_躯体
  6
CONTINUOUS
 62
    3
 10
1558.2079
 20
4273.0689
 11
1558.3491
 21
4271.3759
  0
LINE
  8
_0-2_躯体
  6
CONTINUOUS
 62
    3
 10
1558.3491
 20
4271.3759
 11
1558.7683
 21
4269.7343
  0
LINE
  8
_0-2_躯体
  6
CONTINUOUS
 62
    3
 10
1558.7683
 20
4269.7343
 11
1559.4527
 21
4268.194
  0
LINE
  8
_0-2_躯体
  6
CONTINUOUS
 62
    3
 10
1559.4527
 20
4268.194
 11
1560.3817
 21
4266.8018
  0
LINE
  8
_0-2_躯体
  6
CONTINUOUS
 62
    3
 10
1560.3817
 20
4266.8018
 11
1561.527
 21
4265.6001
  0
LINE
  8
_0-2_躯体
  6
CONTINUOUS
 62
    3
 10
1561.527
 20
4265.6001
 11
1562.8537
 21
4264.6253
  0
LINE
  8
_0-2_躯体
  6
CONTINUOUS
 62
    3
 10
1562.8537
 20
4264.6253
 11
1564.3216
 21
4263.907
  0
LINE
  8
_0-2_躯体
  6
CONTINUOUS
 62
    3
 10
1564.3216
 20
4263.907
 11
1565.8861
 21
4263.4672
  0
LINE
  8
_0-2_躯体
  6
CONTINUOUS
 62
    3
 10
1565.8861
 20
4263.4672
 11
1567.4996
 21
4263.319
  0
LINE
  8
_0-2_躯体
  6
CONTINUOUS
 62
    3
 10
1567.4996
 20
4263.319
 11
1567.4996
 21
4263.319
  0
LINE
  8
_0-2_躯体
  6
CONTINUOUS
 62
    3
 10
1567.4996
 20
4214.3196
 11
1567.4996
 21
4214.3196
  0
LINE
  8
_0-2_躯体
  6
CONTINUOUS
 62
    3
 10
1567.4996
 20
4214.3196
 11
1565.8861
 21
4214.1714
  0
LINE
  8
_0-2_躯体
  6
CONTINUOUS
 62
    3
 10
1565.8861
 20
4214.1714
 11
1564.3216
 21
4213.7316
  0
LINE
  8
_0-2_躯体
  6
CONTINUOUS
 62
    3
 10
1564.3216
 20
4213.7316
 11
1562.8537
 21
4213.0133
  0
LINE
  8
_0-2_躯体
  6
CONTINUOUS
 62
    3
 10
1562.8537
 20
4213.0133
 11
1561.527
 21
4212.0385
  0
LINE
  8
_0-2_躯体
  6
CONTINUOUS
 62
    3
 10
1561.527
 20
4212.0385
 11
1560.3817
 21
4210.8368
  0
LINE
  8
_0-2_躯体
  6
CONTINUOUS
 62
    3
 10
1560.3817
 20
4210.8368
 11
1559.4527
 21
4209.4446
  0
LINE
  8
_0-2_躯体
  6
CONTINUOUS
 62
    3
 10
1559.4527
 20
4209.4446
 11
1558.7683
 21
4207.9043
  0
LINE
  8
_0-2_躯体
  6
CONTINUOUS
 62
    3
 10
1558.7683
 20
4207.9043
 11
1558.3491
 21
4206.2627
  0
LINE
  8
_0-2_躯体
  6
CONTINUOUS
 62
    3
 10
1558.3491
 20
4206.2627
 11
1558.2079
 21
4204.5697
  0
LINE
  8
_0-2_躯体
  6
CONTINUOUS
 62
    3
 10
1558.2079
 20
4204.5697
 11
1558.3491
 21
4202.8766
  0
LINE
  8
_0-2_躯体
  6
CONTINUOUS
 62
    3
 10
1558.3491
 20
4202.8766
 11
1558.7683
 21
4201.235
  0
LINE
  8
_0-2_躯体
  6
CONTINUOUS
 62
    3
 10
1558.7683
 20
4201.235
 11
1559.4527
 21
4199.6947
  0
LINE
  8
_0-2_躯体
  6
CONTINUOUS
 62
    3
 10
1559.4527
 20
4199.6947
 11
1560.3817
 21
4198.3026
  0
LINE
  8
_0-2_躯体
  6
CONTINUOUS
 62
    3
 10
1560.3817
 20
4198.3026
 11
1561.527
 21
4197.1008
  0
LINE
  8
_0-2_躯体
  6
CONTINUOUS
 62
    3
 10
1561.527
 20
4197.1008
 11
1562.8537
 21
4196.126
  0
LINE
  8
_0-2_躯体
  6
CONTINUOUS
 62
    3
 10
1562.8537
 20
4196.126
 11
1564.3216
 21
4195.4078
  0
LINE
  8
_0-2_躯体
  6
CONTINUOUS
 62
    3
 10
1564.3216
 20
4195.4078
 11
1565.8861
 21
4194.9679
  0
LINE
  8
_0-2_躯体
  6
CONTINUOUS
 62
    3
 10
1565.8861
 20
4194.9679
 11
1567.4996
 21
4194.8198
  0
LINE
  8
_0-2_躯体
  6
CONTINUOUS
 62
    3
 10
1567.4996
 20
4194.8198
 11
1567.4996
 21
4194.8198
  0
LINE
  8
_0-2_躯体
  6
CONTINUOUS
 62
    3
 10
2900.0001
 20
4598.3199
 11
2900.0001
 21
4598.3199
  0
LINE
  8
_0-2_躯体
  6
CONTINUOUS
 62
    3
 10
2900.0001
 20
4598.3199
 11
2901.6136
 21
4598.468
  0
LINE
  8
_0-2_躯体
  6
CONTINUOUS
 62
    3
 10
2901.6136
 20
4598.468
 11
2903.178
 21
4598.9079
  0
LINE
  8
_0-2_躯体
  6
CONTINUOUS
 62
    3
 10
2903.178
 20
4598.9079
 11
2904.6459
 21
4599.6261
  0
LINE
  8
_0-2_躯体
  6
CONTINUOUS
 62
    3
 10
2904.6459
 20
4599.6261
 11
2905.9727
 21
4600.6009
  0
LINE
  8
_0-2_躯体
  6
CONTINUOUS
 62
    3
 10
2905.9727
 20
4600.6009
 11
2907.1179
 21
4601.8027
  0
LINE
  8
_0-2_躯体
  6
CONTINUOUS
 62
    3
 10
2907.1179
 20
4601.8027
 11
2908.0469
 21
4603.1948
  0
LINE
  8
_0-2_躯体
  6
CONTINUOUS
 62
    3
 10
2908.0469
 20
4603.1948
 11
2908.7314
 21
4604.7351
  0
LINE
  8
_0-2_躯体
  6
CONTINUOUS
 62
    3
 10
2908.7314
 20
4604.7351
 11
2909.1506
 21
4606.3767
  0
LINE
  8
_0-2_躯体
  6
CONTINUOUS
 62
    3
 10
2909.1506
 20
4606.3767
 11
2909.2918
 21
4608.0698
  0
LINE
  8
_0-2_躯体
  6
CONTINUOUS
 62
    3
 10
2909.2918
 20
4608.0698
 11
2909.1506
 21
4609.7628
  0
LINE
  8
_0-2_躯体
  6
CONTINUOUS
 62
    3
 10
2909.1506
 20
4609.7628
 11
2908.7314
 21
4611.4044
  0
LINE
  8
_0-2_躯体
  6
CONTINUOUS
 62
    3
 10
2908.7314
 20
4611.4044
 11
2908.0469
 21
4612.9447
  0
LINE
  8
_0-2_躯体
  6
CONTINUOUS
 62
    3
 10
2908.0469
 20
4612.9447
 11
2907.1179
 21
4614.3369
  0
LINE
  8
_0-2_躯体
  6
CONTINUOUS
 62
    3
 10
2907.1179
 20
4614.3369
 11
2905.9727
 21
4615.5386
  0
LINE
  8
_0-2_躯体
  6
CONTINUOUS
 62
    3
 10
2905.9727
 20
4615.5386
 11
2904.6459
 21
4616.5134
  0
LINE
  8
_0-2_躯体
  6
CONTINUOUS
 62
    3
 10
2904.6459
 20
4616.5134
 11
2903.178
 21
4617.2317
  0
LINE
  8
_0-2_躯体
  6
CONTINUOUS
 62
    3
 10
2903.178
 20
4617.2317
 11
2901.6136
 21
4617.6716
  0
LINE
  8
_0-2_躯体
  6
CONTINUOUS
 62
    3
 10
2901.6136
 20
4617.6716
 11
2900.0001
 21
4617.8197
  0
LINE
  8
_0-2_躯体
  6
CONTINUOUS
 62
    3
 10
2900.0001
 20
4617.8197
 11
2900.0001
 21
4617.8197
  0
LINE
  8
_0-2_躯体
  6
CONTINUOUS
 62
    3
 10
2900.0001
 20
4520.3199
 11
2900.0001
 21
4520.3199
  0
LINE
  8
_0-2_躯体
  6
CONTINUOUS
 62
    3
 10
2900.0001
 20
4520.3199
 11
2901.6136
 21
4520.468
  0
LINE
  8
_0-2_躯体
  6
CONTINUOUS
 62
    3
 10
2901.6136
 20
4520.468
 11
2903.178
 21
4520.9079
  0
LINE
  8
_0-2_躯体
  6
CONTINUOUS
 62
    3
 10
2903.178
 20
4520.9079
 11
2904.6459
 21
4521.6262
  0
LINE
  8
_0-2_躯体
  6
CONTINUOUS
 62
    3
 10
2904.6459
 20
4521.6262
 11
2905.9727
 21
4522.601
  0
LINE
  8
_0-2_躯体
  6
CONTINUOUS
 62
    3
 10
2905.9727
 20
4522.601
 11
2907.1179
 21
4523.8027
  0
LINE
  8
_0-2_躯体
  6
CONTINUOUS
 62
    3
 10
2907.1179
 20
4523.8027
 11
2908.0469
 21
4525.1949
  0
LINE
  8
_0-2_躯体
  6
CONTINUOUS
 62
    3
 10
2908.0469
 20
4525.1949
 11
2908.7314
 21
4526.7352
  0
LINE
  8
_0-2_躯体
  6
CONTINUOUS
 62
    3
 10
2908.7314
 20
4526.7352
 11
2909.1506
 21
4528.3768
  0
LINE
  8
_0-2_躯体
  6
CONTINUOUS
 62
    3
 10
2909.1506
 20
4528.3768
 11
2909.2918
 21
4530.0698
  0
LINE
  8
_0-2_躯体
  6
CONTINUOUS
 62
    3
 10
2909.2918
 20
4530.0698
 11
2909.1506
 21
4531.7629
  0
LINE
  8
_0-2_躯体
  6
CONTINUOUS
 62
    3
 10
2909.1506
 20
4531.7629
 11
2908.7314
 21
4533.4045
  0
LINE
  8
_0-2_躯体
  6
CONTINUOUS
 62
    3
 10
2908.7314
 20
4533.4045
 11
2908.0469
 21
4534.9448
  0
LINE
  8
_0-2_躯体
  6
CONTINUOUS
 62
    3
 10
2908.0469
 20
4534.9448
 11
2907.1179
 21
4536.3369
  0
LINE
  8
_0-2_躯体
  6
CONTINUOUS
 62
    3
 10
2907.1179
 20
4536.3369
 11
2905.9727
 21
4537.5387
  0
LINE
  8
_0-2_躯体
  6
CONTINUOUS
 62
    3
 10
2905.9727
 20
4537.5387
 11
2904.6459
 21
4538.5135
  0
LINE
  8
_0-2_躯体
  6
CONTINUOUS
 62
    3
 10
2904.6459
 20
4538.5135
 11
2903.178
 21
4539.2317
  0
LINE
  8
_0-2_躯体
  6
CONTINUOUS
 62
    3
 10
2903.178
 20
4539.2317
 11
2901.6136
 21
4539.6716
  0
LINE
  8
_0-2_躯体
  6
CONTINUOUS
 62
    3
 10
2901.6136
 20
4539.6716
 11
2900.0001
 21
4539.8197
  0
LINE
  8
_0-2_躯体
  6
CONTINUOUS
 62
    3
 10
2900.0001
 20
4539.8197
 11
2900.0001
 21
4539.8197
  0
LINE
  8
_0-2_躯体
  6
CONTINUOUS
 62
    3
 10
2632.5003
 20
4263.319
 11
2632.5003
 21
4263.319
  0
LINE
  8
_0-2_躯体
  6
CONTINUOUS
 62
    3
 10
2632.5003
 20
4263.319
 11
2634.1138
 21
4263.4672
  0
LINE
  8
_0-2_躯体
  6
CONTINUOUS
 62
    3
 10
2634.1138
 20
4263.4672
 11
2635.6783
 21
4263.907
  0
LINE
  8
_0-2_躯体
  6
CONTINUOUS
 62
    3
 10
2635.6783
 20
4263.907
 11
2637.1462
 21
4264.6253
  0
LINE
  8
_0-2_躯体
  6
CONTINUOUS
 62
    3
 10
2637.1462
 20
4264.6253
 11
2638.4729
 21
4265.6001
  0
LINE
  8
_0-2_躯体
  6
CONTINUOUS
 62
    3
 10
2638.4729
 20
4265.6001
 11
2639.6182
 21
4266.8018
  0
LINE
  8
_0-2_躯体
  6
CONTINUOUS
 62
    3
 10
2639.6182
 20
4266.8018
 11
2640.5472
 21
4268.194
  0
LINE
  8
_0-2_躯体
  6
CONTINUOUS
 62
    3
 10
2640.5472
 20
4268.194
 11
2641.2316
 21
4269.7343
  0
LINE
  8
_0-2_躯体
  6
CONTINUOUS
 62
    3
 10
2641.2316
 20
4269.7343
 11
2641.6508
 21
4271.3759
  0
LINE
  8
_0-2_躯体
  6
CONTINUOUS
 62
    3
 10
2641.6508
 20
4271.3759
 11
2641.792
 21
4273.0689
  0
LINE
  8
_0-2_躯体
  6
CONTINUOUS
 62
    3
 10
2641.792
 20
4273.0689
 11
2641.6508
 21
4274.762
  0
LINE
  8
_0-2_躯体
  6
CONTINUOUS
 62
    3
 10
2641.6508
 20
4274.762
 11
2641.2316
 21
4276.4036
  0
LINE
  8
_0-2_躯体
  6
CONTINUOUS
 62
    3
 10
2641.2316
 20
4276.4036
 11
2640.5472
 21
4277.9439
  0
LINE
  8
_0-2_躯体
  6
CONTINUOUS
 62
    3
 10
2640.5472
 20
4277.9439
 11
2639.6182
 21
4279.336
  0
LINE
  8
_0-2_躯体
  6
CONTINUOUS
 62
    3
 10
2639.6182
 20
4279.336
 11
2638.4729
 21
4280.5378
  0
LINE
  8
_0-2_躯体
  6
CONTINUOUS
 62
    3
 10
2638.4729
 20
4280.5378
 11
2637.1462
 21
4281.5126
  0
LINE
  8
_0-2_躯体
  6
CONTINUOUS
 62
    3
 10
2637.1462
 20
4281.5126
 11
2635.6783
 21
4282.2308
  0
LINE
  8
_0-2_躯体
  6
CONTINUOUS
 62
    3
 10
2635.6783
 20
4282.2308
 11
2634.1138
 21
4282.6707
  0
LINE
  8
_0-2_躯体
  6
CONTINUOUS
 62
    3
 10
2634.1138
 20
4282.6707
 11
2632.5003
 21
4282.8188
  0
LINE
  8
_0-2_躯体
  6
CONTINUOUS
 62
    3
 10
2632.5003
 20
4282.8188
 11
2632.5003
 21
4282.8188
  0
LINE
  8
_0-2_躯体
  6
CONTINUOUS
 62
    3
 10
2632.5003
 20
4194.8198
 11
2632.5003
 21
4194.8198
  0
LINE
  8
_0-2_躯体
  6
CONTINUOUS
 62
    3
 10
2632.5003
 20
4194.8198
 11
2634.1138
 21
4194.9679
  0
LINE
  8
_0-2_躯体
  6
CONTINUOUS
 62
    3
 10
2634.1138
 20
4194.9679
 11
2635.6783
 21
4195.4078
  0
LINE
  8
_0-2_躯体
  6
CONTINUOUS
 62
    3
 10
2635.6783
 20
4195.4078
 11
2637.1462
 21
4196.126
  0
LINE
  8
_0-2_躯体
  6
CONTINUOUS
 62
    3
 10
2637.1462
 20
4196.126
 11
2638.4729
 21
4197.1008
  0
LINE
  8
_0-2_躯体
  6
CONTINUOUS
 62
    3
 10
2638.4729
 20
4197.1008
 11
2639.6182
 21
4198.3026
  0
LINE
  8
_0-2_躯体
  6
CONTINUOUS
 62
    3
 10
2639.6182
 20
4198.3026
 11
2640.5472
 21
4199.6947
  0
LINE
  8
_0-2_躯体
  6
CONTINUOUS
 62
    3
 10
2640.5472
 20
4199.6947
 11
2641.2316
 21
4201.235
  0
LINE
  8
_0-2_躯体
  6
CONTINUOUS
 62
    3
 10
2641.2316
 20
4201.235
 11
2641.6508
 21
4202.8766
  0
LINE
  8
_0-2_躯体
  6
CONTINUOUS
 62
    3
 10
2641.6508
 20
4202.8766
 11
2641.792
 21
4204.5697
  0
LINE
  8
_0-2_躯体
  6
CONTINUOUS
 62
    3
 10
2641.792
 20
4204.5697
 11
2641.6508
 21
4206.2627
  0
LINE
  8
_0-2_躯体
  6
CONTINUOUS
 62
    3
 10
2641.6508
 20
4206.2627
 11
2641.2316
 21
4207.9043
  0
LINE
  8
_0-2_躯体
  6
CONTINUOUS
 62
    3
 10
2641.2316
 20
4207.9043
 11
2640.5472
 21
4209.4446
  0
LINE
  8
_0-2_躯体
  6
CONTINUOUS
 62
    3
 10
2640.5472
 20
4209.4446
 11
2639.6182
 21
4210.8368
  0
LINE
  8
_0-2_躯体
  6
CONTINUOUS
 62
    3
 10
2639.6182
 20
4210.8368
 11
2638.4729
 21
4212.0385
  0
LINE
  8
_0-2_躯体
  6
CONTINUOUS
 62
    3
 10
2638.4729
 20
4212.0385
 11
2637.1462
 21
4213.0133
  0
LINE
  8
_0-2_躯体
  6
CONTINUOUS
 62
    3
 10
2637.1462
 20
4213.0133
 11
2635.6783
 21
4213.7316
  0
LINE
  8
_0-2_躯体
  6
CONTINUOUS
 62
    3
 10
2635.6783
 20
4213.7316
 11
2634.1138
 21
4214.1714
  0
LINE
  8
_0-2_躯体
  6
CONTINUOUS
 62
    3
 10
2634.1138
 20
4214.1714
 11
2632.5003
 21
4214.3196
  0
LINE
  8
_0-2_躯体
  6
CONTINUOUS
 62
    3
 10
2632.5003
 20
4214.3196
 11
2632.5003
 21
4214.3196
  0
TEXT
  8
_0-d_文字
 62
    7
 10
509.99969
 20
310.13513
 40
50
 41
1
 50
0
  1
図
  0
TEXT
  8
_0-d_文字
 62
    7
 10
509.99969
 20
190.1352
 40
50
 41
1
 50
0
  1
番
  0
TEXT
  8
_0-d_文字
 62
    7
 10
1309.9997
 20
310.13513
 40
50
 41
1
 50
0
  1
承
  0
TEXT
  8
_0-d_文字
 62
    7
 10
1309.9997
 20
190.1352
 40
50
 41
1
 50
0
  1
認
  0
TEXT
  8
_0-d_文字
 62
    7
 10
2039.9996
 20
470.13522
 40
50
 41
1
 50
0
  1
尺
  0
TEXT
  8
_0-d_文字
 62
    7
 10
2039.9996
 20
390.13527
 40
50
 41
1
 50
-0.0001417
  1
度
  0
TEXT
  8
_0-d_文字
 62
    7
 10
1709.9997
 20
310.13513
 40
50
 41
1
 50
0
  1
製
  0
TEXT
  8
_0-d_文字
 62
    7
 10
1709.9997
 20
190.1352
 40
50
 41
1
 50
0
  1
図
  0
TEXT
  8
_0-d_文字
 62
    7
 10
3109.9998
 20
470.13522
 40
50
 41
1
 50
0
  1
日
  0
TEXT
  8
_0-d_文字
 62
    7
 10
3109.9998
 20
390.13527
 40
50
 41
1
 50
-0.0001417
  1
付
  0
TEXT
  8
_0-d_文字
 62
    7
 10
2222.8519
 20
322.09974
 40
40
 41
1
 50
0
  1
株式
  0
TEXT
  8
_0-d_文字
 62
    7
 10
2222.8519
 20
278.83888
 40
40
 41
1
 50
0.0000196
  1
会社
  0
TEXT
  8
_0-d_文字
 62
    3
 10
2348.4483
 20
281.62988
 40
80
 41
1
 50
-0.0000039
  1
スズキベンチレーター
  0
TEXT
  8
_0-d_文字
 62
    7
 10
2475.8353
 20
183.18396
 40
40
 41
1
 50
0
  1
TEL(054)296-7000  FAX(054)296-7001
  0
TEXT
  8
_0-8_寸法
 62
    3
 10
2024.375
 20
5194.0602
 40
60
 41
1
 50
0
  1
1,600
  0
TEXT
  8
_0-8_寸法
 62
    3
 10
998.27517
 20
4447.9445
 40
60
 41
1
 50
90
  1
875
  0
TEXT
  8
_0-8_寸法
 62
    3
 10
2024.3745
 20
3998.0032
 40
60
 41
1
 50
0
  1
1,065
  0
TEXT
  8
_0-d_文字
 62
    3
 10
2168.6976
 20
415.33665
 40
80
 41
1
 50
0
  1
１／２０
  0
TEXT
  8
_0-d_文字
 62
    7
 10
2471.3581
 20
232.42737
 40
40
 41
1
 50
-0.0000034
  1
〒421-2114　静岡市葵区安倍口新田１５２番地
  0
TEXT
  8
_0-d_文字
 62
    3
 10
596.67529
 20
287.90674
 40
60
 41
1
 50
0
  1
105L-01a
  0
TEXT
  8
_0-d_文字
 62
    3
 10
510.00002
 20
5545.4025
 40
100
 41
1
 50
0
  1
ＳＴ－１０５Ｌ　直付型（低騒音）立面
  0
TEXT
  8
_0-d_文字
 62
    3
 10
562.32177
 20
415.2802
 40
60
 41
1
 50
0
  1
ＳＴ－１０５Ｌ　直付型（低騒音）立面
  0
POINT
  8
_0-8_寸法
 62
    2
 10
1013.2749
 20
4164.8199
  0
POINT
  8
_0-8_寸法
 62
    2
 10
1013.2749
 20
5039.8196
  0
POINT
  8
_0-8_寸法
 62
    2
 10
1299.9998
 20
5179.0609
  0
POINT
  8
_0-8_寸法
 62
    2
 10
2899.9996
 20
5179.0609
  0
POINT
  8
_0-8_寸法
 62
    2
 10
1567.4996
 20
3983.0031
  0
POINT
  8
_0-8_寸法
 62
    2
 10
2632.4994
 20
3983.0031
  0
ENDSEC
  0
EOF
