  0
SECTION
  2
HEADER
  9
$EXTMIN
 10
0
 20
0
  9
$EXTMAX
 10
4200
 20
2970
  0
ENDSEC
  0
SECTION
  2
TABLES
  0
TABLE
  2
LTYPE
 70
     9
  0
LTYPE
  2
CONTINUOUS
 70
    64
  3
実線
 72
    65
 73
     0
 40
0.0
  0
LTYPE
  2
DASHED1
 70
    64
  3
--  --  --  --  --  --  --  --  
 72
    65
 73
     2
 40
2.5
 49
1.25
 49
-1.25
  0
LTYPE
  2
DASHED2
 70
    64
  3
----    ----    ----    ----    
 72
    65
 73
     2
 40
5.0
 49
2.5
 49
-2.5
  0
LTYPE
  2
DASHED3
 70
    64
  3
------  ------  ------  ------  
 72
    65
 73
     2
 40
5.0
 49
3.75
 49
-1.25
  0
LTYPE
  2
CENTER1
 70
    64
  3
----- - ----- - ----- - ----- - 
 72
    65
 73
     4
 40
10.0
 49
6.25
 49
-1.25
 49
1.25
 49
-1.25
  0
LTYPE
  2
CENTER2
 70
    64
  3
----------  --  ----------  --  
 72
    65
 73
     4
 40
20.0
 49
12.5
 49
-2.5
 49
2.5
 49
-2.5
  0
LTYPE
  2
PHANTOM1
 70
    64
  3
--- - - --- - - --- - - --- - - 
 72
    65
 73
     6
 40
10.0
 49
3.25
 49
-1.25
 49
1.25
 49
-1.25
 49
1.25
 49
-1.25
  0
LTYPE
  2
PHANTOM2
 70
    64
  3
--------  -  -  --------  -  -  
 72
    65
 73
     6
 40
20.0
 49
10.0
 49
-2.5
 49
1.25
 49
-2.5
 49
1.25
 49
-2.5
  0
LTYPE
  2
DOT
 70
    64
  3
-   -   -   -   -   -   -   -   
 72
    65
 73
     2
 40
2.5
 49
0.625
 49
-1.875
  0
ENDTAB
  0
TABLE
  2
STYLE
 70
    1
  0
STYLE
  2
STANDARD
 70
    64
 40
0.0
 41
1.0
 42
0.0
 50
0.0
 71
     0
  3
TXT
  4
BIGFONT
  0
ENDTAB
  0
TABLE
  2
LAYER
 70
    6
  0
LAYER
  2
1-1
 70
   64
 62
    7
  6
CONTINUOUS
  0
LAYER
  2
1-2
 70
   64
 62
    7
  6
CONTINUOUS
  0
LAYER
  2
1-5
 70
   64
 62
    7
  6
CONTINUOUS
  0
LAYER
  2
1-8
 70
   64
 62
    7
  6
CONTINUOUS
  0
LAYER
  2
1-d
 70
   64
 62
    7
  6
CONTINUOUS
  0
LAYER
  2
ADD_LINE
 70
   64
 62
    7
  6
CONTINUOUS
  0
ENDTAB
  0
ENDSEC
  0
SECTION
  2
ENTITIES
  0
LINE
  8
1-d
  6
CONTINUOUS
 62
    7
 10
250.00006
 20
2757.7013
 11
1850.0001
 21
2757.7013
  0
LINE
  8
1-d
  6
CONTINUOUS
 62
    7
 10
250.00006
 20
2767.7016
 11
1850.0001
 21
2767.7016
  0
LINE
  8
1-d
  6
CONTINUOUS
 62
    7
 10
249.99969
 20
189.99989
 11
1850.0005
 21
189.99989
  0
LINE
  8
1-d
  6
CONTINUOUS
 62
    7
 10
249.99969
 20
89.999806
 11
249.99969
 21
269.99991
  0
LINE
  8
1-d
  6
CONTINUOUS
 62
    7
 10
249.99969
 20
89.999806
 11
1850.0005
 21
89.999806
  0
LINE
  8
1-d
  6
CONTINUOUS
 62
    7
 10
1850.0005
 20
269.99991
 11
1850.0005
 21
89.999806
  0
LINE
  8
1-d
  6
CONTINUOUS
 62
    7
 10
249.99969
 20
269.99991
 11
1850.0005
 21
269.99991
  0
LINE
  8
1-d
  6
CONTINUOUS
 62
    7
 10
1050
 20
269.99991
 11
1050
 21
89.999806
  0
LINE
  8
1-d
  6
CONTINUOUS
 62
    7
 10
650.00019
 20
89.999806
 11
650.00019
 21
189.99989
  0
LINE
  8
1-d
  6
CONTINUOUS
 62
    7
 10
1050
 20
189.99989
 11
1050
 21
269.99991
  0
LINE
  8
1-d
  6
CONTINUOUS
 62
    7
 10
849.99981
 20
89.999806
 11
849.99981
 21
189.99989
  0
LINE
  8
1-d
  6
CONTINUOUS
 62
    7
 10
285.00002
 20
89.999806
 11
285.00002
 21
189.99989
  0
LINE
  8
1-d
  6
CONTINUOUS
 62
    7
 10
685.00006
 20
89.999806
 11
685.00006
 21
189.99989
  0
LINE
  8
1-d
  6
CONTINUOUS
 62
    7
 10
885.00018
 20
89.999806
 11
885.00018
 21
189.99989
  0
LINE
  8
1-d
  6
CONTINUOUS
 62
    7
 10
1015
 20
189.99989
 11
1015
 21
269.99991
  0
LINE
  8
1-d
  6
CONTINUOUS
 62
    7
 10
1550.0004
 20
189.99989
 11
1550.0004
 21
269.99991
  0
LINE
  8
1-d
  6
CONTINUOUS
 62
    7
 10
1585.0002
 20
189.99989
 11
1585.0002
 21
269.99991
  0
LINE
  8
1-8
  6
CONTINUOUS
 62
    7
 10
583.33477
 20
1689.9893
 11
325.51662
 21
1689.9893
  0
LINE
  8
1-8
  6
CONTINUOUS
 62
    7
 10
643.3333
 20
2502.8168
 11
1456.6665
 21
2502.8168
  0
LINE
  8
1-8
  6
CONTINUOUS
 62
    7
 10
745.00014
 20
1568.7789
 11
1354.9999
 21
1568.7789
  0
LINE
  8
1-8
  6
CONTINUOUS
 62
    7
 10
745.00014
 20
1645.7515
 11
745.00014
 21
1568.7789
  0
LINE
  8
1-8
  6
CONTINUOUS
 62
    7
 10
1354.9999
 20
1645.7515
 11
1354.9999
 21
1568.7789
  0
LINE
  8
1-8
  6
CONTINUOUS
 62
    7
 10
643.3333
 20
2293.0214
 11
643.3333
 21
2502.8168
  0
LINE
  8
1-8
  6
CONTINUOUS
 62
    7
 10
719.70276
 20
2356.656
 11
325.51662
 21
2356.656
  0
LINE
  8
1-8
  6
CONTINUOUS
 62
    7
 10
1456.6665
 20
2293.0214
 11
1456.6665
 21
2502.8168
  0
LINE
  8
1-2
  6
CONTINUOUS
 62
    3
 10
643.3333
 20
1848.9899
 11
643.3333
 21
1809.9897
  0
LINE
  8
1-2
  6
CONTINUOUS
 62
    3
 10
643.3333
 20
1796.9899
 11
643.3333
 21
1766.656
  0
LINE
  8
1-2
  6
CONTINUOUS
 62
    3
 10
1456.6668
 20
1848.9899
 11
1456.6668
 21
1809.9897
  0
LINE
  8
1-2
  6
CONTINUOUS
 62
    3
 10
1456.6654
 20
1796.9899
 11
1456.6654
 21
1766.656
  0
LINE
  8
1-2
  6
CONTINUOUS
 62
    3
 10
745.00014
 20
1722.9903
 11
1354.9999
 21
1722.9903
  0
LINE
  8
1-2
  6
CONTINUOUS
 62
    3
 10
745.00014
 20
1689.9898
 11
1354.9999
 21
1689.9898
  0
LINE
  8
1-2
  6
CONTINUOUS
 62
    3
 10
745.00014
 20
1709.9903
 11
1354.9999
 21
1709.9903
  0
LINE
  8
1-2
  6
CONTINUOUS
 62
    3
 10
1354.9999
 20
1709.9903
 11
1354.9999
 21
1689.9898
  0
LINE
  8
1-2
  6
CONTINUOUS
 62
    3
 10
745.00014
 20
1709.9903
 11
745.00014
 21
1689.9898
  0
LINE
  8
1-8
  6
CONTINUOUS
 62
    7
 10
325.51662
 20
1689.9893
 11
325.51662
 21
2356.656
  0
LINE
  8
1-2
  6
CONTINUOUS
 62
    3
 10
643.3333
 20
2150.9892
 11
643.3333
 21
2189.9895
  0
LINE
  8
1-2
  6
CONTINUOUS
 62
    3
 10
643.3333
 20
2202.9892
 11
643.3333
 21
2233.3231
  0
LINE
  8
1-2
  6
CONTINUOUS
 62
    3
 10
1456.6668
 20
2150.9892
 11
1456.6668
 21
2189.9895
  0
LINE
  8
1-2
  6
CONTINUOUS
 62
    3
 10
1456.6654
 20
2202.9892
 11
1456.6654
 21
2233.3231
  0
LINE
  8
1-2
  6
CONTINUOUS
 62
    3
 10
643.3333
 20
2137.9897
 11
643.3333
 21
1861.9894
  0
LINE
  8
1-2
  6
CONTINUOUS
 62
    3
 10
1456.6668
 20
2137.9897
 11
1456.6668
 21
1861.9894
  0
LINE
  8
1-2
  6
CONTINUOUS
 62
    3
 10
1050
 20
2356.656
 11
836.3814
 21
2233.3231
  0
LINE
  8
1-2
  6
CONTINUOUS
 62
    3
 10
643.3333
 20
2202.9892
 11
1050
 21
2202.9892
  0
LINE
  8
1-2
  6
CONTINUOUS
 62
    3
 10
643.3333
 20
2189.9895
 11
1050
 21
2189.9895
  0
LINE
  8
1-2
  6
CONTINUOUS
 62
    3
 10
643.3333
 20
2137.9897
 11
1050
 21
2137.9897
  0
LINE
  8
1-2
  6
CONTINUOUS
 62
    3
 10
643.3333
 20
2150.9892
 11
1050
 21
2150.9892
  0
LINE
  8
1-2
  6
CONTINUOUS
 62
    3
 10
643.3333
 20
2233.3231
 11
1050
 21
2233.3231
  0
LINE
  8
1-2
  6
CONTINUOUS
 62
    3
 10
643.3333
 20
1796.9899
 11
1050
 21
1796.9899
  0
LINE
  8
1-2
  6
CONTINUOUS
 62
    3
 10
643.3333
 20
1809.9897
 11
1050
 21
1809.9897
  0
LINE
  8
1-2
  6
CONTINUOUS
 62
    3
 10
643.3333
 20
1861.9894
 11
1050
 21
1861.9894
  0
LINE
  8
1-2
  6
CONTINUOUS
 62
    3
 10
643.3333
 20
1848.9899
 11
1050
 21
1848.9899
  0
LINE
  8
1-2
  6
CONTINUOUS
 62
    3
 10
643.3333
 20
1766.656
 11
1050
 21
1766.656
  0
LINE
  8
1-2
  6
CONTINUOUS
 62
    3
 10
1354.9999
 20
1796.9899
 11
1456.6668
 21
1796.9899
  0
LINE
  8
1-2
  6
CONTINUOUS
 62
    3
 10
1354.9999
 20
1809.9897
 11
1456.6668
 21
1809.9897
  0
LINE
  8
1-2
  6
CONTINUOUS
 62
    3
 10
1354.9999
 20
1861.9894
 11
1456.6668
 21
1861.9894
  0
LINE
  8
1-2
  6
CONTINUOUS
 62
    3
 10
1354.9999
 20
1848.9899
 11
1456.6668
 21
1848.9899
  0
LINE
  8
1-2
  6
CONTINUOUS
 62
    3
 10
1361.1943
 20
1766.656
 11
1456.6668
 21
1766.656
  0
LINE
  8
1-2
  6
CONTINUOUS
 62
    3
 10
1354.9999
 20
1760.1559
 11
1354.9999
 21
1722.9903
  0
LINE
  8
1-2
  6
CONTINUOUS
 62
    3
 10
1050
 20
1760.156
 11
1354.9999
 21
1760.156
  0
LINE
  8
1-2
  6
CONTINUOUS
 62
    3
 10
1050
 20
1773.156
 11
1354.9999
 21
1773.156
  0
LINE
  8
1-2
  6
CONTINUOUS
 62
    3
 10
1050
 20
1760.156
 11
745.00014
 21
1760.156
  0
LINE
  8
1-2
  6
CONTINUOUS
 62
    3
 10
745.00014
 20
1760.1559
 11
745.00014
 21
1722.9903
  0
LINE
  8
1-2
  6
CONTINUOUS
 62
    3
 10
1392.4355
 20
2130.3914
 11
1050
 21
2356.656
  0
LINE
  8
1-2
  6
CONTINUOUS
 62
    3
 10
1236.6555
 20
2233.3231
 11
1456.6668
 21
2233.3231
  0
LINE
  8
1-2
  6
CONTINUOUS
 62
    3
 10
1282.5636
 20
2202.9892
 11
1456.6668
 21
2202.9892
  0
LINE
  8
1-2
  6
CONTINUOUS
 62
    3
 10
1302.2378
 20
2189.9895
 11
1456.6668
 21
2189.9895
  0
LINE
  8
1-2
  6
CONTINUOUS
 62
    3
 10
1361.2619
 20
2150.9892
 11
1456.6668
 21
2150.9892
  0
LINE
  8
1-2
  6
CONTINUOUS
 62
    3
 10
1380.9357
 20
2137.9897
 11
1456.6668
 21
2137.9897
  0
LINE
  8
1-2
  6
CONTINUOUS
 62
    3
 10
1354.9999
 20
2070.2256
 11
1354.9999
 21
2107.3911
  0
LINE
  8
1-2
  6
CONTINUOUS
 62
    3
 10
1050
 20
2070.2254
 11
1354.9999
 21
2070.2254
  0
LINE
  8
1-2
  6
CONTINUOUS
 62
    3
 10
1354.9999
 20
2107.3913
 11
1050
 21
2107.3913
  0
LINE
  8
1-2
  6
CONTINUOUS
 62
    3
 10
1354.9999
 20
2120.3913
 11
1050
 21
2120.3913
  0
LINE
  8
1-5
  6
CONTINUOUS
 62
    3
 10
1354.9999
 20
2155.1269
 11
1050
 21
2155.1269
  0
LINE
  8
1-2
  6
CONTINUOUS
 62
    3
 10
1392.4355
 20
2130.3914
 11
1354.9999
 21
2130.3914
  0
LINE
  8
1-5
  6
CONTINUOUS
 62
    3
 10
1354.9999
 20
2120.3913
 11
1354.9999
 21
2155.1269
  0
LINE
  8
1-5
  6
CONTINUOUS
 62
    4
 10
1354.9999
 20
2150.1269
 11
1050
 21
2150.1269
  0
LINE
  8
1-5
  6
CONTINUOUS
 62
    4
 10
1354.9999
 20
2145.1269
 11
1050
 21
2145.1269
  0
LINE
  8
1-5
  6
CONTINUOUS
 62
    4
 10
1354.9999
 20
2140.1269
 11
1050
 21
2140.1269
  0
LINE
  8
1-5
  6
CONTINUOUS
 62
    4
 10
1354.9999
 20
2135.1269
 11
1050
 21
2135.1269
  0
LINE
  8
1-5
  6
CONTINUOUS
 62
    4
 10
1354.9999
 20
2130.1268
 11
1050
 21
2130.1268
  0
LINE
  8
1-5
  6
CONTINUOUS
 62
    4
 10
1354.9999
 20
2125.1268
 11
1050
 21
2125.1268
  0
LINE
  8
1-5
  6
CONTINUOUS
 62
    4
 10
1349.9999
 20
2120.3913
 11
1349.9999
 21
2155.1269
  0
LINE
  8
1-5
  6
CONTINUOUS
 62
    4
 10
1344.9999
 20
2120.3913
 11
1344.9999
 21
2155.1269
  0
LINE
  8
1-5
  6
CONTINUOUS
 62
    4
 10
1339.9999
 20
2120.3913
 11
1339.9999
 21
2155.1269
  0
LINE
  8
1-5
  6
CONTINUOUS
 62
    4
 10
1335
 20
2120.3913
 11
1335
 21
2155.1269
  0
LINE
  8
1-5
  6
CONTINUOUS
 62
    4
 10
1330
 20
2120.3913
 11
1330
 21
2155.1269
  0
LINE
  8
1-5
  6
CONTINUOUS
 62
    4
 10
1324.9999
 20
2120.3913
 11
1324.9999
 21
2155.1269
  0
LINE
  8
1-5
  6
CONTINUOUS
 62
    4
 10
1319.9999
 20
2120.3913
 11
1319.9999
 21
2155.1269
  0
LINE
  8
1-5
  6
CONTINUOUS
 62
    4
 10
1314.9999
 20
2120.3913
 11
1314.9999
 21
2155.1269
  0
LINE
  8
1-5
  6
CONTINUOUS
 62
    4
 10
1309.9999
 20
2120.3913
 11
1309.9999
 21
2155.1269
  0
LINE
  8
1-5
  6
CONTINUOUS
 62
    4
 10
1305
 20
2120.3913
 11
1305
 21
2155.1269
  0
LINE
  8
1-5
  6
CONTINUOUS
 62
    4
 10
1300
 20
2120.3913
 11
1300
 21
2155.1269
  0
LINE
  8
1-5
  6
CONTINUOUS
 62
    4
 10
1295
 20
2120.3913
 11
1295
 21
2155.1269
  0
LINE
  8
1-5
  6
CONTINUOUS
 62
    4
 10
1289.9999
 20
2120.3913
 11
1289.9999
 21
2155.1269
  0
LINE
  8
1-5
  6
CONTINUOUS
 62
    4
 10
1284.9999
 20
2120.3913
 11
1284.9999
 21
2155.1269
  0
LINE
  8
1-5
  6
CONTINUOUS
 62
    4
 10
1279.9999
 20
2120.3913
 11
1279.9999
 21
2155.1269
  0
LINE
  8
1-5
  6
CONTINUOUS
 62
    4
 10
1275
 20
2120.3913
 11
1275
 21
2155.1269
  0
LINE
  8
1-5
  6
CONTINUOUS
 62
    4
 10
1270
 20
2120.3913
 11
1270
 21
2155.1269
  0
LINE
  8
1-5
  6
CONTINUOUS
 62
    4
 10
1265
 20
2120.3913
 11
1265
 21
2155.1269
  0
LINE
  8
1-5
  6
CONTINUOUS
 62
    4
 10
1260
 20
2120.3913
 11
1260
 21
2155.1269
  0
LINE
  8
1-5
  6
CONTINUOUS
 62
    4
 10
1254.9999
 20
2120.3913
 11
1254.9999
 21
2155.1269
  0
LINE
  8
1-5
  6
CONTINUOUS
 62
    4
 10
1249.9999
 20
2120.3913
 11
1249.9999
 21
2155.1269
  0
LINE
  8
1-5
  6
CONTINUOUS
 62
    4
 10
1245
 20
2120.3913
 11
1245
 21
2155.1269
  0
LINE
  8
1-5
  6
CONTINUOUS
 62
    4
 10
1240
 20
2120.3913
 11
1240
 21
2155.1269
  0
LINE
  8
1-5
  6
CONTINUOUS
 62
    4
 10
1235
 20
2120.3913
 11
1235
 21
2155.1269
  0
LINE
  8
1-5
  6
CONTINUOUS
 62
    4
 10
1230
 20
2120.3913
 11
1230
 21
2155.1269
  0
LINE
  8
1-5
  6
CONTINUOUS
 62
    4
 10
1225
 20
2120.3913
 11
1225
 21
2155.1269
  0
LINE
  8
1-5
  6
CONTINUOUS
 62
    4
 10
1220
 20
2120.3913
 11
1220
 21
2155.1269
  0
LINE
  8
1-5
  6
CONTINUOUS
 62
    4
 10
1215.0001
 20
2120.3913
 11
1215.0001
 21
2155.1269
  0
LINE
  8
1-5
  6
CONTINUOUS
 62
    4
 10
1210
 20
2120.3913
 11
1210
 21
2155.1269
  0
LINE
  8
1-5
  6
CONTINUOUS
 62
    4
 10
1205
 20
2120.3913
 11
1205
 21
2155.1269
  0
LINE
  8
1-5
  6
CONTINUOUS
 62
    4
 10
1200
 20
2120.3913
 11
1200
 21
2155.1269
  0
LINE
  8
1-5
  6
CONTINUOUS
 62
    4
 10
1195
 20
2120.3913
 11
1195
 21
2155.1269
  0
LINE
  8
1-5
  6
CONTINUOUS
 62
    4
 10
1190
 20
2120.3913
 11
1190
 21
2155.1269
  0
LINE
  8
1-5
  6
CONTINUOUS
 62
    4
 10
1185.0001
 20
2120.3913
 11
1185.0001
 21
2155.1269
  0
LINE
  8
1-5
  6
CONTINUOUS
 62
    4
 10
1180.0001
 20
2120.3913
 11
1180.0001
 21
2155.1269
  0
LINE
  8
1-5
  6
CONTINUOUS
 62
    4
 10
1175.0001
 20
2120.3913
 11
1175.0001
 21
2155.1269
  0
LINE
  8
1-5
  6
CONTINUOUS
 62
    4
 10
1170
 20
2120.3913
 11
1170
 21
2155.1269
  0
LINE
  8
1-5
  6
CONTINUOUS
 62
    4
 10
1165
 20
2120.3913
 11
1165
 21
2155.1269
  0
LINE
  8
1-5
  6
CONTINUOUS
 62
    4
 10
1160
 20
2120.3913
 11
1160
 21
2155.1269
  0
LINE
  8
1-5
  6
CONTINUOUS
 62
    4
 10
1155.0001
 20
2120.3913
 11
1155.0001
 21
2155.1269
  0
LINE
  8
1-5
  6
CONTINUOUS
 62
    4
 10
1150.0001
 20
2120.3913
 11
1150.0001
 21
2155.1269
  0
LINE
  8
1-5
  6
CONTINUOUS
 62
    4
 10
1145.0001
 20
2120.3913
 11
1145.0001
 21
2155.1269
  0
LINE
  8
1-5
  6
CONTINUOUS
 62
    4
 10
1140.0001
 20
2120.3913
 11
1140.0001
 21
2155.1269
  0
LINE
  8
1-5
  6
CONTINUOUS
 62
    4
 10
1135
 20
2120.3913
 11
1135
 21
2155.1269
  0
LINE
  8
1-5
  6
CONTINUOUS
 62
    4
 10
1130
 20
2120.3913
 11
1130
 21
2155.1269
  0
LINE
  8
1-5
  6
CONTINUOUS
 62
    4
 10
1125.0001
 20
2120.3913
 11
1125.0001
 21
2155.1269
  0
LINE
  8
1-5
  6
CONTINUOUS
 62
    4
 10
1120.0001
 20
2120.3913
 11
1120.0001
 21
2155.1269
  0
LINE
  8
1-5
  6
CONTINUOUS
 62
    4
 10
1115.0001
 20
2120.3913
 11
1115.0001
 21
2155.1269
  0
LINE
  8
1-5
  6
CONTINUOUS
 62
    4
 10
1110.0001
 20
2120.3913
 11
1110.0001
 21
2155.1269
  0
LINE
  8
1-5
  6
CONTINUOUS
 62
    4
 10
1105.0001
 20
2120.3913
 11
1105.0001
 21
2155.1269
  0
LINE
  8
1-5
  6
CONTINUOUS
 62
    4
 10
1100
 20
2120.3913
 11
1100
 21
2155.1269
  0
LINE
  8
1-5
  6
CONTINUOUS
 62
    4
 10
1095.0002
 20
2120.3913
 11
1095.0002
 21
2155.1269
  0
LINE
  8
1-5
  6
CONTINUOUS
 62
    4
 10
1090.0001
 20
2120.3913
 11
1090.0001
 21
2155.1269
  0
LINE
  8
1-5
  6
CONTINUOUS
 62
    4
 10
1085.0001
 20
2120.3913
 11
1085.0001
 21
2155.1269
  0
LINE
  8
1-5
  6
CONTINUOUS
 62
    4
 10
1080.0001
 20
2120.3913
 11
1080.0001
 21
2155.1269
  0
LINE
  8
1-5
  6
CONTINUOUS
 62
    4
 10
1075.0001
 20
2120.3913
 11
1075.0001
 21
2155.1269
  0
LINE
  8
1-5
  6
CONTINUOUS
 62
    4
 10
1070.0001
 20
2120.3913
 11
1070.0001
 21
2155.1269
  0
LINE
  8
1-5
  6
CONTINUOUS
 62
    4
 10
1065.0002
 20
2120.3913
 11
1065.0002
 21
2155.1269
  0
LINE
  8
1-5
  6
CONTINUOUS
 62
    4
 10
1060.0002
 20
2120.3913
 11
1060.0002
 21
2155.1269
  0
LINE
  8
1-5
  6
CONTINUOUS
 62
    4
 10
1055.0001
 20
2120.3913
 11
1055.0001
 21
2155.1269
  0
LINE
  8
1-1
  6
CENTER2
 62
    7
 10
1050
 20
2448.6487
 11
1050
 21
1645.946
  0
LINE
  8
1-2
  6
CONTINUOUS
 62
    3
 10
1050
 20
2057.2254
 11
1354.9999
 21
2057.2254
  0
LINE
  8
1-2
  6
CONTINUOUS
 62
    3
 10
1354.9999
 20
2057.2254
 11
1354.9999
 21
1773.156
  0
LINE
  8
1-2
  6
CONTINUOUS
 62
    3
 10
1456.6668
 20
1848.9897
 11
1457.7424
 21
1849.0885
  0
LINE
  8
1-2
  6
CONTINUOUS
 62
    3
 10
1457.7424
 20
1849.0885
 11
1458.7854
 21
1849.3817
  0
LINE
  8
1-2
  6
CONTINUOUS
 62
    3
 10
1458.7854
 20
1849.3817
 11
1459.764
 21
1849.8606
  0
LINE
  8
1-2
  6
CONTINUOUS
 62
    3
 10
1459.764
 20
1849.8606
 11
1460.6485
 21
1850.5104
  0
LINE
  8
1-2
  6
CONTINUOUS
 62
    3
 10
1460.6485
 20
1850.5104
 11
1461.412
 21
1851.3116
  0
LINE
  8
1-2
  6
CONTINUOUS
 62
    3
 10
1461.412
 20
1851.3116
 11
1462.0313
 21
1852.2397
  0
LINE
  8
1-2
  6
CONTINUOUS
 62
    3
 10
1462.0313
 20
1852.2397
 11
1462.4876
 21
1853.2666
  0
LINE
  8
1-2
  6
CONTINUOUS
 62
    3
 10
1462.4876
 20
1853.2666
 11
1462.7671
 21
1854.361
  0
LINE
  8
1-2
  6
CONTINUOUS
 62
    3
 10
1462.7671
 20
1854.361
 11
1462.8612
 21
1855.4897
  0
LINE
  8
1-2
  6
CONTINUOUS
 62
    3
 10
1462.8612
 20
1855.4897
 11
1462.7671
 21
1856.6184
  0
LINE
  8
1-2
  6
CONTINUOUS
 62
    3
 10
1462.7671
 20
1856.6184
 11
1462.4876
 21
1857.7128
  0
LINE
  8
1-2
  6
CONTINUOUS
 62
    3
 10
1462.4876
 20
1857.7128
 11
1462.0313
 21
1858.7396
  0
LINE
  8
1-2
  6
CONTINUOUS
 62
    3
 10
1462.0313
 20
1858.7396
 11
1461.412
 21
1859.6677
  0
LINE
  8
1-2
  6
CONTINUOUS
 62
    3
 10
1461.412
 20
1859.6677
 11
1460.6485
 21
1860.4689
  0
LINE
  8
1-2
  6
CONTINUOUS
 62
    3
 10
1460.6485
 20
1860.4689
 11
1459.764
 21
1861.1188
  0
LINE
  8
1-2
  6
CONTINUOUS
 62
    3
 10
1459.764
 20
1861.1188
 11
1458.7854
 21
1861.5976
  0
LINE
  8
1-2
  6
CONTINUOUS
 62
    3
 10
1458.7854
 20
1861.5976
 11
1457.7424
 21
1861.8908
  0
LINE
  8
1-2
  6
CONTINUOUS
 62
    3
 10
1457.7424
 20
1861.8908
 11
1456.6668
 21
1861.9896
  0
LINE
  8
1-2
  6
CONTINUOUS
 62
    3
 10
1456.6668
 20
1796.9898
 11
1457.7424
 21
1797.0885
  0
LINE
  8
1-2
  6
CONTINUOUS
 62
    3
 10
1457.7424
 20
1797.0885
 11
1458.7854
 21
1797.3817
  0
LINE
  8
1-2
  6
CONTINUOUS
 62
    3
 10
1458.7854
 20
1797.3817
 11
1459.764
 21
1797.8606
  0
LINE
  8
1-2
  6
CONTINUOUS
 62
    3
 10
1459.764
 20
1797.8606
 11
1460.6485
 21
1798.5104
  0
LINE
  8
1-2
  6
CONTINUOUS
 62
    3
 10
1460.6485
 20
1798.5104
 11
1461.412
 21
1799.3116
  0
LINE
  8
1-2
  6
CONTINUOUS
 62
    3
 10
1461.412
 20
1799.3116
 11
1462.0313
 21
1800.2397
  0
LINE
  8
1-2
  6
CONTINUOUS
 62
    3
 10
1462.0313
 20
1800.2397
 11
1462.4876
 21
1801.2666
  0
LINE
  8
1-2
  6
CONTINUOUS
 62
    3
 10
1462.4876
 20
1801.2666
 11
1462.7671
 21
1802.361
  0
LINE
  8
1-2
  6
CONTINUOUS
 62
    3
 10
1462.7671
 20
1802.361
 11
1462.8612
 21
1803.4897
  0
LINE
  8
1-2
  6
CONTINUOUS
 62
    3
 10
1462.8612
 20
1803.4897
 11
1462.7671
 21
1804.6184
  0
LINE
  8
1-2
  6
CONTINUOUS
 62
    3
 10
1462.7671
 20
1804.6184
 11
1462.4876
 21
1805.7128
  0
LINE
  8
1-2
  6
CONTINUOUS
 62
    3
 10
1462.4876
 20
1805.7128
 11
1462.0313
 21
1806.7397
  0
LINE
  8
1-2
  6
CONTINUOUS
 62
    3
 10
1462.0313
 20
1806.7397
 11
1461.412
 21
1807.6678
  0
LINE
  8
1-2
  6
CONTINUOUS
 62
    3
 10
1461.412
 20
1807.6678
 11
1460.6485
 21
1808.4689
  0
LINE
  8
1-2
  6
CONTINUOUS
 62
    3
 10
1460.6485
 20
1808.4689
 11
1459.764
 21
1809.1188
  0
LINE
  8
1-2
  6
CONTINUOUS
 62
    3
 10
1459.764
 20
1809.1188
 11
1458.7854
 21
1809.5976
  0
LINE
  8
1-2
  6
CONTINUOUS
 62
    3
 10
1458.7854
 20
1809.5976
 11
1457.7424
 21
1809.8909
  0
LINE
  8
1-2
  6
CONTINUOUS
 62
    3
 10
1457.7424
 20
1809.8909
 11
1456.6668
 21
1809.9896
  0
LINE
  8
1-2
  6
CONTINUOUS
 62
    3
 10
643.3333
 20
1861.9896
 11
642.25765
 21
1861.8908
  0
LINE
  8
1-2
  6
CONTINUOUS
 62
    3
 10
642.25765
 20
1861.8908
 11
641.21468
 21
1861.5976
  0
LINE
  8
1-2
  6
CONTINUOUS
 62
    3
 10
641.21468
 20
1861.5976
 11
640.23608
 21
1861.1188
  0
LINE
  8
1-2
  6
CONTINUOUS
 62
    3
 10
640.23608
 20
1861.1188
 11
639.35159
 21
1860.4689
  0
LINE
  8
1-2
  6
CONTINUOUS
 62
    3
 10
639.35159
 20
1860.4689
 11
638.58808
 21
1859.6677
  0
LINE
  8
1-2
  6
CONTINUOUS
 62
    3
 10
638.58808
 20
1859.6677
 11
637.96876
 21
1858.7396
  0
LINE
  8
1-2
  6
CONTINUOUS
 62
    3
 10
637.96876
 20
1858.7396
 11
637.51243
 21
1857.7128
  0
LINE
  8
1-2
  6
CONTINUOUS
 62
    3
 10
637.51243
 20
1857.7128
 11
637.23297
 21
1856.6184
  0
LINE
  8
1-2
  6
CONTINUOUS
 62
    3
 10
637.23297
 20
1856.6184
 11
637.13886
 21
1855.4897
  0
LINE
  8
1-2
  6
CONTINUOUS
 62
    3
 10
637.13886
 20
1855.4897
 11
637.23297
 21
1854.361
  0
LINE
  8
1-2
  6
CONTINUOUS
 62
    3
 10
637.23297
 20
1854.361
 11
637.51243
 21
1853.2666
  0
LINE
  8
1-2
  6
CONTINUOUS
 62
    3
 10
637.51243
 20
1853.2666
 11
637.96876
 21
1852.2397
  0
LINE
  8
1-2
  6
CONTINUOUS
 62
    3
 10
637.96876
 20
1852.2397
 11
638.58808
 21
1851.3116
  0
LINE
  8
1-2
  6
CONTINUOUS
 62
    3
 10
638.58808
 20
1851.3116
 11
639.35159
 21
1850.5104
  0
LINE
  8
1-2
  6
CONTINUOUS
 62
    3
 10
639.35159
 20
1850.5104
 11
640.23608
 21
1849.8606
  0
LINE
  8
1-2
  6
CONTINUOUS
 62
    3
 10
640.23608
 20
1849.8606
 11
641.21468
 21
1849.3817
  0
LINE
  8
1-2
  6
CONTINUOUS
 62
    3
 10
641.21468
 20
1849.3817
 11
642.25765
 21
1849.0885
  0
LINE
  8
1-2
  6
CONTINUOUS
 62
    3
 10
642.25765
 20
1849.0885
 11
643.3333
 21
1848.9897
  0
LINE
  8
1-2
  6
CONTINUOUS
 62
    3
 10
643.3333
 20
1809.9896
 11
642.25765
 21
1809.8909
  0
LINE
  8
1-2
  6
CONTINUOUS
 62
    3
 10
642.25765
 20
1809.8909
 11
641.21468
 21
1809.5976
  0
LINE
  8
1-2
  6
CONTINUOUS
 62
    3
 10
641.21468
 20
1809.5976
 11
640.23608
 21
1809.1188
  0
LINE
  8
1-2
  6
CONTINUOUS
 62
    3
 10
640.23608
 20
1809.1188
 11
639.35159
 21
1808.4689
  0
LINE
  8
1-2
  6
CONTINUOUS
 62
    3
 10
639.35159
 20
1808.4689
 11
638.58808
 21
1807.6678
  0
LINE
  8
1-2
  6
CONTINUOUS
 62
    3
 10
638.58808
 20
1807.6678
 11
637.96876
 21
1806.7397
  0
LINE
  8
1-2
  6
CONTINUOUS
 62
    3
 10
637.96876
 20
1806.7397
 11
637.51243
 21
1805.7128
  0
LINE
  8
1-2
  6
CONTINUOUS
 62
    3
 10
637.51243
 20
1805.7128
 11
637.23297
 21
1804.6184
  0
LINE
  8
1-2
  6
CONTINUOUS
 62
    3
 10
637.23297
 20
1804.6184
 11
637.13886
 21
1803.4897
  0
LINE
  8
1-2
  6
CONTINUOUS
 62
    3
 10
637.13886
 20
1803.4897
 11
637.23297
 21
1802.361
  0
LINE
  8
1-2
  6
CONTINUOUS
 62
    3
 10
637.23297
 20
1802.361
 11
637.51243
 21
1801.2666
  0
LINE
  8
1-2
  6
CONTINUOUS
 62
    3
 10
637.51243
 20
1801.2666
 11
637.96876
 21
1800.2397
  0
LINE
  8
1-2
  6
CONTINUOUS
 62
    3
 10
637.96876
 20
1800.2397
 11
638.58808
 21
1799.3116
  0
LINE
  8
1-2
  6
CONTINUOUS
 62
    3
 10
638.58808
 20
1799.3116
 11
639.35159
 21
1798.5104
  0
LINE
  8
1-2
  6
CONTINUOUS
 62
    3
 10
639.35159
 20
1798.5104
 11
640.23608
 21
1797.8606
  0
LINE
  8
1-2
  6
CONTINUOUS
 62
    3
 10
640.23608
 20
1797.8606
 11
641.21468
 21
1797.3817
  0
LINE
  8
1-2
  6
CONTINUOUS
 62
    3
 10
641.21468
 20
1797.3817
 11
642.25765
 21
1797.0885
  0
LINE
  8
1-2
  6
CONTINUOUS
 62
    3
 10
642.25765
 20
1797.0885
 11
643.3333
 21
1796.9898
  0
LINE
  8
1-2
  6
CONTINUOUS
 62
    3
 10
1354.9999
 20
1709.9902
 11
1356.0756
 21
1710.0889
  0
LINE
  8
1-2
  6
CONTINUOUS
 62
    3
 10
1356.0756
 20
1710.0889
 11
1357.1185
 21
1710.3821
  0
LINE
  8
1-2
  6
CONTINUOUS
 62
    3
 10
1357.1185
 20
1710.3821
 11
1358.0971
 21
1710.861
  0
LINE
  8
1-2
  6
CONTINUOUS
 62
    3
 10
1358.0971
 20
1710.861
 11
1358.9816
 21
1711.5108
  0
LINE
  8
1-2
  6
CONTINUOUS
 62
    3
 10
1358.9816
 20
1711.5108
 11
1359.7451
 21
1712.312
  0
LINE
  8
1-2
  6
CONTINUOUS
 62
    3
 10
1359.7451
 20
1712.312
 11
1360.3645
 21
1713.2401
  0
LINE
  8
1-2
  6
CONTINUOUS
 62
    3
 10
1360.3645
 20
1713.2401
 11
1360.8208
 21
1714.267
  0
LINE
  8
1-2
  6
CONTINUOUS
 62
    3
 10
1360.8208
 20
1714.267
 11
1361.1002
 21
1715.3614
  0
LINE
  8
1-2
  6
CONTINUOUS
 62
    3
 10
1361.1002
 20
1715.3614
 11
1361.1943
 21
1716.4901
  0
LINE
  8
1-2
  6
CONTINUOUS
 62
    3
 10
1361.1943
 20
1716.4901
 11
1361.1002
 21
1717.6188
  0
LINE
  8
1-2
  6
CONTINUOUS
 62
    3
 10
1361.1002
 20
1717.6188
 11
1360.8208
 21
1718.7132
  0
LINE
  8
1-2
  6
CONTINUOUS
 62
    3
 10
1360.8208
 20
1718.7132
 11
1360.3645
 21
1719.7401
  0
LINE
  8
1-2
  6
CONTINUOUS
 62
    3
 10
1360.3645
 20
1719.7401
 11
1359.7451
 21
1720.6682
  0
LINE
  8
1-2
  6
CONTINUOUS
 62
    3
 10
1359.7451
 20
1720.6682
 11
1358.9816
 21
1721.4693
  0
LINE
  8
1-2
  6
CONTINUOUS
 62
    3
 10
1358.9816
 20
1721.4693
 11
1358.0971
 21
1722.1192
  0
LINE
  8
1-2
  6
CONTINUOUS
 62
    3
 10
1358.0971
 20
1722.1192
 11
1357.1185
 21
1722.598
  0
LINE
  8
1-2
  6
CONTINUOUS
 62
    3
 10
1357.1185
 20
1722.598
 11
1356.0756
 21
1722.8913
  0
LINE
  8
1-2
  6
CONTINUOUS
 62
    3
 10
1356.0756
 20
1722.8913
 11
1354.9999
 21
1722.99
  0
LINE
  8
1-2
  6
CONTINUOUS
 62
    3
 10
745.00014
 20
1722.99
 11
743.92449
 21
1722.8913
  0
LINE
  8
1-2
  6
CONTINUOUS
 62
    3
 10
743.92449
 20
1722.8913
 11
742.88152
 21
1722.598
  0
LINE
  8
1-2
  6
CONTINUOUS
 62
    3
 10
742.88152
 20
1722.598
 11
741.90292
 21
1722.1192
  0
LINE
  8
1-2
  6
CONTINUOUS
 62
    3
 10
741.90292
 20
1722.1192
 11
741.01843
 21
1721.4693
  0
LINE
  8
1-2
  6
CONTINUOUS
 62
    3
 10
741.01843
 20
1721.4693
 11
740.25493
 21
1720.6682
  0
LINE
  8
1-2
  6
CONTINUOUS
 62
    3
 10
740.25493
 20
1720.6682
 11
739.6356
 21
1719.7401
  0
LINE
  8
1-2
  6
CONTINUOUS
 62
    3
 10
739.6356
 20
1719.7401
 11
739.17927
 21
1718.7132
  0
LINE
  8
1-2
  6
CONTINUOUS
 62
    3
 10
739.17927
 20
1718.7132
 11
738.89981
 21
1717.6188
  0
LINE
  8
1-2
  6
CONTINUOUS
 62
    3
 10
738.89981
 20
1717.6188
 11
738.8057
 21
1716.4901
  0
LINE
  8
1-2
  6
CONTINUOUS
 62
    3
 10
738.8057
 20
1716.4901
 11
738.89981
 21
1715.3614
  0
LINE
  8
1-2
  6
CONTINUOUS
 62
    3
 10
738.89981
 20
1715.3614
 11
739.17927
 21
1714.267
  0
LINE
  8
1-2
  6
CONTINUOUS
 62
    3
 10
739.17927
 20
1714.267
 11
739.6356
 21
1713.2401
  0
LINE
  8
1-2
  6
CONTINUOUS
 62
    3
 10
739.6356
 20
1713.2401
 11
740.25493
 21
1712.312
  0
LINE
  8
1-2
  6
CONTINUOUS
 62
    3
 10
740.25493
 20
1712.312
 11
741.01843
 21
1711.5108
  0
LINE
  8
1-2
  6
CONTINUOUS
 62
    3
 10
741.01843
 20
1711.5108
 11
741.90292
 21
1710.861
  0
LINE
  8
1-2
  6
CONTINUOUS
 62
    3
 10
741.90292
 20
1710.861
 11
742.88152
 21
1710.3821
  0
LINE
  8
1-2
  6
CONTINUOUS
 62
    3
 10
742.88152
 20
1710.3821
 11
743.92449
 21
1710.0889
  0
LINE
  8
1-2
  6
CONTINUOUS
 62
    3
 10
743.92449
 20
1710.0889
 11
745.00014
 21
1709.9902
  0
LINE
  8
1-2
  6
CONTINUOUS
 62
    3
 10
1456.6668
 20
2137.9896
 11
1457.7424
 21
2138.0883
  0
LINE
  8
1-2
  6
CONTINUOUS
 62
    3
 10
1457.7424
 20
2138.0883
 11
1458.7854
 21
2138.3816
  0
LINE
  8
1-2
  6
CONTINUOUS
 62
    3
 10
1458.7854
 20
2138.3816
 11
1459.764
 21
2138.8604
  0
LINE
  8
1-2
  6
CONTINUOUS
 62
    3
 10
1459.764
 20
2138.8604
 11
1460.6485
 21
2139.5103
  0
LINE
  8
1-2
  6
CONTINUOUS
 62
    3
 10
1460.6485
 20
2139.5103
 11
1461.412
 21
2140.3114
  0
LINE
  8
1-2
  6
CONTINUOUS
 62
    3
 10
1461.412
 20
2140.3114
 11
1462.0313
 21
2141.2395
  0
LINE
  8
1-2
  6
CONTINUOUS
 62
    3
 10
1462.0313
 20
2141.2395
 11
1462.4876
 21
2142.2664
  0
LINE
  8
1-2
  6
CONTINUOUS
 62
    3
 10
1462.4876
 20
2142.2664
 11
1462.7671
 21
2143.3608
  0
LINE
  8
1-2
  6
CONTINUOUS
 62
    3
 10
1462.7671
 20
2143.3608
 11
1462.8612
 21
2144.4895
  0
LINE
  8
1-2
  6
CONTINUOUS
 62
    3
 10
1462.8612
 20
2144.4895
 11
1462.7671
 21
2145.6182
  0
LINE
  8
1-2
  6
CONTINUOUS
 62
    3
 10
1462.7671
 20
2145.6182
 11
1462.4876
 21
2146.7126
  0
LINE
  8
1-2
  6
CONTINUOUS
 62
    3
 10
1462.4876
 20
2146.7126
 11
1462.0313
 21
2147.7395
  0
LINE
  8
1-2
  6
CONTINUOUS
 62
    3
 10
1462.0313
 20
2147.7395
 11
1461.412
 21
2148.6676
  0
LINE
  8
1-2
  6
CONTINUOUS
 62
    3
 10
1461.412
 20
2148.6676
 11
1460.6485
 21
2149.4687
  0
LINE
  8
1-2
  6
CONTINUOUS
 62
    3
 10
1460.6485
 20
2149.4687
 11
1459.764
 21
2150.1186
  0
LINE
  8
1-2
  6
CONTINUOUS
 62
    3
 10
1459.764
 20
2150.1186
 11
1458.7854
 21
2150.5974
  0
LINE
  8
1-2
  6
CONTINUOUS
 62
    3
 10
1458.7854
 20
2150.5974
 11
1457.7424
 21
2150.8907
  0
LINE
  8
1-2
  6
CONTINUOUS
 62
    3
 10
1457.7424
 20
2150.8907
 11
1456.6668
 21
2150.9894
  0
LINE
  8
1-2
  6
CONTINUOUS
 62
    3
 10
1456.6668
 20
2189.9895
 11
1457.7424
 21
2190.0883
  0
LINE
  8
1-2
  6
CONTINUOUS
 62
    3
 10
1457.7424
 20
2190.0883
 11
1458.7854
 21
2190.3815
  0
LINE
  8
1-2
  6
CONTINUOUS
 62
    3
 10
1458.7854
 20
2190.3815
 11
1459.764
 21
2190.8604
  0
LINE
  8
1-2
  6
CONTINUOUS
 62
    3
 10
1459.764
 20
2190.8604
 11
1460.6485
 21
2191.5102
  0
LINE
  8
1-2
  6
CONTINUOUS
 62
    3
 10
1460.6485
 20
2191.5102
 11
1461.412
 21
2192.3114
  0
LINE
  8
1-2
  6
CONTINUOUS
 62
    3
 10
1461.412
 20
2192.3114
 11
1462.0313
 21
2193.2395
  0
LINE
  8
1-2
  6
CONTINUOUS
 62
    3
 10
1462.0313
 20
2193.2395
 11
1462.4876
 21
2194.2664
  0
LINE
  8
1-2
  6
CONTINUOUS
 62
    3
 10
1462.4876
 20
2194.2664
 11
1462.7671
 21
2195.3608
  0
LINE
  8
1-2
  6
CONTINUOUS
 62
    3
 10
1462.7671
 20
2195.3608
 11
1462.8612
 21
2196.4895
  0
LINE
  8
1-2
  6
CONTINUOUS
 62
    3
 10
1462.8612
 20
2196.4895
 11
1462.7671
 21
2197.6182
  0
LINE
  8
1-2
  6
CONTINUOUS
 62
    3
 10
1462.7671
 20
2197.6182
 11
1462.4876
 21
2198.7126
  0
LINE
  8
1-2
  6
CONTINUOUS
 62
    3
 10
1462.4876
 20
2198.7126
 11
1462.0313
 21
2199.7394
  0
LINE
  8
1-2
  6
CONTINUOUS
 62
    3
 10
1462.0313
 20
2199.7394
 11
1461.412
 21
2200.6675
  0
LINE
  8
1-2
  6
CONTINUOUS
 62
    3
 10
1461.412
 20
2200.6675
 11
1460.6485
 21
2201.4687
  0
LINE
  8
1-2
  6
CONTINUOUS
 62
    3
 10
1460.6485
 20
2201.4687
 11
1459.764
 21
2202.1186
  0
LINE
  8
1-2
  6
CONTINUOUS
 62
    3
 10
1459.764
 20
2202.1186
 11
1458.7854
 21
2202.5974
  0
LINE
  8
1-2
  6
CONTINUOUS
 62
    3
 10
1458.7854
 20
2202.5974
 11
1457.7424
 21
2202.8907
  0
LINE
  8
1-2
  6
CONTINUOUS
 62
    3
 10
1457.7424
 20
2202.8907
 11
1456.6668
 21
2202.9894
  0
LINE
  8
1-2
  6
CONTINUOUS
 62
    3
 10
643.3333
 20
2150.9894
 11
642.25765
 21
2150.8907
  0
LINE
  8
1-2
  6
CONTINUOUS
 62
    3
 10
642.25765
 20
2150.8907
 11
641.21468
 21
2150.5974
  0
LINE
  8
1-2
  6
CONTINUOUS
 62
    3
 10
641.21468
 20
2150.5974
 11
640.23608
 21
2150.1186
  0
LINE
  8
1-2
  6
CONTINUOUS
 62
    3
 10
640.23608
 20
2150.1186
 11
639.35159
 21
2149.4687
  0
LINE
  8
1-2
  6
CONTINUOUS
 62
    3
 10
639.35159
 20
2149.4687
 11
638.58808
 21
2148.6676
  0
LINE
  8
1-2
  6
CONTINUOUS
 62
    3
 10
638.58808
 20
2148.6676
 11
637.96876
 21
2147.7395
  0
LINE
  8
1-2
  6
CONTINUOUS
 62
    3
 10
637.96876
 20
2147.7395
 11
637.51243
 21
2146.7126
  0
LINE
  8
1-2
  6
CONTINUOUS
 62
    3
 10
637.51243
 20
2146.7126
 11
637.23297
 21
2145.6182
  0
LINE
  8
1-2
  6
CONTINUOUS
 62
    3
 10
637.23297
 20
2145.6182
 11
637.13886
 21
2144.4895
  0
LINE
  8
1-2
  6
CONTINUOUS
 62
    3
 10
637.13886
 20
2144.4895
 11
637.23297
 21
2143.3608
  0
LINE
  8
1-2
  6
CONTINUOUS
 62
    3
 10
637.23297
 20
2143.3608
 11
637.51243
 21
2142.2664
  0
LINE
  8
1-2
  6
CONTINUOUS
 62
    3
 10
637.51243
 20
2142.2664
 11
637.96876
 21
2141.2395
  0
LINE
  8
1-2
  6
CONTINUOUS
 62
    3
 10
637.96876
 20
2141.2395
 11
638.58808
 21
2140.3114
  0
LINE
  8
1-2
  6
CONTINUOUS
 62
    3
 10
638.58808
 20
2140.3114
 11
639.35159
 21
2139.5103
  0
LINE
  8
1-2
  6
CONTINUOUS
 62
    3
 10
639.35159
 20
2139.5103
 11
640.23608
 21
2138.8604
  0
LINE
  8
1-2
  6
CONTINUOUS
 62
    3
 10
640.23608
 20
2138.8604
 11
641.21468
 21
2138.3816
  0
LINE
  8
1-2
  6
CONTINUOUS
 62
    3
 10
641.21468
 20
2138.3816
 11
642.25765
 21
2138.0883
  0
LINE
  8
1-2
  6
CONTINUOUS
 62
    3
 10
642.25765
 20
2138.0883
 11
643.3333
 21
2137.9896
  0
LINE
  8
1-2
  6
CONTINUOUS
 62
    3
 10
643.3333
 20
2202.9894
 11
642.25765
 21
2202.8907
  0
LINE
  8
1-2
  6
CONTINUOUS
 62
    3
 10
642.25765
 20
2202.8907
 11
641.21468
 21
2202.5974
  0
LINE
  8
1-2
  6
CONTINUOUS
 62
    3
 10
641.21468
 20
2202.5974
 11
640.23608
 21
2202.1186
  0
LINE
  8
1-2
  6
CONTINUOUS
 62
    3
 10
640.23608
 20
2202.1186
 11
639.35159
 21
2201.4687
  0
LINE
  8
1-2
  6
CONTINUOUS
 62
    3
 10
639.35159
 20
2201.4687
 11
638.58808
 21
2200.6675
  0
LINE
  8
1-2
  6
CONTINUOUS
 62
    3
 10
638.58808
 20
2200.6675
 11
637.96876
 21
2199.7394
  0
LINE
  8
1-2
  6
CONTINUOUS
 62
    3
 10
637.96876
 20
2199.7394
 11
637.51243
 21
2198.7126
  0
LINE
  8
1-2
  6
CONTINUOUS
 62
    3
 10
637.51243
 20
2198.7126
 11
637.23297
 21
2197.6182
  0
LINE
  8
1-2
  6
CONTINUOUS
 62
    3
 10
637.23297
 20
2197.6182
 11
637.13886
 21
2196.4895
  0
LINE
  8
1-2
  6
CONTINUOUS
 62
    3
 10
637.13886
 20
2196.4895
 11
637.23297
 21
2195.3608
  0
LINE
  8
1-2
  6
CONTINUOUS
 62
    3
 10
637.23297
 20
2195.3608
 11
637.51243
 21
2194.2664
  0
LINE
  8
1-2
  6
CONTINUOUS
 62
    3
 10
637.51243
 20
2194.2664
 11
637.96876
 21
2193.2395
  0
LINE
  8
1-2
  6
CONTINUOUS
 62
    3
 10
637.96876
 20
2193.2395
 11
638.58808
 21
2192.3114
  0
LINE
  8
1-2
  6
CONTINUOUS
 62
    3
 10
638.58808
 20
2192.3114
 11
639.35159
 21
2191.5102
  0
LINE
  8
1-2
  6
CONTINUOUS
 62
    3
 10
639.35159
 20
2191.5102
 11
640.23608
 21
2190.8604
  0
LINE
  8
1-2
  6
CONTINUOUS
 62
    3
 10
640.23608
 20
2190.8604
 11
641.21468
 21
2190.3815
  0
LINE
  8
1-2
  6
CONTINUOUS
 62
    3
 10
641.21468
 20
2190.3815
 11
642.25765
 21
2190.0883
  0
LINE
  8
1-2
  6
CONTINUOUS
 62
    3
 10
642.25765
 20
2190.0883
 11
643.3333
 21
2189.9895
  0
LINE
  8
1-2
  6
CONTINUOUS
 62
    3
 10
1354.9999
 20
1760.1559
 11
1356.0756
 21
1760.2546
  0
LINE
  8
1-2
  6
CONTINUOUS
 62
    3
 10
1356.0756
 20
1760.2546
 11
1357.1185
 21
1760.5479
  0
LINE
  8
1-2
  6
CONTINUOUS
 62
    3
 10
1357.1185
 20
1760.5479
 11
1358.0971
 21
1761.0267
  0
LINE
  8
1-2
  6
CONTINUOUS
 62
    3
 10
1358.0971
 20
1761.0267
 11
1358.9816
 21
1761.6766
  0
LINE
  8
1-2
  6
CONTINUOUS
 62
    3
 10
1358.9816
 20
1761.6766
 11
1359.7451
 21
1762.4777
  0
LINE
  8
1-2
  6
CONTINUOUS
 62
    3
 10
1359.7451
 20
1762.4777
 11
1360.3645
 21
1763.4058
  0
LINE
  8
1-2
  6
CONTINUOUS
 62
    3
 10
1360.3645
 20
1763.4058
 11
1360.8208
 21
1764.4327
  0
LINE
  8
1-2
  6
CONTINUOUS
 62
    3
 10
1360.8208
 20
1764.4327
 11
1361.1002
 21
1765.5271
  0
LINE
  8
1-2
  6
CONTINUOUS
 62
    3
 10
1361.1002
 20
1765.5271
 11
1361.1943
 21
1766.6558
  0
LINE
  8
1-2
  6
CONTINUOUS
 62
    3
 10
1361.1943
 20
1766.6558
 11
1361.1002
 21
1767.7845
  0
LINE
  8
1-2
  6
CONTINUOUS
 62
    3
 10
1361.1002
 20
1767.7845
 11
1360.8208
 21
1768.8789
  0
LINE
  8
1-2
  6
CONTINUOUS
 62
    3
 10
1360.8208
 20
1768.8789
 11
1360.3645
 21
1769.9058
  0
LINE
  8
1-2
  6
CONTINUOUS
 62
    3
 10
1360.3645
 20
1769.9058
 11
1359.7451
 21
1770.8339
  0
LINE
  8
1-2
  6
CONTINUOUS
 62
    3
 10
1359.7451
 20
1770.8339
 11
1358.9816
 21
1771.635
  0
LINE
  8
1-2
  6
CONTINUOUS
 62
    3
 10
1358.9816
 20
1771.635
 11
1358.0971
 21
1772.2849
  0
LINE
  8
1-2
  6
CONTINUOUS
 62
    3
 10
1358.0971
 20
1772.2849
 11
1357.1185
 21
1772.7637
  0
LINE
  8
1-2
  6
CONTINUOUS
 62
    3
 10
1357.1185
 20
1772.7637
 11
1356.0756
 21
1773.057
  0
LINE
  8
1-2
  6
CONTINUOUS
 62
    3
 10
1356.0756
 20
1773.057
 11
1354.9999
 21
1773.1557
  0
LINE
  8
1-2
  6
CONTINUOUS
 62
    3
 10
738.8057
 20
1766.656
 11
738.89977
 21
1765.5273
  0
LINE
  8
1-2
  6
CONTINUOUS
 62
    3
 10
738.89977
 20
1765.5273
 11
739.17919
 21
1764.4329
  0
LINE
  8
1-2
  6
CONTINUOUS
 62
    3
 10
739.17919
 20
1764.4329
 11
739.63548
 21
1763.406
  0
LINE
  8
1-2
  6
CONTINUOUS
 62
    3
 10
739.63548
 20
1763.406
 11
740.25477
 21
1762.4779
  0
LINE
  8
1-2
  6
CONTINUOUS
 62
    3
 10
740.25477
 20
1762.4779
 11
741.01825
 21
1761.6767
  0
LINE
  8
1-2
  6
CONTINUOUS
 62
    3
 10
741.01825
 20
1761.6767
 11
741.90272
 21
1761.0268
  0
LINE
  8
1-2
  6
CONTINUOUS
 62
    3
 10
741.90272
 20
1761.0268
 11
742.8813
 21
1760.5479
  0
LINE
  8
1-2
  6
CONTINUOUS
 62
    3
 10
742.8813
 20
1760.5479
 11
743.92426
 21
1760.2546
  0
LINE
  8
1-2
  6
CONTINUOUS
 62
    3
 10
743.92426
 20
1760.2546
 11
744.9999
 21
1760.1559
  0
LINE
  8
1-2
  6
CONTINUOUS
 62
    3
 10
744.9999
 20
1760.1559
 11
745.00014
 21
1760.1559
  0
LINE
  8
1-2
  6
CONTINUOUS
 62
    3
 10
1354.9999
 20
2107.3914
 11
1356.0756
 21
2107.4901
  0
LINE
  8
1-2
  6
CONTINUOUS
 62
    3
 10
1356.0756
 20
2107.4901
 11
1357.1185
 21
2107.7834
  0
LINE
  8
1-2
  6
CONTINUOUS
 62
    3
 10
1357.1185
 20
2107.7834
 11
1358.0971
 21
2108.2622
  0
LINE
  8
1-2
  6
CONTINUOUS
 62
    3
 10
1358.0971
 20
2108.2622
 11
1358.9816
 21
2108.9121
  0
LINE
  8
1-2
  6
CONTINUOUS
 62
    3
 10
1358.9816
 20
2108.9121
 11
1359.7451
 21
2109.7133
  0
LINE
  8
1-2
  6
CONTINUOUS
 62
    3
 10
1359.7451
 20
2109.7133
 11
1360.3645
 21
2110.6414
  0
LINE
  8
1-2
  6
CONTINUOUS
 62
    3
 10
1360.3645
 20
2110.6414
 11
1360.8208
 21
2111.6682
  0
LINE
  8
1-2
  6
CONTINUOUS
 62
    3
 10
1360.8208
 20
2111.6682
 11
1361.1002
 21
2112.7626
  0
LINE
  8
1-2
  6
CONTINUOUS
 62
    3
 10
1361.1002
 20
2112.7626
 11
1361.1943
 21
2113.8913
  0
LINE
  8
1-2
  6
CONTINUOUS
 62
    3
 10
1361.1943
 20
2113.8913
 11
1361.1002
 21
2115.02
  0
LINE
  8
1-2
  6
CONTINUOUS
 62
    3
 10
1361.1002
 20
2115.02
 11
1360.8208
 21
2116.1144
  0
LINE
  8
1-2
  6
CONTINUOUS
 62
    3
 10
1360.8208
 20
2116.1144
 11
1360.3645
 21
2117.1413
  0
LINE
  8
1-2
  6
CONTINUOUS
 62
    3
 10
1360.3645
 20
2117.1413
 11
1359.7451
 21
2118.0694
  0
LINE
  8
1-2
  6
CONTINUOUS
 62
    3
 10
1359.7451
 20
2118.0694
 11
1358.9816
 21
2118.8706
  0
LINE
  8
1-2
  6
CONTINUOUS
 62
    3
 10
1358.9816
 20
2118.8706
 11
1358.0971
 21
2119.5204
  0
LINE
  8
1-2
  6
CONTINUOUS
 62
    3
 10
1358.0971
 20
2119.5204
 11
1357.1185
 21
2119.9993
  0
LINE
  8
1-2
  6
CONTINUOUS
 62
    3
 10
1357.1185
 20
2119.9993
 11
1356.0756
 21
2120.2925
  0
LINE
  8
1-2
  6
CONTINUOUS
 62
    3
 10
1356.0756
 20
2120.2925
 11
1354.9999
 21
2120.3913
  0
LINE
  8
1-2
  6
CONTINUOUS
 62
    3
 10
1354.9999
 20
2057.2257
 11
1356.0756
 21
2057.3244
  0
LINE
  8
1-2
  6
CONTINUOUS
 62
    3
 10
1356.0756
 20
2057.3244
 11
1357.1185
 21
2057.6177
  0
LINE
  8
1-2
  6
CONTINUOUS
 62
    3
 10
1357.1185
 20
2057.6177
 11
1358.0971
 21
2058.0965
  0
LINE
  8
1-2
  6
CONTINUOUS
 62
    3
 10
1358.0971
 20
2058.0965
 11
1358.9816
 21
2058.7464
  0
LINE
  8
1-2
  6
CONTINUOUS
 62
    3
 10
1358.9816
 20
2058.7464
 11
1359.7451
 21
2059.5475
  0
LINE
  8
1-2
  6
CONTINUOUS
 62
    3
 10
1359.7451
 20
2059.5475
 11
1360.3645
 21
2060.4757
  0
LINE
  8
1-2
  6
CONTINUOUS
 62
    3
 10
1360.3645
 20
2060.4757
 11
1360.8208
 21
2061.5025
  0
LINE
  8
1-2
  6
CONTINUOUS
 62
    3
 10
1360.8208
 20
2061.5025
 11
1361.1002
 21
2062.5969
  0
LINE
  8
1-2
  6
CONTINUOUS
 62
    3
 10
1361.1002
 20
2062.5969
 11
1361.1943
 21
2063.7256
  0
LINE
  8
1-2
  6
CONTINUOUS
 62
    3
 10
1361.1943
 20
2063.7256
 11
1361.1002
 21
2064.8543
  0
LINE
  8
1-2
  6
CONTINUOUS
 62
    3
 10
1361.1002
 20
2064.8543
 11
1360.8208
 21
2065.9487
  0
LINE
  8
1-2
  6
CONTINUOUS
 62
    3
 10
1360.8208
 20
2065.9487
 11
1360.3645
 21
2066.9756
  0
LINE
  8
1-2
  6
CONTINUOUS
 62
    3
 10
1360.3645
 20
2066.9756
 11
1359.7451
 21
2067.9037
  0
LINE
  8
1-2
  6
CONTINUOUS
 62
    3
 10
1359.7451
 20
2067.9037
 11
1358.9816
 21
2068.7049
  0
LINE
  8
1-2
  6
CONTINUOUS
 62
    3
 10
1358.9816
 20
2068.7049
 11
1358.0971
 21
2069.3547
  0
LINE
  8
1-2
  6
CONTINUOUS
 62
    3
 10
1358.0971
 20
2069.3547
 11
1357.1185
 21
2069.8336
  0
LINE
  8
1-2
  6
CONTINUOUS
 62
    3
 10
1357.1185
 20
2069.8336
 11
1356.0756
 21
2070.1268
  0
LINE
  8
1-2
  6
CONTINUOUS
 62
    3
 10
1356.0756
 20
2070.1268
 11
1354.9999
 21
2070.2256
  0
TEXT
  8
1-d
 10
254.9998
 20
97.49997
 40
25
 41
1
 50
0
  1
番
  0
TEXT
  8
1-d
 10
655.00046
 20
157.4999
 40
25
 41
1
 50
0
  1
承
  0
TEXT
  8
1-d
 10
655.00046
 20
97.49997
 40
25
 41
1
 50
0
  1
認
  0
TEXT
  8
1-d
 10
1020.0003
 20
237.49996
 40
25
 41
1
 50
0
  1
尺
  0
TEXT
  8
1-d
 10
1020.0003
 20
197.49979
 40
25
 41
1
 50
0.0000762
  1
度
  0
TEXT
  8
1-d
 10
855.00014
 20
157.4999
 40
25
 41
1
 50
0
  1
製
  0
TEXT
  8
1-d
 10
855.00014
 20
97.49997
 40
25
 41
1
 50
0
  1
図
  0
TEXT
  8
1-d
 10
1555.0001
 20
237.49996
 40
25
 41
1
 50
0
  1
日
  0
TEXT
  8
1-d
 10
1555.0001
 20
197.49979
 40
25
 41
1
 50
0.0000762
  1
付
  0
TEXT
  8
1-d
 10
1111.4263
 20
163.48226
 40
20
 41
1
 50
0
  1
株式
  0
TEXT
  8
1-d
 10
1111.4263
 20
141.85181
 40
20
 41
1
 50
0.0000152
  1
会社
  0
TEXT
  8
1-d
 10
1174.2247
 20
143.24712
 40
40
 41
1
 50
0
  1
スズキベンチレーター
  0
TEXT
  8
1-d
 10
1237.9182
 20
94.024183
 40
20
 41
1
 50
0
  1
TEL(054)296-7000  FAX(054)296-7001
  0
TEXT
  8
1-d
 10
1084.349
 20
210.10066
 40
40
 41
1
 50
0
  1
１／１５
  0
TEXT
  8
1-d
 10
254.9998
 20
157.4999
 40
25
 41
1
 50
0
  1
図
  0
TEXT
  8
1-8
 10
1003.8495
 20
1605.9468
 40
30
 41
1
 50
0
  1
915φ
  0
TEXT
  8
1-8
 10
303.10813
 20
1999.5947
 40
30
 41
1
 50
90
  1
1,000
  0
TEXT
  8
1-8
 10
1006.8227
 20
2517.6716
 40
30
 41
1
 50
0
  1
1,220
  0
TEXT
  8
1-d
 10
308.45927
 20
140.30214
 40
30
 41
1
 50
0
  1
90-F09a
  0
TEXT
  8
1-d
 10
264.45945
 20
2794.1893
 40
50
 41
1
 50
0
  1
ＤＳ－９００　自然換気  直付型（網付）断面
  0
TEXT
  8
1-2
 10
258.81903
 20
209.46535
 40
30
 41
1
 50
0
  1
ＤＳ－９００　自然換気  直付型（網付）断面
  0
TEXT
  8
1-d
 10
1235.6794
 20
118.64593
 40
20
 41
1
 50
0
  1
〒421-2114　静岡市葵区安倍口新田１５２番地
  0
POINT
  8
1-8
 62
    2
 10
325.51662
 20
1689.9893
  0
POINT
  8
1-8
 62
    2
 10
325.51662
 20
2356.656
  0
POINT
  8
1-8
 62
    2
 10
643.3333
 20
2502.8168
  0
POINT
  8
1-8
 62
    2
 10
1456.6665
 20
2502.8168
  0
POINT
  8
1-8
 62
    2
 10
745.00014
 20
1568.7789
  0
POINT
  8
1-8
 62
    2
 10
1354.9999
 20
1568.7789
  0
ENDSEC
  0
EOF
