  0
SECTION
  2
HEADER
  9
$EXTMIN
 10
0
 20
0
  9
$EXTMAX
 10
4200
 20
2970
  0
ENDSEC
  0
SECTION
  2
TABLES
  0
TABLE
  2
LTYPE
 70
     9
  0
LTYPE
  2
CONTINUOUS
 70
    64
  3
実線
 72
    65
 73
     0
 40
0.0
  0
LTYPE
  2
DASHED1
 70
    64
  3
--  --  --  --  --  --  --  --  
 72
    65
 73
     2
 40
2.5
 49
1.25
 49
-1.25
  0
LTYPE
  2
DASHED2
 70
    64
  3
----    ----    ----    ----    
 72
    65
 73
     2
 40
5.0
 49
2.5
 49
-2.5
  0
LTYPE
  2
DASHED3
 70
    64
  3
------  ------  ------  ------  
 72
    65
 73
     2
 40
5.0
 49
3.75
 49
-1.25
  0
LTYPE
  2
CENTER1
 70
    64
  3
----- - ----- - ----- - ----- - 
 72
    65
 73
     4
 40
10.0
 49
6.25
 49
-1.25
 49
1.25
 49
-1.25
  0
LTYPE
  2
CENTER2
 70
    64
  3
----------  --  ----------  --  
 72
    65
 73
     4
 40
20.0
 49
12.5
 49
-2.5
 49
2.5
 49
-2.5
  0
LTYPE
  2
PHANTOM1
 70
    64
  3
--- - - --- - - --- - - --- - - 
 72
    65
 73
     6
 40
10.0
 49
3.25
 49
-1.25
 49
1.25
 49
-1.25
 49
1.25
 49
-1.25
  0
LTYPE
  2
PHANTOM2
 70
    64
  3
--------  -  -  --------  -  -  
 72
    65
 73
     6
 40
20.0
 49
10.0
 49
-2.5
 49
1.25
 49
-2.5
 49
1.25
 49
-2.5
  0
LTYPE
  2
DOT
 70
    64
  3
-   -   -   -   -   -   -   -   
 72
    65
 73
     2
 40
2.5
 49
0.625
 49
-1.875
  0
ENDTAB
  0
TABLE
  2
STYLE
 70
    1
  0
STYLE
  2
STANDARD
 70
    64
 40
0.0
 41
1.0
 42
0.0
 50
0.0
 71
     0
  3
TXT
  4
BIGFONT
  0
ENDTAB
  0
TABLE
  2
LAYER
 70
    6
  0
LAYER
  2
1-1
 70
   64
 62
    7
  6
CONTINUOUS
  0
LAYER
  2
1-2
 70
   64
 62
    7
  6
CONTINUOUS
  0
LAYER
  2
1-4
 70
   64
 62
    7
  6
CONTINUOUS
  0
LAYER
  2
1-8
 70
   64
 62
    7
  6
CONTINUOUS
  0
LAYER
  2
1-d
 70
   64
 62
    7
  6
CONTINUOUS
  0
LAYER
  2
ADD_LINE
 70
   64
 62
    7
  6
CONTINUOUS
  0
ENDTAB
  0
ENDSEC
  0
SECTION
  2
ENTITIES
  0
LINE
  8
1-d
  6
CONTINUOUS
 62
    7
 10
250.00006
 20
2757.7013
 11
1850.0001
 21
2757.7013
  0
LINE
  8
1-d
  6
CONTINUOUS
 62
    7
 10
250.00006
 20
2767.7016
 11
1850.0001
 21
2767.7016
  0
LINE
  8
1-d
  6
CONTINUOUS
 62
    7
 10
249.99969
 20
189.99989
 11
1850.0005
 21
189.99989
  0
LINE
  8
1-d
  6
CONTINUOUS
 62
    7
 10
249.99969
 20
89.999806
 11
249.99969
 21
269.99991
  0
LINE
  8
1-d
  6
CONTINUOUS
 62
    7
 10
249.99969
 20
89.999806
 11
1850.0005
 21
89.999806
  0
LINE
  8
1-d
  6
CONTINUOUS
 62
    7
 10
1850.0005
 20
269.99991
 11
1850.0005
 21
89.999806
  0
LINE
  8
1-d
  6
CONTINUOUS
 62
    7
 10
249.99969
 20
269.99991
 11
1850.0005
 21
269.99991
  0
LINE
  8
1-d
  6
CONTINUOUS
 62
    7
 10
1050
 20
269.99991
 11
1050
 21
89.999806
  0
LINE
  8
1-d
  6
CONTINUOUS
 62
    7
 10
650.00019
 20
89.999806
 11
650.00019
 21
189.99989
  0
LINE
  8
1-d
  6
CONTINUOUS
 62
    7
 10
1050
 20
189.99989
 11
1050
 21
269.99991
  0
LINE
  8
1-d
  6
CONTINUOUS
 62
    7
 10
849.99981
 20
89.999806
 11
849.99981
 21
189.99989
  0
LINE
  8
1-d
  6
CONTINUOUS
 62
    7
 10
285.00002
 20
89.999806
 11
285.00002
 21
189.99989
  0
LINE
  8
1-d
  6
CONTINUOUS
 62
    7
 10
685.00006
 20
89.999806
 11
685.00006
 21
189.99989
  0
LINE
  8
1-d
  6
CONTINUOUS
 62
    7
 10
885.00018
 20
89.999806
 11
885.00018
 21
189.99989
  0
LINE
  8
1-d
  6
CONTINUOUS
 62
    7
 10
1015
 20
189.99989
 11
1015
 21
269.99991
  0
LINE
  8
1-d
  6
CONTINUOUS
 62
    7
 10
1550.0004
 20
189.99989
 11
1550.0004
 21
269.99991
  0
LINE
  8
1-d
  6
CONTINUOUS
 62
    7
 10
1585.0002
 20
189.99989
 11
1585.0002
 21
269.99991
  0
LINE
  8
1-8
  6
CONTINUOUS
 62
    7
 10
583.33483
 20
1941.0347
 11
325.51659
 21
1941.0347
  0
LINE
  8
1-8
  6
CONTINUOUS
 62
    7
 10
583.33483
 20
2650.5285
 11
1516.6665
 21
2650.5285
  0
LINE
  8
1-8
  6
CONTINUOUS
 62
    7
 10
676.66666
 20
1906.7967
 11
676.66666
 21
1783.1574
  0
LINE
  8
1-8
  6
CONTINUOUS
 62
    7
 10
1423.3336
 20
1906.7967
 11
1423.3336
 21
1783.1574
  0
LINE
  8
1-8
  6
CONTINUOUS
 62
    7
 10
583.33483
 20
2438.0672
 11
583.33483
 21
2650.5285
  0
LINE
  8
1-8
  6
CONTINUOUS
 62
    7
 10
1516.6665
 20
2438.0672
 11
1516.6665
 21
2650.5285
  0
LINE
  8
1-8
  6
CONTINUOUS
 62
    7
 10
325.51672
 20
1941.0347
 11
325.51672
 21
2491.0347
  0
LINE
  8
1-2
  6
CONTINUOUS
 62
    3
 10
827.79103
 20
2044.4451
 11
827.79103
 21
1981.0346
  0
LINE
  8
1-2
  6
CONTINUOUS
 62
    3
 10
786.49679
 20
2044.4451
 11
827.79103
 21
2044.4451
  0
LINE
  8
1-2
  6
CONTINUOUS
 62
    3
 10
676.66666
 20
1981.0346
 11
786.49679
 21
2044.4451
  0
LINE
  8
1-2
  6
CONTINUOUS
 62
    3
 10
745.00014
 20
2053.3687
 11
745.00014
 21
2020.4869
  0
LINE
  8
1-2
  6
CONTINUOUS
 62
    3
 10
676.66666
 20
1981.0346
 11
676.66666
 21
1941.0347
  0
LINE
  8
1-2
  6
CONTINUOUS
 62
    3
 10
1423.3336
 20
1981.0346
 11
676.66666
 21
1981.0346
  0
LINE
  8
1-2
  6
CONTINUOUS
 62
    3
 10
1423.3336
 20
1941.0347
 11
676.66666
 21
1941.0347
  0
LINE
  8
1-2
  6
CONTINUOUS
 62
    3
 10
1423.3336
 20
1981.0346
 11
1423.3336
 21
1941.0347
  0
LINE
  8
1-8
  6
CONTINUOUS
 62
    7
 10
676.66666
 20
1783.1574
 11
1423.3336
 21
1783.1574
  0
LINE
  8
1-2
  6
CONTINUOUS
 62
    3
 10
1071.836
 20
2220.2479
 11
1077.5827
 21
2223.7801
  0
LINE
  8
1-2
  6
CONTINUOUS
 62
    3
 10
1077.5827
 20
2223.7801
 11
1083.3021
 21
2227.3826
  0
LINE
  8
1-2
  6
CONTINUOUS
 62
    3
 10
1083.3021
 20
2227.3826
 11
1088.9677
 21
2231.1194
  0
LINE
  8
1-2
  6
CONTINUOUS
 62
    3
 10
1088.9677
 20
2231.1194
 11
1094.516
 21
2235.0641
  0
LINE
  8
1-2
  6
CONTINUOUS
 62
    3
 10
1094.516
 20
2235.0641
 11
1099.8459
 21
2239.2961
  0
LINE
  8
1-2
  6
CONTINUOUS
 62
    3
 10
1099.8459
 20
2239.2961
 11
1104.8454
 21
2243.8846
  0
LINE
  8
1-2
  6
CONTINUOUS
 62
    3
 10
1104.8454
 20
2243.8846
 11
1109.406
 21
2248.9108
  0
LINE
  8
1-2
  6
CONTINUOUS
 62
    3
 10
1109.406
 20
2248.9108
 11
1113.4172
 21
2254.4463
  0
LINE
  8
1-2
  6
CONTINUOUS
 62
    3
 10
1113.4172
 20
2254.4463
 11
1116.9158
 21
2260.4336
  0
LINE
  8
1-2
  6
CONTINUOUS
 62
    3
 10
1116.9158
 20
2260.4336
 11
1120.2216
 21
2266.5479
  0
LINE
  8
1-2
  6
CONTINUOUS
 62
    3
 10
1120.2216
 20
2266.5479
 11
1123.6704
 21
2272.4438
  0
LINE
  8
1-2
  6
CONTINUOUS
 62
    3
 10
1123.6704
 20
2272.4438
 11
1127.6158
 21
2277.7762
  0
LINE
  8
1-2
  6
CONTINUOUS
 62
    3
 10
1127.6158
 20
2277.7762
 11
1132.3914
 21
2282.1974
  0
LINE
  8
1-2
  6
CONTINUOUS
 62
    3
 10
1132.3914
 20
2282.1974
 11
1138.1033
 21
2285.6156
  0
LINE
  8
1-2
  6
CONTINUOUS
 62
    3
 10
1138.1033
 20
2285.6156
 11
1144.4026
 21
2288.4082
  0
LINE
  8
1-2
  6
CONTINUOUS
 62
    3
 10
1144.4026
 20
2288.4082
 11
1147.3853
 21
2289.5998
  0
LINE
  8
1-2
  6
CONTINUOUS
 62
    3
 10
1144.4026
 20
2288.4082
 11
1148.5512
 21
2289.0678
  0
LINE
  8
1-2
  6
CONTINUOUS
 62
    3
 10
1148.5512
 20
2289.0678
 11
1152.7369
 21
2289.6409
  0
LINE
  8
1-2
  6
CONTINUOUS
 62
    3
 10
1152.7369
 20
2289.6409
 11
1156.9916
 21
2290.0519
  0
LINE
  8
1-2
  6
CONTINUOUS
 62
    3
 10
1156.9916
 20
2290.0519
 11
1161.3508
 21
2290.2071
  0
LINE
  8
1-2
  6
CONTINUOUS
 62
    3
 10
1161.3508
 20
2290.2071
 11
1165.8428
 21
2290.0309
  0
LINE
  8
1-2
  6
CONTINUOUS
 62
    3
 10
1165.8428
 20
2290.0309
 11
1170.3373
 21
2289.3762
  0
LINE
  8
1-2
  6
CONTINUOUS
 62
    3
 10
1170.3373
 20
2289.3762
 11
1174.5304
 21
2288.063
  0
LINE
  8
1-2
  6
CONTINUOUS
 62
    3
 10
1174.5304
 20
2288.063
 11
1178.1042
 21
2285.8863
  0
LINE
  8
1-2
  6
CONTINUOUS
 62
    3
 10
1178.1042
 20
2285.8863
 11
1180.8018
 21
2282.7047
  0
LINE
  8
1-2
  6
CONTINUOUS
 62
    3
 10
1180.8018
 20
2282.7047
 11
1182.9048
 21
2278.8852
  0
LINE
  8
1-2
  6
CONTINUOUS
 62
    3
 10
1069.5798
 20
2204.4627
 11
1076.3139
 21
2205.4629
  0
LINE
  8
1-2
  6
CONTINUOUS
 62
    3
 10
1076.3139
 20
2205.4629
 11
1083.0069
 21
2206.5939
  0
LINE
  8
1-2
  6
CONTINUOUS
 62
    3
 10
1083.0069
 20
2206.5939
 11
1089.6261
 21
2207.9764
  0
LINE
  8
1-2
  6
CONTINUOUS
 62
    3
 10
1089.6261
 20
2207.9764
 11
1096.1266
 21
2209.7456
  0
LINE
  8
1-2
  6
CONTINUOUS
 62
    3
 10
1096.1266
 20
2209.7456
 11
1102.4744
 21
2212.023
  0
LINE
  8
1-2
  6
CONTINUOUS
 62
    3
 10
1102.4744
 20
2212.023
 11
1108.634
 21
2214.8399
  0
LINE
  8
1-2
  6
CONTINUOUS
 62
    3
 10
1108.634
 20
2214.8399
 11
1114.5792
 21
2218.1419
  0
LINE
  8
1-2
  6
CONTINUOUS
 62
    3
 10
1114.5792
 20
2218.1419
 11
1120.277
 21
2221.8909
  0
LINE
  8
1-2
  6
CONTINUOUS
 62
    3
 10
1120.277
 20
2221.8909
 11
1125.7006
 21
2226.0197
  0
LINE
  8
1-2
  6
CONTINUOUS
 62
    3
 10
1125.7006
 20
2226.0197
 11
1130.8246
 21
2230.4894
  0
LINE
  8
1-2
  6
CONTINUOUS
 62
    3
 10
1130.8246
 20
2230.4894
 11
1135.6878
 21
2235.2188
  0
LINE
  8
1-2
  6
CONTINUOUS
 62
    3
 10
1135.6878
 20
2235.2188
 11
1140.3879
 21
2240.0995
  0
LINE
  8
1-2
  6
CONTINUOUS
 62
    3
 10
1140.3879
 20
2240.0995
 11
1145.0284
 21
2245.0245
  0
LINE
  8
1-2
  6
CONTINUOUS
 62
    3
 10
1145.0284
 20
2245.0245
 11
1149.7077
 21
2249.8848
  0
LINE
  8
1-2
  6
CONTINUOUS
 62
    3
 10
1149.7077
 20
2249.8848
 11
1154.5328
 21
2254.5742
  0
LINE
  8
1-2
  6
CONTINUOUS
 62
    3
 10
1154.5328
 20
2254.5742
 11
1159.5957
 21
2258.9995
  0
LINE
  8
1-2
  6
CONTINUOUS
 62
    3
 10
1159.5957
 20
2258.9995
 11
1164.8899
 21
2263.1569
  0
LINE
  8
1-2
  6
CONTINUOUS
 62
    3
 10
1164.8899
 20
2263.1569
 11
1170.3724
 21
2267.1105
  0
LINE
  8
1-2
  6
CONTINUOUS
 62
    3
 10
1170.3724
 20
2267.1105
 11
1175.9859
 21
2270.9102
  0
LINE
  8
1-2
  6
CONTINUOUS
 62
    3
 10
1175.9859
 20
2270.9102
 11
1181.6879
 21
2274.6149
  0
LINE
  8
1-2
  6
CONTINUOUS
 62
    3
 10
1181.6879
 20
2274.6149
 11
1185.7241
 21
2277.1947
  0
LINE
  8
1-2
  6
CONTINUOUS
 62
    3
 10
1185.7241
 20
2277.1947
 11
1192.0229
 21
2279.8077
  0
LINE
  8
1-2
  6
CONTINUOUS
 62
    3
 10
1192.0229
 20
2279.8077
 11
1198.3579
 21
2282.2464
  0
LINE
  8
1-2
  6
CONTINUOUS
 62
    3
 10
1198.3579
 20
2282.2464
 11
1204.7681
 21
2284.3405
  0
LINE
  8
1-2
  6
CONTINUOUS
 62
    3
 10
1204.7681
 20
2284.3405
 11
1211.2898
 21
2285.9184
  0
LINE
  8
1-2
  6
CONTINUOUS
 62
    3
 10
1211.2898
 20
2285.9184
 11
1217.9395
 21
2286.8854
  0
LINE
  8
1-2
  6
CONTINUOUS
 62
    3
 10
1217.9395
 20
2286.8854
 11
1224.685
 21
2287.3095
  0
LINE
  8
1-2
  6
CONTINUOUS
 62
    3
 10
1224.685
 20
2287.3095
 11
1231.4871
 21
2287.2848
  0
LINE
  8
1-2
  6
CONTINUOUS
 62
    3
 10
1231.4871
 20
2287.2848
 11
1238.3093
 21
2286.902
  0
LINE
  8
1-2
  6
CONTINUOUS
 62
    3
 10
1238.3093
 20
2286.902
 11
1245.1191
 21
2286.2559
  0
LINE
  8
1-2
  6
CONTINUOUS
 62
    3
 10
1245.1191
 20
2286.2559
 11
1251.8769
 21
2285.4248
  0
LINE
  8
1-2
  6
CONTINUOUS
 62
    3
 10
1251.8769
 20
2285.4248
 11
1258.5748
 21
2284.3912
  0
LINE
  8
1-2
  6
CONTINUOUS
 62
    3
 10
1258.5748
 20
2284.3912
 11
1265.2161
 21
2283.1328
  0
LINE
  8
1-2
  6
CONTINUOUS
 62
    3
 10
1265.2161
 20
2283.1328
 11
1271.7903
 21
2281.607
  0
LINE
  8
1-2
  6
CONTINUOUS
 62
    3
 10
1271.7903
 20
2281.607
 11
1278.3012
 21
2279.7864
  0
LINE
  8
1-2
  6
CONTINUOUS
 62
    3
 10
1278.3012
 20
2279.7864
 11
1284.747
 21
2277.6307
  0
LINE
  8
1-2
  6
CONTINUOUS
 62
    3
 10
1284.747
 20
2277.6307
 11
1291.1008
 21
2275.1103
  0
LINE
  8
1-2
  6
CONTINUOUS
 62
    3
 10
1291.1008
 20
2275.1103
 11
1297.3036
 21
2272.1959
  0
LINE
  8
1-2
  6
CONTINUOUS
 62
    3
 10
1297.3036
 20
2272.1959
 11
1303.2649
 21
2268.8698
  0
LINE
  8
1-2
  6
CONTINUOUS
 62
    3
 10
1303.2649
 20
2268.8698
 11
1308.9081
 21
2265.1021
  0
LINE
  8
1-2
  6
CONTINUOUS
 62
    3
 10
1308.9081
 20
2265.1021
 11
1314.1498
 21
2260.8637
  0
LINE
  8
1-2
  6
CONTINUOUS
 62
    3
 10
1314.1498
 20
2260.8637
 11
1318.9185
 21
2256.1428
  0
LINE
  8
1-2
  6
CONTINUOUS
 62
    3
 10
1318.9185
 20
2256.1428
 11
1323.2749
 21
2251.0086
  0
LINE
  8
1-2
  6
CONTINUOUS
 62
    3
 10
1323.2749
 20
2251.0086
 11
1327.329
 21
2245.5749
  0
LINE
  8
1-2
  6
CONTINUOUS
 62
    3
 10
1327.329
 20
2245.5749
 11
1331.1935
 21
2239.9565
  0
LINE
  8
1-2
  6
CONTINUOUS
 62
    3
 10
1331.1935
 20
2239.9565
 11
1333.4397
 21
2236.6012
  0
LINE
  8
1-2
  6
CONTINUOUS
 62
    3
 10
1331.1935
 20
2239.9565
 11
1334.2152
 21
2233.6987
  0
LINE
  8
1-2
  6
CONTINUOUS
 62
    3
 10
1334.2152
 20
2233.6987
 11
1337.0766
 21
2227.4133
  0
LINE
  8
1-2
  6
CONTINUOUS
 62
    3
 10
1337.0766
 20
2227.4133
 11
1339.6218
 21
2221.0838
  0
LINE
  8
1-2
  6
CONTINUOUS
 62
    3
 10
1339.6218
 20
2221.0838
 11
1341.6894
 21
2214.6753
  0
LINE
  8
1-2
  6
CONTINUOUS
 62
    3
 10
1341.6894
 20
2214.6753
 11
1343.1216
 21
2208.1709
  0
LINE
  8
1-2
  6
CONTINUOUS
 62
    3
 10
1343.1216
 20
2208.1709
 11
1343.7659
 21
2201.5444
  0
LINE
  8
1-2
  6
CONTINUOUS
 62
    3
 10
1343.7659
 20
2201.5444
 11
1343.5813
 21
2194.823
  0
LINE
  8
1-2
  6
CONTINUOUS
 62
    3
 10
1343.5813
 20
2194.823
 11
1342.6801
 21
2188.0713
  0
LINE
  8
1-2
  6
CONTINUOUS
 62
    3
 10
1342.6801
 20
2188.0713
 11
1341.1787
 21
2181.3687
  0
LINE
  8
1-2
  6
CONTINUOUS
 62
    3
 10
1341.1787
 20
2181.3687
 11
1339.1803
 21
2174.7912
  0
LINE
  8
1-2
  6
CONTINUOUS
 62
    3
 10
1339.1803
 20
2174.7912
 11
1336.7183
 21
2168.4295
  0
LINE
  8
1-2
  6
CONTINUOUS
 62
    3
 10
1336.7183
 20
2168.4295
 11
1333.7258
 21
2162.3742
  0
LINE
  8
1-2
  6
CONTINUOUS
 62
    3
 10
1333.7258
 20
2162.3742
 11
1330.1315
 21
2156.7177
  0
LINE
  8
1-2
  6
CONTINUOUS
 62
    3
 10
1330.1315
 20
2156.7177
 11
1325.9423
 21
2151.4948
  0
LINE
  8
1-2
  6
CONTINUOUS
 62
    3
 10
1325.9423
 20
2151.4948
 11
1321.2855
 21
2146.6088
  0
LINE
  8
1-2
  6
CONTINUOUS
 62
    3
 10
1321.2855
 20
2146.6088
 11
1316.3085
 21
2141.9569
  0
LINE
  8
1-2
  6
CONTINUOUS
 62
    3
 10
1316.3085
 20
2141.9569
 11
1311.1494
 21
2137.4407
  0
LINE
  8
1-2
  6
CONTINUOUS
 62
    3
 10
1311.1494
 20
2137.4407
 11
1309.7583
 21
2136.2455
  0
LINE
  8
1-2
  6
CONTINUOUS
 62
    3
 10
1311.1494
 20
2137.4407
 11
1305.2281
 21
2134.121
  0
LINE
  8
1-2
  6
CONTINUOUS
 62
    3
 10
1305.2281
 20
2134.121
 11
1299.2846
 21
2130.8627
  0
LINE
  8
1-2
  6
CONTINUOUS
 62
    3
 10
1299.2846
 20
2130.8627
 11
1293.2916
 21
2127.7235
  0
LINE
  8
1-2
  6
CONTINUOUS
 62
    3
 10
1293.2916
 20
2127.7235
 11
1287.2167
 21
2124.7619
  0
LINE
  8
1-2
  6
CONTINUOUS
 62
    3
 10
1287.2167
 20
2124.7619
 11
1281.0446
 21
2122.0366
  0
LINE
  8
1-2
  6
CONTINUOUS
 62
    3
 10
1281.0446
 20
2122.0366
 11
1274.7403
 21
2119.6067
  0
LINE
  8
1-2
  6
CONTINUOUS
 62
    3
 10
1274.7403
 20
2119.6067
 11
1268.3032
 21
2117.5067
  0
LINE
  8
1-2
  6
CONTINUOUS
 62
    3
 10
1268.3032
 20
2117.5067
 11
1261.7596
 21
2115.7437
  0
LINE
  8
1-2
  6
CONTINUOUS
 62
    3
 10
1261.7596
 20
2115.7437
 11
1255.1344
 21
2114.3159
  0
LINE
  8
1-2
  6
CONTINUOUS
 62
    3
 10
1255.1344
 20
2114.3159
 11
1248.4484
 21
2113.2237
  0
LINE
  8
1-2
  6
CONTINUOUS
 62
    3
 10
1248.4484
 20
2113.2237
 11
1241.7333
 21
2112.4591
  0
LINE
  8
1-2
  6
CONTINUOUS
 62
    3
 10
1241.7333
 20
2112.4591
 11
1234.996
 21
2111.9653
  0
LINE
  8
1-2
  6
CONTINUOUS
 62
    3
 10
1234.996
 20
2111.9653
 11
1228.2407
 21
2111.6762
  0
LINE
  8
1-2
  6
CONTINUOUS
 62
    3
 10
1228.2407
 20
2111.6762
 11
1221.4712
 21
2111.5199
  0
LINE
  8
1-2
  6
CONTINUOUS
 62
    3
 10
1221.4712
 20
2111.5199
 11
1215.6029
 21
2111.4375
  0
LINE
  8
1-2
  6
CONTINUOUS
 62
    3
 10
1139.9596
 20
2110.8157
 11
1146.2916
 21
2108.2529
  0
LINE
  8
1-2
  6
CONTINUOUS
 62
    3
 10
1146.2916
 20
2108.2529
 11
1152.6597
 21
2105.7194
  0
LINE
  8
1-2
  6
CONTINUOUS
 62
    3
 10
1152.6597
 20
2105.7194
 11
1159.0882
 21
2103.385
  0
LINE
  8
1-2
  6
CONTINUOUS
 62
    3
 10
1159.0882
 20
2103.385
 11
1165.578
 21
2101.4382
  0
LINE
  8
1-2
  6
CONTINUOUS
 62
    3
 10
1165.578
 20
2101.4382
 11
1172.1473
 21
2100.0654
  0
LINE
  8
1-2
  6
CONTINUOUS
 62
    3
 10
1172.1473
 20
2100.0654
 11
1178.8099
 21
2099.451
  0
LINE
  8
1-2
  6
CONTINUOUS
 62
    3
 10
1178.8099
 20
2099.451
 11
1185.5504
 21
2099.5467
  0
LINE
  8
1-2
  6
CONTINUOUS
 62
    3
 10
1185.5504
 20
2099.5467
 11
1192.3396
 21
2100.0476
  0
LINE
  8
1-2
  6
CONTINUOUS
 62
    3
 10
1192.3396
 20
2100.0476
 11
1193.6154
 21
2100.1604
  0
LINE
  8
1-2
  6
CONTINUOUS
 62
    3
 10
1192.3396
 20
2100.0476
 11
1197.8915
 21
2101.2858
  0
LINE
  8
1-2
  6
CONTINUOUS
 62
    3
 10
1197.8915
 20
2101.2858
 11
1203.2203
 21
2102.999
  0
LINE
  8
1-2
  6
CONTINUOUS
 62
    3
 10
1203.2203
 20
2102.999
 11
1208.1092
 21
2105.6667
  0
LINE
  8
1-2
  6
CONTINUOUS
 62
    3
 10
1208.1092
 20
2105.6667
 11
1212.2771
 21
2109.4938
  0
LINE
  8
1-2
  6
CONTINUOUS
 62
    3
 10
1212.2771
 20
2109.4938
 11
1215.3674
 21
2114.2912
  0
LINE
  8
1-2
  6
CONTINUOUS
 62
    3
 10
1215.3674
 20
2114.2912
 11
1217.051
 21
2119.7767
  0
LINE
  8
1-2
  6
CONTINUOUS
 62
    3
 10
1217.051
 20
2119.7767
 11
1217.1747
 21
2125.4502
  0
LINE
  8
1-2
  6
CONTINUOUS
 62
    3
 10
1217.1747
 20
2125.4502
 11
1215.6732
 21
2130.7652
  0
LINE
  8
1-2
  6
CONTINUOUS
 62
    3
 10
1215.6732
 20
2130.7652
 11
1212.868
 21
2135.6007
  0
LINE
  8
1-2
  6
CONTINUOUS
 62
    3
 10
1212.868
 20
2135.6007
 11
1209.4024
 21
2140.1912
  0
LINE
  8
1-2
  6
CONTINUOUS
 62
    3
 10
1079.3217
 20
2195.7118
 11
1086.1449
 21
2194.5503
  0
LINE
  8
1-2
  6
CONTINUOUS
 62
    3
 10
1086.1449
 20
2194.5503
 11
1092.9455
 21
2193.5848
  0
LINE
  8
1-2
  6
CONTINUOUS
 62
    3
 10
1092.9455
 20
2193.5848
 11
1099.6967
 21
2193.0117
  0
LINE
  8
1-2
  6
CONTINUOUS
 62
    3
 10
1099.6967
 20
2193.0117
 11
1106.3743
 21
2193.0216
  0
LINE
  8
1-2
  6
CONTINUOUS
 62
    3
 10
1106.3743
 20
2193.0216
 11
1112.9548
 21
2193.8075
  0
LINE
  8
1-2
  6
CONTINUOUS
 62
    3
 10
1112.9548
 20
2193.8075
 11
1119.4382
 21
2195.403
  0
LINE
  8
1-2
  6
CONTINUOUS
 62
    3
 10
1119.4382
 20
2195.403
 11
1125.839
 21
2197.5938
  0
LINE
  8
1-2
  6
CONTINUOUS
 62
    3
 10
1125.839
 20
2197.5938
 11
1132.1878
 21
2200.1627
  0
LINE
  8
1-2
  6
CONTINUOUS
 62
    3
 10
1132.1878
 20
2200.1627
 11
1138.4972
 21
2202.8776
  0
LINE
  8
1-2
  6
CONTINUOUS
 62
    3
 10
1138.4972
 20
2202.8776
 11
1144.7995
 21
2205.5433
  0
LINE
  8
1-2
  6
CONTINUOUS
 62
    3
 10
1144.7995
 20
2205.5433
 11
1151.0956
 21
2208.1085
  0
LINE
  8
1-2
  6
CONTINUOUS
 62
    3
 10
1151.0956
 20
2208.1085
 11
1157.3912
 21
2210.5977
  0
LINE
  8
1-2
  6
CONTINUOUS
 62
    3
 10
1157.3912
 20
2210.5977
 11
1163.6797
 21
2213.0246
  0
LINE
  8
1-2
  6
CONTINUOUS
 62
    3
 10
1163.6797
 20
2213.0246
 11
1169.9681
 21
2215.4065
  0
LINE
  8
1-2
  6
CONTINUOUS
 62
    3
 10
1169.9681
 20
2215.4065
 11
1176.2585
 21
2217.7666
  0
LINE
  8
1-2
  6
CONTINUOUS
 62
    3
 10
1176.2585
 20
2217.7666
 11
1176.1704
 21
2211.974
  0
LINE
  8
1-2
  6
CONTINUOUS
 62
    3
 10
1176.1704
 20
2211.974
 11
1176.0873
 21
2206.1874
  0
LINE
  8
1-2
  6
CONTINUOUS
 62
    3
 10
1176.0873
 20
2206.1874
 11
1176.0039
 21
2200.3938
  0
LINE
  8
1-2
  6
CONTINUOUS
 62
    3
 10
1176.0039
 20
2200.3938
 11
1175.9166
 21
2194.6062
  0
LINE
  8
1-2
  6
CONTINUOUS
 62
    3
 10
1175.9166
 20
2194.6062
 11
1175.8342
 21
2188.8193
  0
LINE
  8
1-2
  6
CONTINUOUS
 62
    3
 10
1175.8342
 20
2188.8193
 11
1175.7498
 21
2183.026
  0
LINE
  8
1-2
  6
CONTINUOUS
 62
    3
 10
1175.7498
 20
2183.026
 11
1175.6629
 21
2177.2394
  0
LINE
  8
1-2
  6
CONTINUOUS
 62
    3
 10
1175.6629
 20
2177.2394
 11
1175.5796
 21
2171.4463
  0
LINE
  8
1-2
  6
CONTINUOUS
 62
    3
 10
1175.5796
 20
2171.4463
 11
1175.4934
 21
2165.6577
  0
LINE
  8
1-2
  6
CONTINUOUS
 62
    3
 10
1175.4934
 20
2165.6577
 11
1175.4093
 21
2159.8666
  0
LINE
  8
1-2
  6
CONTINUOUS
 62
    3
 10
1209.4024
 20
2140.1912
 11
1208.0182
 21
2141.4111
  0
LINE
  8
1-2
  6
CONTINUOUS
 62
    3
 10
1208.0182
 20
2141.4111
 11
1206.0285
 21
2142.8868
  0
LINE
  8
1-2
  6
CONTINUOUS
 62
    3
 10
1206.0285
 20
2142.8868
 11
1203.5125
 21
2144.5749
  0
LINE
  8
1-2
  6
CONTINUOUS
 62
    3
 10
1203.5125
 20
2144.5749
 11
1200.5383
 21
2146.4351
  0
LINE
  8
1-2
  6
CONTINUOUS
 62
    3
 10
1200.5383
 20
2146.4351
 11
1197.1472
 21
2148.4295
  0
LINE
  8
1-2
  6
CONTINUOUS
 62
    3
 10
1197.1472
 20
2148.4295
 11
1193.3999
 21
2150.5332
  0
LINE
  8
1-2
  6
CONTINUOUS
 62
    3
 10
1193.3999
 20
2150.5332
 11
1189.333
 21
2152.7196
  0
LINE
  8
1-2
  6
CONTINUOUS
 62
    3
 10
1189.333
 20
2152.7196
 11
1184.9766
 21
2154.9649
  0
LINE
  8
1-2
  6
CONTINUOUS
 62
    3
 10
1184.9766
 20
2154.9649
 11
1180.37
 21
2157.2524
  0
LINE
  8
1-2
  6
CONTINUOUS
 62
    3
 10
1180.37
 20
2157.2524
 11
1175.5385
 21
2159.5648
  0
LINE
  8
1-2
  6
CONTINUOUS
 62
    3
 10
1175.5385
 20
2159.5648
 11
1170.4999
 21
2161.8867
  0
LINE
  8
1-2
  6
CONTINUOUS
 62
    3
 10
1170.4999
 20
2161.8867
 11
1165.2856
 21
2164.2117
  0
LINE
  8
1-2
  6
CONTINUOUS
 62
    3
 10
1165.2856
 20
2164.2117
 11
1159.9104
 21
2166.5243
  0
LINE
  8
1-2
  6
CONTINUOUS
 62
    3
 10
1159.9104
 20
2166.5243
 11
1154.4012
 21
2168.8185
  0
LINE
  8
1-2
  6
CONTINUOUS
 62
    3
 10
1154.4012
 20
2168.8185
 11
1148.7724
 21
2171.0895
  0
LINE
  8
1-2
  6
CONTINUOUS
 62
    3
 10
1148.7724
 20
2171.0895
 11
1143.0472
 21
2173.3249
  0
LINE
  8
1-2
  6
CONTINUOUS
 62
    3
 10
1143.0472
 20
2173.3249
 11
1137.2454
 21
2175.5241
  0
LINE
  8
1-2
  6
CONTINUOUS
 62
    3
 10
1137.2454
 20
2175.5241
 11
1131.3908
 21
2177.6808
  0
LINE
  8
1-2
  6
CONTINUOUS
 62
    3
 10
1131.3908
 20
2177.6808
 11
1125.5084
 21
2179.7949
  0
LINE
  8
1-2
  6
CONTINUOUS
 62
    3
 10
1125.5084
 20
2179.7949
 11
1119.62
 21
2181.8517
  0
LINE
  8
1-2
  6
CONTINUOUS
 62
    3
 10
1119.62
 20
2181.8517
 11
1113.7488
 21
2183.8535
  0
LINE
  8
1-2
  6
CONTINUOUS
 62
    3
 10
1113.7488
 20
2183.8535
 11
1107.9243
 21
2185.7983
  0
LINE
  8
1-2
  6
CONTINUOUS
 62
    3
 10
1107.9243
 20
2185.7983
 11
1102.178
 21
2187.6744
  0
LINE
  8
1-2
  6
CONTINUOUS
 62
    3
 10
1102.178
 20
2187.6744
 11
1096.5319
 21
2189.4822
  0
LINE
  8
1-2
  6
CONTINUOUS
 62
    3
 10
1096.5319
 20
2189.4822
 11
1091.0227
 21
2191.2143
  0
LINE
  8
1-2
  6
CONTINUOUS
 62
    3
 10
1091.0227
 20
2191.2143
 11
1085.6787
 21
2192.8613
  0
LINE
  8
1-2
  6
CONTINUOUS
 62
    3
 10
1085.6787
 20
2192.8613
 11
1080.5305
 21
2194.4181
  0
LINE
  8
1-2
  6
CONTINUOUS
 62
    3
 10
1080.5305
 20
2194.4181
 11
1075.6045
 21
2195.88
  0
LINE
  8
1-2
  6
CONTINUOUS
 62
    3
 10
1075.6045
 20
2195.88
 11
1070.9335
 21
2197.2345
  0
LINE
  8
1-2
  6
CONTINUOUS
 62
    3
 10
1176.2585
 20
2217.7666
 11
1176.3385
 21
2217.7948
  0
LINE
  8
1-2
  6
CONTINUOUS
 62
    3
 10
1100.0669
 20
2080.8042
 11
1100.0669
 21
2061.3398
  0
LINE
  8
1-2
  6
CONTINUOUS
 62
    3
 10
1100.0669
 20
2061.3398
 11
1159.2149
 21
2061.3398
  0
LINE
  8
1-2
  6
CONTINUOUS
 62
    3
 10
1159.2149
 20
2080.8042
 11
1159.2149
 21
2061.3398
  0
LINE
  8
1-2
  6
CONTINUOUS
 62
    3
 10
1100.0669
 20
2080.8042
 11
1159.2149
 21
2080.8042
  0
LINE
  8
1-2
  6
CONTINUOUS
 62
    3
 10
1065.4787
 20
2233.3268
 11
1065.4787
 21
2189.7084
  0
LINE
  8
1-2
  6
CONTINUOUS
 62
    3
 10
1071.836
 20
2220.2479
 11
1071.1758
 21
2219.8753
  0
LINE
  8
1-2
  6
CONTINUOUS
 62
    3
 10
1071.1758
 20
2219.8753
 11
1070.5003
 21
2219.4836
  0
LINE
  8
1-2
  6
CONTINUOUS
 62
    3
 10
1070.5003
 20
2219.4836
 11
1069.8168
 21
2219.0726
  0
LINE
  8
1-2
  6
CONTINUOUS
 62
    3
 10
1069.8168
 20
2219.0726
 11
1069.1183
 21
2218.6423
  0
LINE
  8
1-2
  6
CONTINUOUS
 62
    3
 10
1069.1183
 20
2218.6423
 11
1068.4059
 21
2218.1981
  0
LINE
  8
1-2
  6
CONTINUOUS
 62
    3
 10
1068.4059
 20
2218.1981
 11
1067.6814
 21
2217.7314
  0
LINE
  8
1-2
  6
CONTINUOUS
 62
    3
 10
1067.6814
 20
2217.7314
 11
1066.9448
 21
2217.2484
  0
LINE
  8
1-2
  6
CONTINUOUS
 62
    3
 10
1066.9448
 20
2217.2484
 11
1066.1938
 21
2216.7442
  0
LINE
  8
1-2
  6
CONTINUOUS
 62
    3
 10
1066.1938
 20
2216.7442
 11
1065.4322
 21
2216.2255
  0
LINE
  8
1-2
  6
CONTINUOUS
 62
    3
 10
1069.5798
 20
2204.4627
 11
1069.0904
 21
2204.3687
  0
LINE
  8
1-2
  6
CONTINUOUS
 62
    3
 10
1069.0904
 20
2204.3687
 11
1068.6076
 21
2204.2816
  0
LINE
  8
1-2
  6
CONTINUOUS
 62
    3
 10
1068.6076
 20
2204.2816
 11
1068.1338
 21
2204.195
  0
LINE
  8
1-2
  6
CONTINUOUS
 62
    3
 10
1068.1338
 20
2204.195
 11
1067.6646
 21
2204.1109
  0
LINE
  8
1-2
  6
CONTINUOUS
 62
    3
 10
1067.6646
 20
2204.1109
 11
1067.2054
 21
2204.0307
  0
LINE
  8
1-2
  6
CONTINUOUS
 62
    3
 10
1067.2054
 20
2204.0307
 11
1066.7503
 21
2203.9552
  0
LINE
  8
1-2
  6
CONTINUOUS
 62
    3
 10
1066.7503
 20
2203.9552
 11
1066.3042
 21
2203.8847
  0
LINE
  8
1-2
  6
CONTINUOUS
 62
    3
 10
1066.3042
 20
2203.8847
 11
1065.8632
 21
2203.8154
  0
LINE
  8
1-2
  6
CONTINUOUS
 62
    3
 10
1065.8632
 20
2203.8154
 11
1065.4322
 21
2203.7489
  0
LINE
  8
1-2
  6
CONTINUOUS
 62
    3
 10
1079.3217
 20
2195.7118
 11
1077.4617
 21
2196.1062
  0
LINE
  8
1-2
  6
CONTINUOUS
 62
    3
 10
1077.4617
 20
2196.1062
 11
1075.6772
 21
2196.4872
  0
LINE
  8
1-2
  6
CONTINUOUS
 62
    3
 10
1075.6772
 20
2196.4872
 11
1073.9743
 21
2196.8564
  0
LINE
  8
1-2
  6
CONTINUOUS
 62
    3
 10
1073.9743
 20
2196.8564
 11
1072.3511
 21
2197.2137
  0
LINE
  8
1-2
  6
CONTINUOUS
 62
    3
 10
1072.3511
 20
2197.2137
 11
1070.8071
 21
2197.5577
  0
LINE
  8
1-2
  6
CONTINUOUS
 62
    3
 10
1070.8071
 20
2197.5577
 11
1069.3445
 21
2197.8922
  0
LINE
  8
1-2
  6
CONTINUOUS
 62
    3
 10
1069.3445
 20
2197.8922
 11
1067.9601
 21
2198.2119
  0
LINE
  8
1-2
  6
CONTINUOUS
 62
    3
 10
1067.9601
 20
2198.2119
 11
1066.656
 21
2198.5212
  0
LINE
  8
1-2
  6
CONTINUOUS
 62
    3
 10
1066.656
 20
2198.5212
 11
1065.4322
 21
2198.8161
  0
LINE
  8
1-2
  6
CONTINUOUS
 62
    3
 10
1070.9335
 20
2197.2345
 11
1070.2058
 21
2197.433
  0
LINE
  8
1-2
  6
CONTINUOUS
 62
    3
 10
1070.2058
 20
2197.433
 11
1069.5073
 21
2197.6235
  0
LINE
  8
1-2
  6
CONTINUOUS
 62
    3
 10
1069.5073
 20
2197.6235
 11
1068.8397
 21
2197.812
  0
LINE
  8
1-2
  6
CONTINUOUS
 62
    3
 10
1068.8397
 20
2197.812
 11
1068.2028
 21
2197.9932
  0
LINE
  8
1-2
  6
CONTINUOUS
 62
    3
 10
1068.2028
 20
2197.9932
 11
1067.5983
 21
2198.1669
  0
LINE
  8
1-2
  6
CONTINUOUS
 62
    3
 10
1067.5983
 20
2198.1669
 11
1067.0213
 21
2198.3326
  0
LINE
  8
1-2
  6
CONTINUOUS
 62
    3
 10
1067.0213
 20
2198.3326
 11
1066.4757
 21
2198.4955
  0
LINE
  8
1-2
  6
CONTINUOUS
 62
    3
 10
1066.4757
 20
2198.4955
 11
1065.962
 21
2198.6528
  0
LINE
  8
1-2
  6
CONTINUOUS
 62
    3
 10
1065.962
 20
2198.6528
 11
1065.4787
 21
2198.8067
  0
LINE
  8
1-2
  6
CONTINUOUS
 62
    3
 10
1059.5199
 20
2239.2884
 11
1049.9999
 21
2239.2884
  0
LINE
  8
1-2
  6
CONTINUOUS
 62
    3
 10
1059.5199
 20
2147.7052
 11
1049.9999
 21
2147.7052
  0
LINE
  8
1-2
  6
CONTINUOUS
 62
    3
 10
1054.9729
 20
2178.7572
 11
1058.4255
 21
2174.8595
  0
LINE
  8
1-2
  6
CONTINUOUS
 62
    3
 10
1058.4255
 20
2174.8595
 11
1062.2204
 21
2170.8104
  0
LINE
  8
1-2
  6
CONTINUOUS
 62
    3
 10
1062.2204
 20
2170.8104
 11
1066.3017
 21
2166.6574
  0
LINE
  8
1-2
  6
CONTINUOUS
 62
    3
 10
1066.3017
 20
2166.6574
 11
1070.6181
 21
2162.443
  0
LINE
  8
1-2
  6
CONTINUOUS
 62
    3
 10
1070.6181
 20
2162.443
 11
1075.1192
 21
2158.2078
  0
LINE
  8
1-2
  6
CONTINUOUS
 62
    3
 10
1075.1192
 20
2158.2078
 11
1079.7595
 21
2153.989
  0
LINE
  8
1-2
  6
CONTINUOUS
 62
    3
 10
1079.7595
 20
2153.989
 11
1084.497
 21
2149.8196
  0
LINE
  8
1-2
  6
CONTINUOUS
 62
    3
 10
1084.497
 20
2149.8196
 11
1089.2909
 21
2145.7304
  0
LINE
  8
1-2
  6
CONTINUOUS
 62
    3
 10
1089.2909
 20
2145.7304
 11
1094.1048
 21
2141.7498
  0
LINE
  8
1-2
  6
CONTINUOUS
 62
    3
 10
1094.1048
 20
2141.7498
 11
1098.9059
 21
2137.9009
  0
LINE
  8
1-2
  6
CONTINUOUS
 62
    3
 10
1098.9059
 20
2137.9009
 11
1103.6636
 21
2134.2069
  0
LINE
  8
1-2
  6
CONTINUOUS
 62
    3
 10
1103.6636
 20
2134.2069
 11
1108.3516
 21
2130.6831
  0
LINE
  8
1-2
  6
CONTINUOUS
 62
    3
 10
1108.3516
 20
2130.6831
 11
1112.9456
 21
2127.3476
  0
LINE
  8
1-2
  6
CONTINUOUS
 62
    3
 10
1112.9456
 20
2127.3476
 11
1117.4248
 21
2124.2096
  0
LINE
  8
1-2
  6
CONTINUOUS
 62
    3
 10
1117.4248
 20
2124.2096
 11
1121.7725
 21
2121.2786
  0
LINE
  8
1-2
  6
CONTINUOUS
 62
    3
 10
1121.7725
 20
2121.2786
 11
1125.9733
 21
2118.56
  0
LINE
  8
1-2
  6
CONTINUOUS
 62
    3
 10
1125.9733
 20
2118.56
 11
1130.017
 21
2116.0559
  0
LINE
  8
1-2
  6
CONTINUOUS
 62
    3
 10
1130.017
 20
2116.0559
 11
1133.8951
 21
2113.7661
  0
LINE
  8
1-2
  6
CONTINUOUS
 62
    3
 10
1133.8951
 20
2113.7661
 11
1137.603
 21
2111.6861
  0
LINE
  8
1-2
  6
CONTINUOUS
 62
    3
 10
1137.603
 20
2111.6861
 11
1137.8757
 21
2111.5669
  0
LINE
  8
1-2
  6
CONTINUOUS
 62
    3
 10
1137.8757
 20
2111.5669
 11
1138.1456
 21
2111.4531
  0
LINE
  8
1-2
  6
CONTINUOUS
 62
    3
 10
1138.1456
 20
2111.4531
 11
1138.4136
 21
2111.3452
  0
LINE
  8
1-2
  6
CONTINUOUS
 62
    3
 10
1138.4136
 20
2111.3452
 11
1138.6779
 21
2111.243
  0
LINE
  8
1-2
  6
CONTINUOUS
 62
    3
 10
1138.6779
 20
2111.243
 11
1138.9401
 21
2111.1462
  0
LINE
  8
1-2
  6
CONTINUOUS
 62
    3
 10
1138.9401
 20
2111.1462
 11
1139.199
 21
2111.0552
  0
LINE
  8
1-2
  6
CONTINUOUS
 62
    3
 10
1139.199
 20
2111.0552
 11
1139.4556
 21
2110.9696
  0
LINE
  8
1-2
  6
CONTINUOUS
 62
    3
 10
1139.4556
 20
2110.9696
 11
1139.7092
 21
2110.8901
  0
LINE
  8
1-2
  6
CONTINUOUS
 62
    3
 10
1139.7092
 20
2110.8901
 11
1139.9596
 21
2110.8157
  0
LINE
  8
1-2
  6
CONTINUOUS
 62
    3
 10
1054.9729
 20
2178.7572
 11
1057.0141
 21
2179.7707
  0
LINE
  8
1-2
  6
CONTINUOUS
 62
    3
 10
1057.0141
 20
2179.7707
 11
1058.8365
 21
2180.8357
  0
LINE
  8
1-2
  6
CONTINUOUS
 62
    3
 10
1058.8365
 20
2180.8357
 11
1060.4406
 21
2181.9506
  0
LINE
  8
1-2
  6
CONTINUOUS
 62
    3
 10
1060.4406
 20
2181.9506
 11
1061.8265
 21
2183.1166
  0
LINE
  8
1-2
  6
CONTINUOUS
 62
    3
 10
1061.8265
 20
2183.1166
 11
1062.9939
 21
2184.3335
  0
LINE
  8
1-2
  6
CONTINUOUS
 62
    3
 10
1062.9939
 20
2184.3335
 11
1063.9426
 21
2185.6009
  0
LINE
  8
1-2
  6
CONTINUOUS
 62
    3
 10
1063.9426
 20
2185.6009
 11
1064.6731
 21
2186.9192
  0
LINE
  8
1-2
  6
CONTINUOUS
 62
    3
 10
1064.6731
 20
2186.9192
 11
1065.1848
 21
2188.2881
  0
LINE
  8
1-2
  6
CONTINUOUS
 62
    3
 10
1065.1848
 20
2188.2881
 11
1065.4787
 21
2189.7084
  0
LINE
  8
1-2
  6
CONTINUOUS
 62
    3
 10
1065.4802
 20
2153.6668
 11
1065.4802
 21
2167.494
  0
LINE
  8
1-2
  6
CONTINUOUS
 62
    3
 10
1142.8923
 20
2205.1155
 11
1131.1547
 21
2230.9853
  0
LINE
  8
1-2
  6
CONTINUOUS
 62
    3
 10
1119.84
 20
2034.3831
 11
1049.9999
 21
2034.3831
  0
LINE
  8
1-2
  6
CONTINUOUS
 62
    3
 10
1131.5145
 20
2046.0579
 11
1131.5145
 21
2061.3398
  0
LINE
  8
1-2
  6
CONTINUOUS
 62
    3
 10
1114.0029
 20
2023.8862
 11
1049.9999
 21
2023.8862
  0
LINE
  8
1-2
  6
CONTINUOUS
 62
    3
 10
1119.84
 20
2029.7236
 11
1119.84
 21
2034.3831
  0
LINE
  8
1-2
  6
CONTINUOUS
 62
    3
 10
1105.5464
 20
2132.7918
 11
1049.9999
 21
2132.7918
  0
LINE
  8
1-2
  6
CONTINUOUS
 62
    3
 10
1131.5145
 20
2080.8042
 11
1131.5145
 21
2115.1716
  0
LINE
  8
1-2
  6
CONTINUOUS
 62
    3
 10
745.00014
 20
2053.3687
 11
1049.9999
 21
2053.3687
  0
LINE
  8
1-2
  6
CONTINUOUS
 62
    3
 10
745.00014
 20
2066.3687
 11
1049.9999
 21
2066.3687
  0
LINE
  8
1-2
  6
CONTINUOUS
 62
    3
 10
1355.0002
 20
2053.3687
 11
1355.0002
 21
1981.0346
  0
LINE
  8
1-2
  6
CONTINUOUS
 62
    3
 10
1423.3336
 20
1981.0346
 11
1355.0002
 21
2020.4869
  0
LINE
  8
1-2
  6
CONTINUOUS
 62
    3
 10
564.66846
 20
2379.6689
 11
1049.9999
 21
2491.0347
  0
LINE
  8
1-2
  6
CONTINUOUS
 62
    3
 10
1535.3323
 20
2379.6689
 11
1049.9999
 21
2491.0347
  0
LINE
  8
1-2
  6
CONTINUOUS
 62
    3
 10
583.33483
 20
2384.3683
 11
583.33483
 21
2259.7014
  0
LINE
  8
1-2
  6
CONTINUOUS
 62
    3
 10
1516.6665
 20
2384.3683
 11
1516.6665
 21
2259.7014
  0
LINE
  8
1-2
  6
CONTINUOUS
 62
    3
 10
583.33483
 20
2246.7019
 11
583.33483
 21
2207.7017
  0
LINE
  8
1-2
  6
CONTINUOUS
 62
    3
 10
583.33483
 20
2194.702
 11
583.33483
 21
2164.3681
  0
LINE
  8
1-2
  6
CONTINUOUS
 62
    3
 10
1516.6665
 20
2246.7019
 11
1516.6665
 21
2207.7017
  0
LINE
  8
1-2
  6
CONTINUOUS
 62
    3
 10
1516.6655
 20
2194.702
 11
1516.6655
 21
2164.3681
  0
LINE
  8
1-2
  6
CONTINUOUS
 62
    3
 10
583.33483
 20
2384.3683
 11
1049.9999
 21
2384.3683
  0
LINE
  8
1-2
  6
CONTINUOUS
 62
    3
 10
1355.0002
 20
2164.3681
 11
1516.6665
 21
2164.3681
  0
LINE
  8
1-2
  6
CONTINUOUS
 62
    3
 10
1355.0002
 20
2194.702
 11
1516.6665
 21
2194.702
  0
LINE
  8
1-2
  6
CONTINUOUS
 62
    3
 10
1355.0002
 20
2207.7017
 11
1516.6665
 21
2207.7017
  0
LINE
  8
1-2
  6
CONTINUOUS
 62
    3
 10
1355.0002
 20
2246.7019
 11
1516.6665
 21
2246.7019
  0
LINE
  8
1-2
  6
CONTINUOUS
 62
    3
 10
1355.0002
 20
2259.7014
 11
1516.6665
 21
2259.7014
  0
LINE
  8
1-2
  6
CONTINUOUS
 62
    3
 10
583.33483
 20
2164.3681
 11
1049.9999
 21
2164.3681
  0
LINE
  8
1-2
  6
CONTINUOUS
 62
    3
 10
583.33483
 20
2194.702
 11
1049.9999
 21
2194.702
  0
LINE
  8
1-2
  6
CONTINUOUS
 62
    3
 10
583.33483
 20
2207.7017
 11
1049.9999
 21
2207.7017
  0
LINE
  8
1-2
  6
CONTINUOUS
 62
    3
 10
583.33483
 20
2246.7019
 11
1049.9999
 21
2246.7019
  0
LINE
  8
1-2
  6
CONTINUOUS
 62
    3
 10
583.33483
 20
2259.7014
 11
1049.9999
 21
2259.7014
  0
LINE
  8
1-8
  6
CONTINUOUS
 62
    7
 10
1553.6721
 20
2164.3681
 11
1808.8795
 21
2164.3681
  0
LINE
  8
1-8
  6
CONTINUOUS
 62
    7
 10
1808.8795
 20
2164.3681
 11
1808.8795
 21
2384.3683
  0
LINE
  8
1-8
  6
CONTINUOUS
 62
    7
 10
1553.6721
 20
2384.3683
 11
1808.8795
 21
2384.3683
  0
LINE
  8
1-8
  6
CONTINUOUS
 62
    7
 10
1808.8795
 20
2384.3683
 11
1808.8795
 21
2491.0347
  0
LINE
  8
1-8
  6
CONTINUOUS
 62
    7
 10
1553.6721
 20
2491.0347
 11
1808.8795
 21
2491.0347
  0
LINE
  8
1-8
  6
CONTINUOUS
 62
    7
 10
818.91908
 20
2491.0347
 11
325.51672
 21
2491.0347
  0
LINE
  8
1-2
  6
CONTINUOUS
 62
    3
 10
1131.5145
 20
2066.3687
 11
1355.0002
 21
2066.3687
  0
LINE
  8
1-2
  6
CONTINUOUS
 62
    3
 10
1131.5145
 20
2053.3687
 11
1355.0002
 21
2053.3687
  0
LINE
  8
1-2
  6
CONTINUOUS
 62
    3
 10
745.00014
 20
2164.3681
 11
745.00014
 21
2066.3687
  0
LINE
  8
1-8
  6
CONTINUOUS
 62
    7
 10
1808.8795
 20
1941.0347
 11
1808.8795
 21
1981.0346
  0
LINE
  8
1-8
  6
CONTINUOUS
 62
    7
 10
1553.6721
 20
1941.0347
 11
1808.8795
 21
1941.0347
  0
LINE
  8
1-8
  6
CONTINUOUS
 62
    7
 10
1553.6721
 20
1981.0346
 11
1808.8795
 21
1981.0346
  0
LINE
  8
1-8
  6
CONTINUOUS
 62
    7
 10
1808.8795
 20
1981.0346
 11
1808.8795
 21
2164.3681
  0
LINE
  8
1-2
  6
CONTINUOUS
 62
    3
 10
1355.0002
 20
2292.2984
 11
1049.9999
 21
2292.2984
  0
LINE
  8
1-2
  6
CONTINUOUS
 62
    3
 10
1252.5173
 20
2442.1341
 11
1049.9999
 21
2442.1341
  0
LINE
  8
1-2
  6
CONTINUOUS
 62
    3
 10
1355.0002
 20
2292.2984
 11
1355.0002
 21
2307.369
  0
LINE
  8
1-2
  6
CONTINUOUS
 62
    7
 10
1459.4594
 20
1981.0346
 11
1459.4594
 21
2307.369
  0
LINE
  8
1-2
  6
CONTINUOUS
 62
    7
 10
1379.5902
 20
1981.0346
 11
1459.4594
 21
1981.0346
  0
LINE
  8
1-2
  6
CONTINUOUS
 62
    7
 10
1379.5902
 20
2307.369
 11
1459.4594
 21
2307.369
  0
LINE
  8
1-2
  6
CONTINUOUS
 62
    3
 10
1355.0002
 20
2280.3377
 11
1355.0002
 21
2066.3687
  0
LINE
  8
1-2
  6
CONTINUOUS
 62
    3
 10
1355.0002
 20
2280.3377
 11
1278.3012
 21
2280.3377
  0
LINE
  8
1-2
  6
CONTINUOUS
 62
    3
 10
1130.3827
 20
2280.3377
 11
1049.9999
 21
2280.3377
  0
LINE
  8
1-2
  6
CONTINUOUS
 62
    3
 10
1355.0002
 20
2292.2987
 11
1355.0002
 21
2307.369
  0
LINE
  8
1-2
  6
CONTINUOUS
 62
    3
 10
1049.9999
 20
2307.369
 11
1355.0002
 21
2307.369
  0
LINE
  8
1-4
  6
CONTINUOUS
 62
    3
 10
1355.0002
 20
2421.0485
 11
1050
 21
2421.0485
  0
LINE
  8
1-2
  6
CONTINUOUS
 62
    3
 10
1252.5173
 20
2442.1341
 11
1215.996
 21
2421.0485
  0
LINE
  8
1-2
  6
CONTINUOUS
 62
    3
 10
1355.0002
 20
2384.3683
 11
1516.6665
 21
2384.3683
  0
LINE
  8
1-4
  6
CONTINUOUS
 62
    3
 10
1355.0002
 20
2307.369
 11
1355.0002
 21
2421.0485
  0
LINE
  8
1-4
  6
CONTINUOUS
 62
    4
 10
1355.0002
 20
2416.0485
 11
1050
 21
2416.0485
  0
LINE
  8
1-4
  6
CONTINUOUS
 62
    4
 10
1355.0002
 20
2411.0485
 11
1050
 21
2411.0485
  0
LINE
  8
1-4
  6
CONTINUOUS
 62
    4
 10
1355.0002
 20
2406.0485
 11
1050
 21
2406.0485
  0
LINE
  8
1-4
  6
CONTINUOUS
 62
    4
 10
1355.0002
 20
2401.0485
 11
1050
 21
2401.0485
  0
LINE
  8
1-4
  6
CONTINUOUS
 62
    4
 10
1355.0002
 20
2396.0485
 11
1050
 21
2396.0485
  0
LINE
  8
1-4
  6
CONTINUOUS
 62
    4
 10
1355.0002
 20
2391.0484
 11
1050
 21
2391.0484
  0
LINE
  8
1-4
  6
CONTINUOUS
 62
    4
 10
1350.0001
 20
2307.369
 11
1350.0001
 21
2421.0485
  0
LINE
  8
1-4
  6
CONTINUOUS
 62
    4
 10
1345.0001
 20
2307.369
 11
1345.0001
 21
2421.0485
  0
LINE
  8
1-4
  6
CONTINUOUS
 62
    4
 10
1340.0001
 20
2307.369
 11
1340.0001
 21
2421.0485
  0
LINE
  8
1-4
  6
CONTINUOUS
 62
    4
 10
1335.0002
 20
2307.369
 11
1335.0002
 21
2421.0485
  0
LINE
  8
1-4
  6
CONTINUOUS
 62
    4
 10
1330.0002
 20
2307.369
 11
1330.0002
 21
2421.0485
  0
LINE
  8
1-4
  6
CONTINUOUS
 62
    4
 10
1325.0002
 20
2307.369
 11
1325.0002
 21
2421.0485
  0
LINE
  8
1-4
  6
CONTINUOUS
 62
    4
 10
1355.0002
 20
2386.0484
 11
1050
 21
2386.0484
  0
LINE
  8
1-4
  6
CONTINUOUS
 62
    4
 10
1355.0002
 20
2381.0484
 11
1050
 21
2381.0484
  0
LINE
  8
1-4
  6
CONTINUOUS
 62
    4
 10
1355.0002
 20
2376.0484
 11
1050
 21
2376.0484
  0
LINE
  8
1-4
  6
CONTINUOUS
 62
    4
 10
1355.0002
 20
2371.0484
 11
1050
 21
2371.0484
  0
LINE
  8
1-4
  6
CONTINUOUS
 62
    4
 10
1355.0002
 20
2366.0484
 11
1050
 21
2366.0484
  0
LINE
  8
1-4
  6
CONTINUOUS
 62
    4
 10
1355.0002
 20
2361.0483
 11
1050
 21
2361.0483
  0
LINE
  8
1-4
  6
CONTINUOUS
 62
    4
 10
1355.0002
 20
2356.0483
 11
1050
 21
2356.0483
  0
LINE
  8
1-4
  6
CONTINUOUS
 62
    4
 10
1355.0002
 20
2351.0483
 11
1050
 21
2351.0483
  0
LINE
  8
1-4
  6
CONTINUOUS
 62
    4
 10
1355.0002
 20
2346.0483
 11
1050
 21
2346.0483
  0
LINE
  8
1-4
  6
CONTINUOUS
 62
    4
 10
1355.0002
 20
2341.0483
 11
1050
 21
2341.0483
  0
LINE
  8
1-4
  6
CONTINUOUS
 62
    4
 10
1355.0002
 20
2336.0483
 11
1050
 21
2336.0483
  0
LINE
  8
1-4
  6
CONTINUOUS
 62
    4
 10
1355.0002
 20
2331.0482
 11
1050
 21
2331.0482
  0
LINE
  8
1-4
  6
CONTINUOUS
 62
    4
 10
1355.0002
 20
2326.0482
 11
1050
 21
2326.0482
  0
LINE
  8
1-4
  6
CONTINUOUS
 62
    4
 10
1355.0002
 20
2321.0482
 11
1050
 21
2321.0482
  0
LINE
  8
1-4
  6
CONTINUOUS
 62
    4
 10
1355.0002
 20
2316.0482
 11
1050
 21
2316.0482
  0
LINE
  8
1-4
  6
CONTINUOUS
 62
    4
 10
1355.0002
 20
2311.0482
 11
1050
 21
2311.0482
  0
LINE
  8
1-4
  6
CONTINUOUS
 62
    4
 10
1320.0002
 20
2307.369
 11
1320.0002
 21
2421.0485
  0
LINE
  8
1-4
  6
CONTINUOUS
 62
    4
 10
1315.0001
 20
2307.369
 11
1315.0001
 21
2421.0485
  0
LINE
  8
1-4
  6
CONTINUOUS
 62
    4
 10
1310.0001
 20
2307.369
 11
1310.0001
 21
2421.0485
  0
LINE
  8
1-4
  6
CONTINUOUS
 62
    4
 10
1305.0002
 20
2307.369
 11
1305.0002
 21
2421.0485
  0
LINE
  8
1-4
  6
CONTINUOUS
 62
    4
 10
1300.0002
 20
2307.369
 11
1300.0002
 21
2421.0485
  0
LINE
  8
1-4
  6
CONTINUOUS
 62
    4
 10
1295.0002
 20
2307.369
 11
1295.0002
 21
2421.0485
  0
LINE
  8
1-4
  6
CONTINUOUS
 62
    4
 10
1290.0002
 20
2307.369
 11
1290.0002
 21
2421.0485
  0
LINE
  8
1-4
  6
CONTINUOUS
 62
    4
 10
1285.0002
 20
2307.369
 11
1285.0002
 21
2421.0485
  0
LINE
  8
1-4
  6
CONTINUOUS
 62
    4
 10
1280.0002
 20
2307.369
 11
1280.0002
 21
2421.0485
  0
LINE
  8
1-4
  6
CONTINUOUS
 62
    4
 10
1275.0003
 20
2307.369
 11
1275.0003
 21
2421.0485
  0
LINE
  8
1-4
  6
CONTINUOUS
 62
    4
 10
1270.0002
 20
2307.369
 11
1270.0002
 21
2421.0485
  0
LINE
  8
1-4
  6
CONTINUOUS
 62
    4
 10
1265.0002
 20
2307.369
 11
1265.0002
 21
2421.0485
  0
LINE
  8
1-4
  6
CONTINUOUS
 62
    4
 10
1260.0002
 20
2307.369
 11
1260.0002
 21
2421.0485
  0
LINE
  8
1-4
  6
CONTINUOUS
 62
    4
 10
1255.0002
 20
2307.369
 11
1255.0002
 21
2421.0485
  0
LINE
  8
1-4
  6
CONTINUOUS
 62
    4
 10
1250.0002
 20
2307.369
 11
1250.0002
 21
2421.0485
  0
LINE
  8
1-4
  6
CONTINUOUS
 62
    4
 10
1245.0003
 20
2307.369
 11
1245.0003
 21
2421.0485
  0
LINE
  8
1-4
  6
CONTINUOUS
 62
    4
 10
1240.0003
 20
2307.369
 11
1240.0003
 21
2421.0485
  0
LINE
  8
1-4
  6
CONTINUOUS
 62
    4
 10
1235.0003
 20
2307.369
 11
1235.0003
 21
2421.0485
  0
LINE
  8
1-4
  6
CONTINUOUS
 62
    4
 10
1230.0002
 20
2307.369
 11
1230.0002
 21
2421.0485
  0
LINE
  8
1-4
  6
CONTINUOUS
 62
    4
 10
1225.0002
 20
2307.369
 11
1225.0002
 21
2421.0485
  0
LINE
  8
1-4
  6
CONTINUOUS
 62
    4
 10
1220.0002
 20
2307.369
 11
1220.0002
 21
2421.0485
  0
LINE
  8
1-4
  6
CONTINUOUS
 62
    4
 10
1215.0003
 20
2307.369
 11
1215.0003
 21
2421.0485
  0
LINE
  8
1-4
  6
CONTINUOUS
 62
    4
 10
1210.0003
 20
2307.369
 11
1210.0003
 21
2421.0485
  0
LINE
  8
1-4
  6
CONTINUOUS
 62
    4
 10
1205.0003
 20
2307.369
 11
1205.0003
 21
2421.0485
  0
LINE
  8
1-4
  6
CONTINUOUS
 62
    4
 10
1200.0003
 20
2307.369
 11
1200.0003
 21
2421.0485
  0
LINE
  8
1-4
  6
CONTINUOUS
 62
    4
 10
1195.0002
 20
2307.369
 11
1195.0002
 21
2421.0485
  0
LINE
  8
1-4
  6
CONTINUOUS
 62
    4
 10
1190.0002
 20
2307.369
 11
1190.0002
 21
2421.0485
  0
LINE
  8
1-4
  6
CONTINUOUS
 62
    4
 10
1185.0003
 20
2307.369
 11
1185.0003
 21
2421.0485
  0
LINE
  8
1-4
  6
CONTINUOUS
 62
    4
 10
1180.0003
 20
2307.369
 11
1180.0003
 21
2421.0485
  0
LINE
  8
1-4
  6
CONTINUOUS
 62
    4
 10
1175.0003
 20
2307.369
 11
1175.0003
 21
2421.0485
  0
LINE
  8
1-4
  6
CONTINUOUS
 62
    4
 10
1170.0003
 20
2307.369
 11
1170.0003
 21
2421.0485
  0
LINE
  8
1-4
  6
CONTINUOUS
 62
    4
 10
1165.0003
 20
2307.369
 11
1165.0003
 21
2421.0485
  0
LINE
  8
1-4
  6
CONTINUOUS
 62
    4
 10
1160.0002
 20
2307.369
 11
1160.0002
 21
2421.0485
  0
LINE
  8
1-4
  6
CONTINUOUS
 62
    4
 10
1155.0004
 20
2307.369
 11
1155.0004
 21
2421.0485
  0
LINE
  8
1-4
  6
CONTINUOUS
 62
    4
 10
1150.0003
 20
2307.369
 11
1150.0003
 21
2421.0485
  0
LINE
  8
1-4
  6
CONTINUOUS
 62
    4
 10
1145.0003
 20
2307.369
 11
1145.0003
 21
2421.0485
  0
LINE
  8
1-4
  6
CONTINUOUS
 62
    4
 10
1140.0003
 20
2307.369
 11
1140.0003
 21
2421.0485
  0
LINE
  8
1-4
  6
CONTINUOUS
 62
    4
 10
1135.0003
 20
2307.369
 11
1135.0003
 21
2421.0485
  0
LINE
  8
1-4
  6
CONTINUOUS
 62
    4
 10
1130.0003
 20
2307.369
 11
1130.0003
 21
2421.0485
  0
LINE
  8
1-4
  6
CONTINUOUS
 62
    4
 10
1125.0004
 20
2307.369
 11
1125.0004
 21
2421.0485
  0
LINE
  8
1-4
  6
CONTINUOUS
 62
    4
 10
1120.0004
 20
2307.369
 11
1120.0004
 21
2421.0485
  0
LINE
  8
1-4
  6
CONTINUOUS
 62
    4
 10
1115.0003
 20
2307.369
 11
1115.0003
 21
2421.0485
  0
LINE
  8
1-4
  6
CONTINUOUS
 62
    4
 10
1110.0003
 20
2307.369
 11
1110.0003
 21
2421.0485
  0
LINE
  8
1-4
  6
CONTINUOUS
 62
    4
 10
1105.0003
 20
2307.369
 11
1105.0003
 21
2421.0485
  0
LINE
  8
1-4
  6
CONTINUOUS
 62
    4
 10
1100.0003
 20
2307.369
 11
1100.0003
 21
2421.0485
  0
LINE
  8
1-4
  6
CONTINUOUS
 62
    4
 10
1095.0004
 20
2307.369
 11
1095.0004
 21
2421.0485
  0
LINE
  8
1-4
  6
CONTINUOUS
 62
    4
 10
1090.0004
 20
2307.369
 11
1090.0004
 21
2421.0485
  0
LINE
  8
1-4
  6
CONTINUOUS
 62
    4
 10
1085.0004
 20
2307.369
 11
1085.0004
 21
2421.0485
  0
LINE
  8
1-4
  6
CONTINUOUS
 62
    4
 10
1080.0004
 20
2307.369
 11
1080.0004
 21
2421.0485
  0
LINE
  8
1-4
  6
CONTINUOUS
 62
    4
 10
1075.0003
 20
2307.369
 11
1075.0003
 21
2421.0485
  0
LINE
  8
1-4
  6
CONTINUOUS
 62
    4
 10
1070.0003
 20
2307.369
 11
1070.0003
 21
2421.0485
  0
LINE
  8
1-4
  6
CONTINUOUS
 62
    4
 10
1065.0004
 20
2307.369
 11
1065.0004
 21
2421.0485
  0
LINE
  8
1-4
  6
CONTINUOUS
 62
    4
 10
1060.0004
 20
2307.369
 11
1060.0004
 21
2421.0485
  0
LINE
  8
1-4
  6
CONTINUOUS
 62
    4
 10
1055.0004
 20
2307.369
 11
1055.0004
 21
2421.0485
  0
LINE
  8
1-1
  6
CENTER2
 62
    7
 10
1050
 20
1847.3486
 11
1050
 21
2586.4866
  0
LINE
  8
1-2
  6
CONTINUOUS
 62
    3
 10
1355.0002
 20
2053.3684
 11
1356.0758
 21
2053.4671
  0
LINE
  8
1-2
  6
CONTINUOUS
 62
    3
 10
1356.0758
 20
2053.4671
 11
1357.1188
 21
2053.7603
  0
LINE
  8
1-2
  6
CONTINUOUS
 62
    3
 10
1357.1188
 20
2053.7603
 11
1358.0974
 21
2054.2392
  0
LINE
  8
1-2
  6
CONTINUOUS
 62
    3
 10
1358.0974
 20
2054.2392
 11
1358.9819
 21
2054.889
  0
LINE
  8
1-2
  6
CONTINUOUS
 62
    3
 10
1358.9819
 20
2054.889
 11
1359.7454
 21
2055.6902
  0
LINE
  8
1-2
  6
CONTINUOUS
 62
    3
 10
1359.7454
 20
2055.6902
 11
1360.3647
 21
2056.6183
  0
LINE
  8
1-2
  6
CONTINUOUS
 62
    3
 10
1360.3647
 20
2056.6183
 11
1360.821
 21
2057.6452
  0
LINE
  8
1-2
  6
CONTINUOUS
 62
    3
 10
1360.821
 20
2057.6452
 11
1361.1005
 21
2058.7396
  0
LINE
  8
1-2
  6
CONTINUOUS
 62
    3
 10
1361.1005
 20
2058.7396
 11
1361.1946
 21
2059.8683
  0
LINE
  8
1-2
  6
CONTINUOUS
 62
    3
 10
1361.1946
 20
2059.8683
 11
1361.1005
 21
2060.997
  0
LINE
  8
1-2
  6
CONTINUOUS
 62
    3
 10
1361.1005
 20
2060.997
 11
1360.821
 21
2062.0914
  0
LINE
  8
1-2
  6
CONTINUOUS
 62
    3
 10
1360.821
 20
2062.0914
 11
1360.3647
 21
2063.1183
  0
LINE
  8
1-2
  6
CONTINUOUS
 62
    3
 10
1360.3647
 20
2063.1183
 11
1359.7454
 21
2064.0464
  0
LINE
  8
1-2
  6
CONTINUOUS
 62
    3
 10
1359.7454
 20
2064.0464
 11
1358.9819
 21
2064.8475
  0
LINE
  8
1-2
  6
CONTINUOUS
 62
    3
 10
1358.9819
 20
2064.8475
 11
1358.0974
 21
2065.4974
  0
LINE
  8
1-2
  6
CONTINUOUS
 62
    3
 10
1358.0974
 20
2065.4974
 11
1357.1188
 21
2065.9762
  0
LINE
  8
1-2
  6
CONTINUOUS
 62
    3
 10
1357.1188
 20
2065.9762
 11
1356.0758
 21
2066.2695
  0
LINE
  8
1-2
  6
CONTINUOUS
 62
    3
 10
1356.0758
 20
2066.2695
 11
1355.0002
 21
2066.3682
  0
LINE
  8
1-2
  6
CONTINUOUS
 62
    3
 10
745.00014
 20
2066.3682
 11
743.92449
 21
2066.2695
  0
LINE
  8
1-2
  6
CONTINUOUS
 62
    3
 10
743.92449
 20
2066.2695
 11
742.88152
 21
2065.9762
  0
LINE
  8
1-2
  6
CONTINUOUS
 62
    3
 10
742.88152
 20
2065.9762
 11
741.90292
 21
2065.4974
  0
LINE
  8
1-2
  6
CONTINUOUS
 62
    3
 10
741.90292
 20
2065.4974
 11
741.01843
 21
2064.8475
  0
LINE
  8
1-2
  6
CONTINUOUS
 62
    3
 10
741.01843
 20
2064.8475
 11
740.25493
 21
2064.0464
  0
LINE
  8
1-2
  6
CONTINUOUS
 62
    3
 10
740.25493
 20
2064.0464
 11
739.6356
 21
2063.1183
  0
LINE
  8
1-2
  6
CONTINUOUS
 62
    3
 10
739.6356
 20
2063.1183
 11
739.17927
 21
2062.0914
  0
LINE
  8
1-2
  6
CONTINUOUS
 62
    3
 10
739.17927
 20
2062.0914
 11
738.89981
 21
2060.997
  0
LINE
  8
1-2
  6
CONTINUOUS
 62
    3
 10
738.89981
 20
2060.997
 11
738.8057
 21
2059.8683
  0
LINE
  8
1-2
  6
CONTINUOUS
 62
    3
 10
738.8057
 20
2059.8683
 11
738.89981
 21
2058.7396
  0
LINE
  8
1-2
  6
CONTINUOUS
 62
    3
 10
738.89981
 20
2058.7396
 11
739.17927
 21
2057.6452
  0
LINE
  8
1-2
  6
CONTINUOUS
 62
    3
 10
739.17927
 20
2057.6452
 11
739.6356
 21
2056.6183
  0
LINE
  8
1-2
  6
CONTINUOUS
 62
    3
 10
739.6356
 20
2056.6183
 11
740.25493
 21
2055.6902
  0
LINE
  8
1-2
  6
CONTINUOUS
 62
    3
 10
740.25493
 20
2055.6902
 11
741.01843
 21
2054.889
  0
LINE
  8
1-2
  6
CONTINUOUS
 62
    3
 10
741.01843
 20
2054.889
 11
741.90292
 21
2054.2392
  0
LINE
  8
1-2
  6
CONTINUOUS
 62
    3
 10
741.90292
 20
2054.2392
 11
742.88152
 21
2053.7603
  0
LINE
  8
1-2
  6
CONTINUOUS
 62
    3
 10
742.88152
 20
2053.7603
 11
743.92449
 21
2053.4671
  0
LINE
  8
1-2
  6
CONTINUOUS
 62
    3
 10
743.92449
 20
2053.4671
 11
745.00014
 21
2053.3684
  0
ARC
  8
1-2
  6
CONTINUOUS
 62
    3
 10
1059.5199
 20
2153.6668
 40
5.9604153
 50
270
 51
0
  0
ARC
  8
1-2
  6
CONTINUOUS
 62
    3
 10
1059.5199
 20
2233.3268
 40
5.9604153
 50
0
 51
90
  0
ARC
  8
1-2
  6
CONTINUOUS
 62
    3
 10
1119.84
 20
2046.0579
 40
11.67452
 50
270
 51
0
  0
ARC
  8
1-2
  6
CONTINUOUS
 62
    3
 10
1114.0029
 20
2029.7236
 40
5.8372603
 50
270
 51
0
  0
LINE
  8
1-2
  6
CONTINUOUS
 62
    3
 10
1516.6665
 20
2246.702
 11
1517.7421
 21
2246.8008
  0
LINE
  8
1-2
  6
CONTINUOUS
 62
    3
 10
1517.7421
 20
2246.8008
 11
1518.7851
 21
2247.094
  0
LINE
  8
1-2
  6
CONTINUOUS
 62
    3
 10
1518.7851
 20
2247.094
 11
1519.7637
 21
2247.5728
  0
LINE
  8
1-2
  6
CONTINUOUS
 62
    3
 10
1519.7637
 20
2247.5728
 11
1520.6482
 21
2248.2227
  0
LINE
  8
1-2
  6
CONTINUOUS
 62
    3
 10
1520.6482
 20
2248.2227
 11
1521.4117
 21
2249.0239
  0
LINE
  8
1-2
  6
CONTINUOUS
 62
    3
 10
1521.4117
 20
2249.0239
 11
1522.031
 21
2249.952
  0
LINE
  8
1-2
  6
CONTINUOUS
 62
    3
 10
1522.031
 20
2249.952
 11
1522.4873
 21
2250.9788
  0
LINE
  8
1-2
  6
CONTINUOUS
 62
    3
 10
1522.4873
 20
2250.9788
 11
1522.7668
 21
2252.0732
  0
LINE
  8
1-2
  6
CONTINUOUS
 62
    3
 10
1522.7668
 20
2252.0732
 11
1522.8609
 21
2253.2019
  0
LINE
  8
1-2
  6
CONTINUOUS
 62
    3
 10
1522.8609
 20
2253.2019
 11
1522.7668
 21
2254.3306
  0
LINE
  8
1-2
  6
CONTINUOUS
 62
    3
 10
1522.7668
 20
2254.3306
 11
1522.4873
 21
2255.425
  0
LINE
  8
1-2
  6
CONTINUOUS
 62
    3
 10
1522.4873
 20
2255.425
 11
1522.031
 21
2256.4519
  0
LINE
  8
1-2
  6
CONTINUOUS
 62
    3
 10
1522.031
 20
2256.4519
 11
1521.4117
 21
2257.38
  0
LINE
  8
1-2
  6
CONTINUOUS
 62
    3
 10
1521.4117
 20
2257.38
 11
1520.6482
 21
2258.1812
  0
LINE
  8
1-2
  6
CONTINUOUS
 62
    3
 10
1520.6482
 20
2258.1812
 11
1519.7637
 21
2258.831
  0
LINE
  8
1-2
  6
CONTINUOUS
 62
    3
 10
1519.7637
 20
2258.831
 11
1518.7851
 21
2259.3099
  0
LINE
  8
1-2
  6
CONTINUOUS
 62
    3
 10
1518.7851
 20
2259.3099
 11
1517.7421
 21
2259.6031
  0
LINE
  8
1-2
  6
CONTINUOUS
 62
    3
 10
1517.7421
 20
2259.6031
 11
1516.6665
 21
2259.7019
  0
LINE
  8
1-2
  6
CONTINUOUS
 62
    3
 10
1516.6665
 20
2194.702
 11
1517.7421
 21
2194.8008
  0
LINE
  8
1-2
  6
CONTINUOUS
 62
    3
 10
1517.7421
 20
2194.8008
 11
1518.7851
 21
2195.094
  0
LINE
  8
1-2
  6
CONTINUOUS
 62
    3
 10
1518.7851
 20
2195.094
 11
1519.7637
 21
2195.5729
  0
LINE
  8
1-2
  6
CONTINUOUS
 62
    3
 10
1519.7637
 20
2195.5729
 11
1520.6482
 21
2196.2227
  0
LINE
  8
1-2
  6
CONTINUOUS
 62
    3
 10
1520.6482
 20
2196.2227
 11
1521.4117
 21
2197.0239
  0
LINE
  8
1-2
  6
CONTINUOUS
 62
    3
 10
1521.4117
 20
2197.0239
 11
1522.031
 21
2197.952
  0
LINE
  8
1-2
  6
CONTINUOUS
 62
    3
 10
1522.031
 20
2197.952
 11
1522.4873
 21
2198.9789
  0
LINE
  8
1-2
  6
CONTINUOUS
 62
    3
 10
1522.4873
 20
2198.9789
 11
1522.7668
 21
2200.0733
  0
LINE
  8
1-2
  6
CONTINUOUS
 62
    3
 10
1522.7668
 20
2200.0733
 11
1522.8609
 21
2201.202
  0
LINE
  8
1-2
  6
CONTINUOUS
 62
    3
 10
1522.8609
 20
2201.202
 11
1522.7668
 21
2202.3307
  0
LINE
  8
1-2
  6
CONTINUOUS
 62
    3
 10
1522.7668
 20
2202.3307
 11
1522.4873
 21
2203.4251
  0
LINE
  8
1-2
  6
CONTINUOUS
 62
    3
 10
1522.4873
 20
2203.4251
 11
1522.031
 21
2204.4519
  0
LINE
  8
1-2
  6
CONTINUOUS
 62
    3
 10
1522.031
 20
2204.4519
 11
1521.4117
 21
2205.38
  0
LINE
  8
1-2
  6
CONTINUOUS
 62
    3
 10
1521.4117
 20
2205.38
 11
1520.6482
 21
2206.1812
  0
LINE
  8
1-2
  6
CONTINUOUS
 62
    3
 10
1520.6482
 20
2206.1812
 11
1519.7637
 21
2206.8311
  0
LINE
  8
1-2
  6
CONTINUOUS
 62
    3
 10
1519.7637
 20
2206.8311
 11
1518.7851
 21
2207.3099
  0
LINE
  8
1-2
  6
CONTINUOUS
 62
    3
 10
1518.7851
 20
2207.3099
 11
1517.7421
 21
2207.6031
  0
LINE
  8
1-2
  6
CONTINUOUS
 62
    3
 10
1517.7421
 20
2207.6031
 11
1516.6665
 21
2207.7019
  0
LINE
  8
1-2
  6
CONTINUOUS
 62
    3
 10
583.33483
 20
2259.7019
 11
582.25918
 21
2259.6031
  0
LINE
  8
1-2
  6
CONTINUOUS
 62
    3
 10
582.25918
 20
2259.6031
 11
581.21621
 21
2259.3099
  0
LINE
  8
1-2
  6
CONTINUOUS
 62
    3
 10
581.21621
 20
2259.3099
 11
580.23761
 21
2258.831
  0
LINE
  8
1-2
  6
CONTINUOUS
 62
    3
 10
580.23761
 20
2258.831
 11
579.35312
 21
2258.1812
  0
LINE
  8
1-2
  6
CONTINUOUS
 62
    3
 10
579.35312
 20
2258.1812
 11
578.58961
 21
2257.38
  0
LINE
  8
1-2
  6
CONTINUOUS
 62
    3
 10
578.58961
 20
2257.38
 11
577.97029
 21
2256.4519
  0
LINE
  8
1-2
  6
CONTINUOUS
 62
    3
 10
577.97029
 20
2256.4519
 11
577.51396
 21
2255.425
  0
LINE
  8
1-2
  6
CONTINUOUS
 62
    3
 10
577.51396
 20
2255.425
 11
577.2345
 21
2254.3306
  0
LINE
  8
1-2
  6
CONTINUOUS
 62
    3
 10
577.2345
 20
2254.3306
 11
577.14039
 21
2253.2019
  0
LINE
  8
1-2
  6
CONTINUOUS
 62
    3
 10
577.14039
 20
2253.2019
 11
577.2345
 21
2252.0732
  0
LINE
  8
1-2
  6
CONTINUOUS
 62
    3
 10
577.2345
 20
2252.0732
 11
577.51396
 21
2250.9788
  0
LINE
  8
1-2
  6
CONTINUOUS
 62
    3
 10
577.51396
 20
2250.9788
 11
577.97029
 21
2249.952
  0
LINE
  8
1-2
  6
CONTINUOUS
 62
    3
 10
577.97029
 20
2249.952
 11
578.58961
 21
2249.0239
  0
LINE
  8
1-2
  6
CONTINUOUS
 62
    3
 10
578.58961
 20
2249.0239
 11
579.35312
 21
2248.2227
  0
LINE
  8
1-2
  6
CONTINUOUS
 62
    3
 10
579.35312
 20
2248.2227
 11
580.23761
 21
2247.5728
  0
LINE
  8
1-2
  6
CONTINUOUS
 62
    3
 10
580.23761
 20
2247.5728
 11
581.21621
 21
2247.094
  0
LINE
  8
1-2
  6
CONTINUOUS
 62
    3
 10
581.21621
 20
2247.094
 11
582.25918
 21
2246.8008
  0
LINE
  8
1-2
  6
CONTINUOUS
 62
    3
 10
582.25918
 20
2246.8008
 11
583.33483
 21
2246.702
  0
LINE
  8
1-2
  6
CONTINUOUS
 62
    3
 10
583.33483
 20
2207.7019
 11
582.25918
 21
2207.6031
  0
LINE
  8
1-2
  6
CONTINUOUS
 62
    3
 10
582.25918
 20
2207.6031
 11
581.21621
 21
2207.3099
  0
LINE
  8
1-2
  6
CONTINUOUS
 62
    3
 10
581.21621
 20
2207.3099
 11
580.23761
 21
2206.8311
  0
LINE
  8
1-2
  6
CONTINUOUS
 62
    3
 10
580.23761
 20
2206.8311
 11
579.35312
 21
2206.1812
  0
LINE
  8
1-2
  6
CONTINUOUS
 62
    3
 10
579.35312
 20
2206.1812
 11
578.58961
 21
2205.38
  0
LINE
  8
1-2
  6
CONTINUOUS
 62
    3
 10
578.58961
 20
2205.38
 11
577.97029
 21
2204.4519
  0
LINE
  8
1-2
  6
CONTINUOUS
 62
    3
 10
577.97029
 20
2204.4519
 11
577.51396
 21
2203.4251
  0
LINE
  8
1-2
  6
CONTINUOUS
 62
    3
 10
577.51396
 20
2203.4251
 11
577.2345
 21
2202.3307
  0
LINE
  8
1-2
  6
CONTINUOUS
 62
    3
 10
577.2345
 20
2202.3307
 11
577.14039
 21
2201.202
  0
LINE
  8
1-2
  6
CONTINUOUS
 62
    3
 10
577.14039
 20
2201.202
 11
577.2345
 21
2200.0733
  0
LINE
  8
1-2
  6
CONTINUOUS
 62
    3
 10
577.2345
 20
2200.0733
 11
577.51396
 21
2198.9789
  0
LINE
  8
1-2
  6
CONTINUOUS
 62
    3
 10
577.51396
 20
2198.9789
 11
577.97029
 21
2197.952
  0
LINE
  8
1-2
  6
CONTINUOUS
 62
    3
 10
577.97029
 20
2197.952
 11
578.58961
 21
2197.0239
  0
LINE
  8
1-2
  6
CONTINUOUS
 62
    3
 10
578.58961
 20
2197.0239
 11
579.35312
 21
2196.2227
  0
LINE
  8
1-2
  6
CONTINUOUS
 62
    3
 10
579.35312
 20
2196.2227
 11
580.23761
 21
2195.5729
  0
LINE
  8
1-2
  6
CONTINUOUS
 62
    3
 10
580.23761
 20
2195.5729
 11
581.21621
 21
2195.094
  0
LINE
  8
1-2
  6
CONTINUOUS
 62
    3
 10
581.21621
 20
2195.094
 11
582.25918
 21
2194.8008
  0
LINE
  8
1-2
  6
CONTINUOUS
 62
    3
 10
582.25918
 20
2194.8008
 11
583.33483
 21
2194.702
  0
ARC
  8
1-2
  6
CONTINUOUS
 62
    3
 10
1355.0002
 20
2286.3183
 40
5.9804101
 50
270
 51
90
  0
TEXT
  8
1-d
 10
254.9998
 20
97.49997
 40
25
 41
1
 50
0
  1
番
  0
TEXT
  8
1-d
 10
655.00046
 20
157.4999
 40
25
 41
1
 50
0
  1
承
  0
TEXT
  8
1-d
 10
655.00046
 20
97.49997
 40
25
 41
1
 50
0
  1
認
  0
TEXT
  8
1-d
 10
1020.0003
 20
237.49996
 40
25
 41
1
 50
0
  1
尺
  0
TEXT
  8
1-d
 10
1020.0003
 20
197.49979
 40
25
 41
1
 50
0.0000762
  1
度
  0
TEXT
  8
1-d
 10
855.00014
 20
157.4999
 40
25
 41
1
 50
0
  1
製
  0
TEXT
  8
1-d
 10
855.00014
 20
97.49997
 40
25
 41
1
 50
0
  1
図
  0
TEXT
  8
1-d
 10
1555.0001
 20
237.49996
 40
25
 41
1
 50
0
  1
日
  0
TEXT
  8
1-d
 10
1555.0001
 20
197.49979
 40
25
 41
1
 50
0.0000762
  1
付
  0
TEXT
  8
1-d
 10
1111.4263
 20
163.48226
 40
20
 41
1
 50
0
  1
株式
  0
TEXT
  8
1-d
 10
1111.4263
 20
141.85181
 40
20
 41
1
 50
0.0000152
  1
会社
  0
TEXT
  8
1-d
 10
1174.2247
 20
143.24712
 40
40
 41
1
 50
0
  1
スズキベンチレーター
  0
TEXT
  8
1-d
 10
1237.9182
 20
94.024183
 40
20
 41
1
 50
0
  1
TEL(054)296-7000  FAX(054)296-7001
  0
TEXT
  8
1-d
 10
1084.349
 20
210.10066
 40
40
 41
1
 50
0
  1
１／１５
  0
TEXT
  8
1-8
 10
1002.2974
 20
2668.063
 40
30
 41
1
 50
0
  1
1,400
  0
TEXT
  8
1-8
 10
280.08887
 20
2186.117
 40
30
 41
1
 50
90
  1
825
  0
TEXT
  8
1-8
 10
1798.8795
 20
2262.2855
 40
30
 41
1
 50
90
  1
330
  0
TEXT
  8
1-8
 10
1798.8795
 20
2413.4516
 40
30
 41
1
 50
90
  1
160
  0
TEXT
  8
1-8
 10
1798.8795
 20
1947.2848
 40
30
 41
1
 50
90
  1
60
  0
TEXT
  8
1-8
 10
1798.8795
 20
2051.4515
 40
30
 41
1
 50
90
  1
275
  0
TEXT
  8
1-2
 10
1449.4593
 20
2133.6187
 40
30
 41
1
 50
90
  1
490
  0
TEXT
  8
1-8
 10
961.31848
 20
1791.3248
 40
30
 41
1
 50
0
  1
1,120x1,120
  0
TEXT
  8
1-d
 10
254.9998
 20
157.4999
 40
25
 41
1
 50
0
  1
図
  0
TEXT
  8
1-d
 10
264.45945
 20
2794.1893
 40
50
 41
1
 50
0
  1
ＳＴ－９０　架台型（網付）断面
  0
TEXT
  8
1-2
 10
288.61159
 20
209.0488
 40
40
 41
1
 50
0
  1
ＳＴ－９０　架台型（網付）断面
  0
TEXT
  8
1-d
 10
308.45927
 20
140.30214
 40
30
 41
1
 50
0
  1
90-F05b
  0
TEXT
  8
1-d
 10
1235.6794
 20
118.64593
 40
20
 41
1
 50
0
  1
〒421-2114　静岡市葵区安倍口新田１５２番地
  0
POINT
  8
1-8
 62
    2
 10
325.51659
 20
1941.0347
  0
POINT
  8
1-8
 62
    2
 10
325.51672
 20
2491.0347
  0
POINT
  8
1-8
 62
    2
 10
583.33483
 20
2650.5285
  0
POINT
  8
1-8
 62
    2
 10
1516.6665
 20
2650.5285
  0
POINT
  8
1-8
 62
    2
 10
676.66666
 20
1783.1574
  0
POINT
  8
1-8
 62
    2
 10
1423.3336
 20
1783.1574
  0
POINT
  8
1-8
 62
    2
 10
1808.8795
 20
2164.3681
  0
POINT
  8
1-8
 62
    2
 10
1808.8795
 20
2384.3683
  0
POINT
  8
1-8
 62
    2
 10
1808.8795
 20
2491.0347
  0
POINT
  8
1-8
 62
    2
 10
1808.8795
 20
1941.0347
  0
POINT
  8
1-8
 62
    2
 10
1808.8795
 20
1981.0346
  0
POINT
  8
1-2
 62
    2
 10
1459.4594
 20
1981.0346
  0
POINT
  8
1-2
 62
    2
 10
1459.4594
 20
2307.369
  0
ENDSEC
  0
EOF
