  0
SECTION
  2
HEADER
  9
$EXTMIN
 10
0
 20
0
  9
$EXTMAX
 10
4200
 20
2970
  0
ENDSEC
  0
SECTION
  2
TABLES
  0
TABLE
  2
LTYPE
 70
     9
  0
LTYPE
  2
CONTINUOUS
 70
    64
  3
実線
 72
    65
 73
     0
 40
0.0
  0
LTYPE
  2
DASHED1
 70
    64
  3
--  --  --  --  --  --  --  --  
 72
    65
 73
     2
 40
2.5
 49
1.25
 49
-1.25
  0
LTYPE
  2
DASHED2
 70
    64
  3
----    ----    ----    ----    
 72
    65
 73
     2
 40
5.0
 49
2.5
 49
-2.5
  0
LTYPE
  2
DASHED3
 70
    64
  3
------  ------  ------  ------  
 72
    65
 73
     2
 40
5.0
 49
3.75
 49
-1.25
  0
LTYPE
  2
CENTER1
 70
    64
  3
----- - ----- - ----- - ----- - 
 72
    65
 73
     4
 40
10.0
 49
6.25
 49
-1.25
 49
1.25
 49
-1.25
  0
LTYPE
  2
CENTER2
 70
    64
  3
----------  --  ----------  --  
 72
    65
 73
     4
 40
20.0
 49
12.5
 49
-2.5
 49
2.5
 49
-2.5
  0
LTYPE
  2
PHANTOM1
 70
    64
  3
--- - - --- - - --- - - --- - - 
 72
    65
 73
     6
 40
10.0
 49
3.25
 49
-1.25
 49
1.25
 49
-1.25
 49
1.25
 49
-1.25
  0
LTYPE
  2
PHANTOM2
 70
    64
  3
--------  -  -  --------  -  -  
 72
    65
 73
     6
 40
20.0
 49
10.0
 49
-2.5
 49
1.25
 49
-2.5
 49
1.25
 49
-2.5
  0
LTYPE
  2
DOT
 70
    64
  3
-   -   -   -   -   -   -   -   
 72
    65
 73
     2
 40
2.5
 49
0.625
 49
-1.875
  0
ENDTAB
  0
TABLE
  2
STYLE
 70
    1
  0
STYLE
  2
STANDARD
 70
    64
 40
0.0
 41
1.0
 42
0.0
 50
0.0
 71
     0
  3
TXT
  4
BIGFONT
  0
ENDTAB
  0
TABLE
  2
LAYER
 70
    5
  0
LAYER
  2
1-1
 70
   64
 62
    7
  6
CONTINUOUS
  0
LAYER
  2
1-2
 70
   64
 62
    7
  6
CONTINUOUS
  0
LAYER
  2
1-8
 70
   64
 62
    7
  6
CONTINUOUS
  0
LAYER
  2
1-d
 70
   64
 62
    7
  6
CONTINUOUS
  0
LAYER
  2
ADD_LINE
 70
   64
 62
    7
  6
CONTINUOUS
  0
ENDTAB
  0
ENDSEC
  0
SECTION
  2
ENTITIES
  0
LINE
  8
1-d
  6
CONTINUOUS
 62
    7
 10
250.00006
 20
2757.7013
 11
1850.0001
 21
2757.7013
  0
LINE
  8
1-d
  6
CONTINUOUS
 62
    7
 10
250.00006
 20
2767.7016
 11
1850.0001
 21
2767.7016
  0
LINE
  8
1-d
  6
CONTINUOUS
 62
    7
 10
249.99969
 20
189.99989
 11
1850.0005
 21
189.99989
  0
LINE
  8
1-d
  6
CONTINUOUS
 62
    7
 10
249.99969
 20
89.999806
 11
249.99969
 21
269.99991
  0
LINE
  8
1-d
  6
CONTINUOUS
 62
    7
 10
249.99969
 20
89.999806
 11
1850.0005
 21
89.999806
  0
LINE
  8
1-d
  6
CONTINUOUS
 62
    7
 10
1850.0005
 20
269.99991
 11
1850.0005
 21
89.999806
  0
LINE
  8
1-d
  6
CONTINUOUS
 62
    7
 10
249.99969
 20
269.99991
 11
1850.0005
 21
269.99991
  0
LINE
  8
1-d
  6
CONTINUOUS
 62
    7
 10
1050
 20
269.99991
 11
1050
 21
89.999806
  0
LINE
  8
1-d
  6
CONTINUOUS
 62
    7
 10
650.00019
 20
89.999806
 11
650.00019
 21
189.99989
  0
LINE
  8
1-d
  6
CONTINUOUS
 62
    7
 10
1050
 20
189.99989
 11
1050
 21
269.99991
  0
LINE
  8
1-d
  6
CONTINUOUS
 62
    7
 10
849.99981
 20
89.999806
 11
849.99981
 21
189.99989
  0
LINE
  8
1-d
  6
CONTINUOUS
 62
    7
 10
285.00002
 20
89.999806
 11
285.00002
 21
189.99989
  0
LINE
  8
1-d
  6
CONTINUOUS
 62
    7
 10
685.00006
 20
89.999806
 11
685.00006
 21
189.99989
  0
LINE
  8
1-d
  6
CONTINUOUS
 62
    7
 10
885.00018
 20
89.999806
 11
885.00018
 21
189.99989
  0
LINE
  8
1-d
  6
CONTINUOUS
 62
    7
 10
1015
 20
189.99989
 11
1015
 21
269.99991
  0
LINE
  8
1-d
  6
CONTINUOUS
 62
    7
 10
1550.0004
 20
189.99989
 11
1550.0004
 21
269.99991
  0
LINE
  8
1-d
  6
CONTINUOUS
 62
    7
 10
1585.0002
 20
189.99989
 11
1585.0002
 21
269.99991
  0
LINE
  8
1-8
  6
CONTINUOUS
 62
    7
 10
583.33483
 20
1941.0347
 11
325.51659
 21
1941.0347
  0
LINE
  8
1-8
  6
CONTINUOUS
 62
    7
 10
583.33483
 20
2650.5285
 11
1516.6665
 21
2650.5285
  0
LINE
  8
1-8
  6
CONTINUOUS
 62
    7
 10
676.66666
 20
1906.7967
 11
676.66666
 21
1783.1574
  0
LINE
  8
1-8
  6
CONTINUOUS
 62
    7
 10
1423.3336
 20
1906.7967
 11
1423.3336
 21
1783.1574
  0
LINE
  8
1-8
  6
CONTINUOUS
 62
    7
 10
583.33483
 20
2438.0672
 11
583.33483
 21
2650.5285
  0
LINE
  8
1-8
  6
CONTINUOUS
 62
    7
 10
1516.6665
 20
2438.0672
 11
1516.6665
 21
2650.5285
  0
LINE
  8
1-8
  6
CONTINUOUS
 62
    7
 10
325.51672
 20
1941.0347
 11
325.51672
 21
2491.0347
  0
LINE
  8
1-2
  6
CONTINUOUS
 62
    3
 10
827.79103
 20
2044.4451
 11
827.79103
 21
1981.0346
  0
LINE
  8
1-2
  6
CONTINUOUS
 62
    3
 10
786.49679
 20
2044.4451
 11
827.79103
 21
2044.4451
  0
LINE
  8
1-2
  6
CONTINUOUS
 62
    3
 10
676.66666
 20
1981.0346
 11
786.49679
 21
2044.4451
  0
LINE
  8
1-2
  6
CONTINUOUS
 62
    3
 10
745.00014
 20
2053.3687
 11
745.00014
 21
2020.4869
  0
LINE
  8
1-2
  6
CONTINUOUS
 62
    3
 10
676.66666
 20
1981.0346
 11
676.66666
 21
1941.0347
  0
LINE
  8
1-2
  6
CONTINUOUS
 62
    3
 10
1423.3336
 20
1981.0346
 11
676.66666
 21
1981.0346
  0
LINE
  8
1-2
  6
CONTINUOUS
 62
    3
 10
1423.3336
 20
1941.0347
 11
676.66666
 21
1941.0347
  0
LINE
  8
1-8
  6
CONTINUOUS
 62
    7
 10
676.66666
 20
1783.1574
 11
1423.3336
 21
1783.1574
  0
LINE
  8
1-2
  6
CONTINUOUS
 62
    3
 10
745.00014
 20
2053.3687
 11
1049.9999
 21
2053.3687
  0
LINE
  8
1-2
  6
CONTINUOUS
 62
    3
 10
745.00014
 20
2066.3687
 11
1049.9999
 21
2066.3687
  0
LINE
  8
1-2
  6
CONTINUOUS
 62
    3
 10
564.66846
 20
2379.6689
 11
1049.9999
 21
2491.0347
  0
LINE
  8
1-2
  6
CONTINUOUS
 62
    3
 10
583.33483
 20
2384.3683
 11
583.33483
 21
2259.7014
  0
LINE
  8
1-2
  6
CONTINUOUS
 62
    3
 10
583.33483
 20
2246.7019
 11
583.33483
 21
2207.7017
  0
LINE
  8
1-2
  6
CONTINUOUS
 62
    3
 10
583.33483
 20
2194.702
 11
583.33483
 21
2164.3681
  0
LINE
  8
1-2
  6
CONTINUOUS
 62
    3
 10
583.33483
 20
2384.3683
 11
1049.9999
 21
2384.3683
  0
LINE
  8
1-2
  6
CONTINUOUS
 62
    3
 10
583.33483
 20
2164.3681
 11
1049.9999
 21
2164.3681
  0
LINE
  8
1-2
  6
CONTINUOUS
 62
    3
 10
583.33483
 20
2194.702
 11
1049.9999
 21
2194.702
  0
LINE
  8
1-2
  6
CONTINUOUS
 62
    3
 10
583.33483
 20
2207.7017
 11
1049.9999
 21
2207.7017
  0
LINE
  8
1-2
  6
CONTINUOUS
 62
    3
 10
583.33483
 20
2246.7019
 11
1049.9999
 21
2246.7019
  0
LINE
  8
1-2
  6
CONTINUOUS
 62
    3
 10
583.33483
 20
2259.7014
 11
1049.9999
 21
2259.7014
  0
LINE
  8
1-8
  6
CONTINUOUS
 62
    7
 10
1553.6721
 20
2164.3681
 11
1808.8795
 21
2164.3681
  0
LINE
  8
1-8
  6
CONTINUOUS
 62
    7
 10
1808.8795
 20
2164.3681
 11
1808.8795
 21
2384.3683
  0
LINE
  8
1-8
  6
CONTINUOUS
 62
    7
 10
1553.6721
 20
2384.3683
 11
1808.8795
 21
2384.3683
  0
LINE
  8
1-8
  6
CONTINUOUS
 62
    7
 10
1808.8795
 20
2384.3683
 11
1808.8795
 21
2491.0347
  0
LINE
  8
1-8
  6
CONTINUOUS
 62
    7
 10
1553.6721
 20
2491.0347
 11
1808.8795
 21
2491.0347
  0
LINE
  8
1-8
  6
CONTINUOUS
 62
    7
 10
818.91908
 20
2491.0347
 11
325.51672
 21
2491.0347
  0
LINE
  8
1-2
  6
CONTINUOUS
 62
    3
 10
745.00014
 20
2164.3681
 11
745.00014
 21
2066.3687
  0
LINE
  8
1-8
  6
CONTINUOUS
 62
    7
 10
1808.8795
 20
1941.0347
 11
1808.8795
 21
1981.0346
  0
LINE
  8
1-8
  6
CONTINUOUS
 62
    7
 10
1553.6721
 20
1941.0347
 11
1808.8795
 21
1941.0347
  0
LINE
  8
1-8
  6
CONTINUOUS
 62
    7
 10
1553.6721
 20
1981.0346
 11
1808.8795
 21
1981.0346
  0
LINE
  8
1-8
  6
CONTINUOUS
 62
    7
 10
1808.8795
 20
1981.0346
 11
1808.8795
 21
2164.3681
  0
LINE
  8
1-2
  6
CONTINUOUS
 62
    3
 10
1272.209
 20
2044.4451
 11
1272.209
 21
1981.0346
  0
LINE
  8
1-2
  6
CONTINUOUS
 62
    3
 10
1313.5033
 20
2044.4451
 11
1272.209
 21
2044.4451
  0
LINE
  8
1-2
  6
CONTINUOUS
 62
    3
 10
1423.3334
 20
1981.0346
 11
1313.5033
 21
2044.4451
  0
LINE
  8
1-2
  6
CONTINUOUS
 62
    3
 10
1354.9999
 20
2053.3687
 11
1354.9999
 21
2020.4869
  0
LINE
  8
1-2
  6
CONTINUOUS
 62
    3
 10
1423.3334
 20
1981.0346
 11
1423.3334
 21
1941.0347
  0
LINE
  8
1-2
  6
CONTINUOUS
 62
    3
 10
1354.9999
 20
2053.3687
 11
1050.0001
 21
2053.3687
  0
LINE
  8
1-2
  6
CONTINUOUS
 62
    3
 10
1354.9999
 20
2066.3687
 11
1050.0001
 21
2066.3687
  0
LINE
  8
1-2
  6
CONTINUOUS
 62
    3
 10
1535.3316
 20
2379.6689
 11
1050.0001
 21
2491.0347
  0
LINE
  8
1-2
  6
CONTINUOUS
 62
    3
 10
1516.6652
 20
2384.3683
 11
1516.6652
 21
2259.7014
  0
LINE
  8
1-2
  6
CONTINUOUS
 62
    3
 10
1516.6652
 20
2246.7019
 11
1516.6652
 21
2207.7017
  0
LINE
  8
1-2
  6
CONTINUOUS
 62
    3
 10
1516.6652
 20
2194.702
 11
1516.6652
 21
2164.3681
  0
LINE
  8
1-2
  6
CONTINUOUS
 62
    3
 10
1516.6652
 20
2384.3683
 11
1050.0001
 21
2384.3683
  0
LINE
  8
1-2
  6
CONTINUOUS
 62
    3
 10
1516.6652
 20
2164.3681
 11
1050.0001
 21
2164.3681
  0
LINE
  8
1-2
  6
CONTINUOUS
 62
    3
 10
1516.6652
 20
2194.702
 11
1050.0001
 21
2194.702
  0
LINE
  8
1-2
  6
CONTINUOUS
 62
    3
 10
1516.6652
 20
2207.7017
 11
1050.0001
 21
2207.7017
  0
LINE
  8
1-2
  6
CONTINUOUS
 62
    3
 10
1516.6652
 20
2246.7019
 11
1050.0001
 21
2246.7019
  0
LINE
  8
1-2
  6
CONTINUOUS
 62
    3
 10
1516.6652
 20
2259.7014
 11
1050.0001
 21
2259.7014
  0
LINE
  8
1-2
  6
CONTINUOUS
 62
    3
 10
1354.9999
 20
2164.3681
 11
1354.9999
 21
2066.3687
  0
LINE
  8
1-1
  6
CENTER2
 62
    7
 10
1050
 20
1856.7568
 11
1050
 21
2586.4866
  0
LINE
  8
1-2
  6
CONTINUOUS
 62
    3
 10
745.00014
 20
2066.3682
 11
743.92449
 21
2066.2695
  0
LINE
  8
1-2
  6
CONTINUOUS
 62
    3
 10
743.92449
 20
2066.2695
 11
742.88152
 21
2065.9762
  0
LINE
  8
1-2
  6
CONTINUOUS
 62
    3
 10
742.88152
 20
2065.9762
 11
741.90292
 21
2065.4974
  0
LINE
  8
1-2
  6
CONTINUOUS
 62
    3
 10
741.90292
 20
2065.4974
 11
741.01843
 21
2064.8475
  0
LINE
  8
1-2
  6
CONTINUOUS
 62
    3
 10
741.01843
 20
2064.8475
 11
740.25493
 21
2064.0464
  0
LINE
  8
1-2
  6
CONTINUOUS
 62
    3
 10
740.25493
 20
2064.0464
 11
739.6356
 21
2063.1183
  0
LINE
  8
1-2
  6
CONTINUOUS
 62
    3
 10
739.6356
 20
2063.1183
 11
739.17927
 21
2062.0914
  0
LINE
  8
1-2
  6
CONTINUOUS
 62
    3
 10
739.17927
 20
2062.0914
 11
738.89981
 21
2060.997
  0
LINE
  8
1-2
  6
CONTINUOUS
 62
    3
 10
738.89981
 20
2060.997
 11
738.8057
 21
2059.8683
  0
LINE
  8
1-2
  6
CONTINUOUS
 62
    3
 10
738.8057
 20
2059.8683
 11
738.89981
 21
2058.7396
  0
LINE
  8
1-2
  6
CONTINUOUS
 62
    3
 10
738.89981
 20
2058.7396
 11
739.17927
 21
2057.6452
  0
LINE
  8
1-2
  6
CONTINUOUS
 62
    3
 10
739.17927
 20
2057.6452
 11
739.6356
 21
2056.6183
  0
LINE
  8
1-2
  6
CONTINUOUS
 62
    3
 10
739.6356
 20
2056.6183
 11
740.25493
 21
2055.6902
  0
LINE
  8
1-2
  6
CONTINUOUS
 62
    3
 10
740.25493
 20
2055.6902
 11
741.01843
 21
2054.889
  0
LINE
  8
1-2
  6
CONTINUOUS
 62
    3
 10
741.01843
 20
2054.889
 11
741.90292
 21
2054.2392
  0
LINE
  8
1-2
  6
CONTINUOUS
 62
    3
 10
741.90292
 20
2054.2392
 11
742.88152
 21
2053.7603
  0
LINE
  8
1-2
  6
CONTINUOUS
 62
    3
 10
742.88152
 20
2053.7603
 11
743.92449
 21
2053.4671
  0
LINE
  8
1-2
  6
CONTINUOUS
 62
    3
 10
743.92449
 20
2053.4671
 11
745.00014
 21
2053.3684
  0
LINE
  8
1-2
  6
CONTINUOUS
 62
    3
 10
583.33483
 20
2259.7019
 11
582.25918
 21
2259.6031
  0
LINE
  8
1-2
  6
CONTINUOUS
 62
    3
 10
582.25918
 20
2259.6031
 11
581.21621
 21
2259.3099
  0
LINE
  8
1-2
  6
CONTINUOUS
 62
    3
 10
581.21621
 20
2259.3099
 11
580.23761
 21
2258.831
  0
LINE
  8
1-2
  6
CONTINUOUS
 62
    3
 10
580.23761
 20
2258.831
 11
579.35312
 21
2258.1812
  0
LINE
  8
1-2
  6
CONTINUOUS
 62
    3
 10
579.35312
 20
2258.1812
 11
578.58961
 21
2257.38
  0
LINE
  8
1-2
  6
CONTINUOUS
 62
    3
 10
578.58961
 20
2257.38
 11
577.97029
 21
2256.4519
  0
LINE
  8
1-2
  6
CONTINUOUS
 62
    3
 10
577.97029
 20
2256.4519
 11
577.51396
 21
2255.425
  0
LINE
  8
1-2
  6
CONTINUOUS
 62
    3
 10
577.51396
 20
2255.425
 11
577.2345
 21
2254.3306
  0
LINE
  8
1-2
  6
CONTINUOUS
 62
    3
 10
577.2345
 20
2254.3306
 11
577.14039
 21
2253.2019
  0
LINE
  8
1-2
  6
CONTINUOUS
 62
    3
 10
577.14039
 20
2253.2019
 11
577.2345
 21
2252.0732
  0
LINE
  8
1-2
  6
CONTINUOUS
 62
    3
 10
577.2345
 20
2252.0732
 11
577.51396
 21
2250.9788
  0
LINE
  8
1-2
  6
CONTINUOUS
 62
    3
 10
577.51396
 20
2250.9788
 11
577.97029
 21
2249.952
  0
LINE
  8
1-2
  6
CONTINUOUS
 62
    3
 10
577.97029
 20
2249.952
 11
578.58961
 21
2249.0239
  0
LINE
  8
1-2
  6
CONTINUOUS
 62
    3
 10
578.58961
 20
2249.0239
 11
579.35312
 21
2248.2227
  0
LINE
  8
1-2
  6
CONTINUOUS
 62
    3
 10
579.35312
 20
2248.2227
 11
580.23761
 21
2247.5728
  0
LINE
  8
1-2
  6
CONTINUOUS
 62
    3
 10
580.23761
 20
2247.5728
 11
581.21621
 21
2247.094
  0
LINE
  8
1-2
  6
CONTINUOUS
 62
    3
 10
581.21621
 20
2247.094
 11
582.25918
 21
2246.8008
  0
LINE
  8
1-2
  6
CONTINUOUS
 62
    3
 10
582.25918
 20
2246.8008
 11
583.33483
 21
2246.702
  0
LINE
  8
1-2
  6
CONTINUOUS
 62
    3
 10
583.33483
 20
2207.7019
 11
582.25918
 21
2207.6031
  0
LINE
  8
1-2
  6
CONTINUOUS
 62
    3
 10
582.25918
 20
2207.6031
 11
581.21621
 21
2207.3099
  0
LINE
  8
1-2
  6
CONTINUOUS
 62
    3
 10
581.21621
 20
2207.3099
 11
580.23761
 21
2206.8311
  0
LINE
  8
1-2
  6
CONTINUOUS
 62
    3
 10
580.23761
 20
2206.8311
 11
579.35312
 21
2206.1812
  0
LINE
  8
1-2
  6
CONTINUOUS
 62
    3
 10
579.35312
 20
2206.1812
 11
578.58961
 21
2205.38
  0
LINE
  8
1-2
  6
CONTINUOUS
 62
    3
 10
578.58961
 20
2205.38
 11
577.97029
 21
2204.4519
  0
LINE
  8
1-2
  6
CONTINUOUS
 62
    3
 10
577.97029
 20
2204.4519
 11
577.51396
 21
2203.4251
  0
LINE
  8
1-2
  6
CONTINUOUS
 62
    3
 10
577.51396
 20
2203.4251
 11
577.2345
 21
2202.3307
  0
LINE
  8
1-2
  6
CONTINUOUS
 62
    3
 10
577.2345
 20
2202.3307
 11
577.14039
 21
2201.202
  0
LINE
  8
1-2
  6
CONTINUOUS
 62
    3
 10
577.14039
 20
2201.202
 11
577.2345
 21
2200.0733
  0
LINE
  8
1-2
  6
CONTINUOUS
 62
    3
 10
577.2345
 20
2200.0733
 11
577.51396
 21
2198.9789
  0
LINE
  8
1-2
  6
CONTINUOUS
 62
    3
 10
577.51396
 20
2198.9789
 11
577.97029
 21
2197.952
  0
LINE
  8
1-2
  6
CONTINUOUS
 62
    3
 10
577.97029
 20
2197.952
 11
578.58961
 21
2197.0239
  0
LINE
  8
1-2
  6
CONTINUOUS
 62
    3
 10
578.58961
 20
2197.0239
 11
579.35312
 21
2196.2227
  0
LINE
  8
1-2
  6
CONTINUOUS
 62
    3
 10
579.35312
 20
2196.2227
 11
580.23761
 21
2195.5729
  0
LINE
  8
1-2
  6
CONTINUOUS
 62
    3
 10
580.23761
 20
2195.5729
 11
581.21621
 21
2195.094
  0
LINE
  8
1-2
  6
CONTINUOUS
 62
    3
 10
581.21621
 20
2195.094
 11
582.25918
 21
2194.8008
  0
LINE
  8
1-2
  6
CONTINUOUS
 62
    3
 10
582.25918
 20
2194.8008
 11
583.33483
 21
2194.702
  0
LINE
  8
1-2
  6
CONTINUOUS
 62
    3
 10
1354.9999
 20
2053.3684
 11
1356.0756
 21
2053.4671
  0
LINE
  8
1-2
  6
CONTINUOUS
 62
    3
 10
1356.0756
 20
2053.4671
 11
1357.1185
 21
2053.7603
  0
LINE
  8
1-2
  6
CONTINUOUS
 62
    3
 10
1357.1185
 20
2053.7603
 11
1358.0971
 21
2054.2392
  0
LINE
  8
1-2
  6
CONTINUOUS
 62
    3
 10
1358.0971
 20
2054.2392
 11
1358.9816
 21
2054.889
  0
LINE
  8
1-2
  6
CONTINUOUS
 62
    3
 10
1358.9816
 20
2054.889
 11
1359.7451
 21
2055.6902
  0
LINE
  8
1-2
  6
CONTINUOUS
 62
    3
 10
1359.7451
 20
2055.6902
 11
1360.3645
 21
2056.6183
  0
LINE
  8
1-2
  6
CONTINUOUS
 62
    3
 10
1360.3645
 20
2056.6183
 11
1360.8208
 21
2057.6452
  0
LINE
  8
1-2
  6
CONTINUOUS
 62
    3
 10
1360.8208
 20
2057.6452
 11
1361.1002
 21
2058.7396
  0
LINE
  8
1-2
  6
CONTINUOUS
 62
    3
 10
1361.1002
 20
2058.7396
 11
1361.1943
 21
2059.8683
  0
LINE
  8
1-2
  6
CONTINUOUS
 62
    3
 10
1361.1943
 20
2059.8683
 11
1361.1002
 21
2060.997
  0
LINE
  8
1-2
  6
CONTINUOUS
 62
    3
 10
1361.1002
 20
2060.997
 11
1360.8208
 21
2062.0914
  0
LINE
  8
1-2
  6
CONTINUOUS
 62
    3
 10
1360.8208
 20
2062.0914
 11
1360.3645
 21
2063.1183
  0
LINE
  8
1-2
  6
CONTINUOUS
 62
    3
 10
1360.3645
 20
2063.1183
 11
1359.7451
 21
2064.0464
  0
LINE
  8
1-2
  6
CONTINUOUS
 62
    3
 10
1359.7451
 20
2064.0464
 11
1358.9816
 21
2064.8475
  0
LINE
  8
1-2
  6
CONTINUOUS
 62
    3
 10
1358.9816
 20
2064.8475
 11
1358.0971
 21
2065.4974
  0
LINE
  8
1-2
  6
CONTINUOUS
 62
    3
 10
1358.0971
 20
2065.4974
 11
1357.1185
 21
2065.9762
  0
LINE
  8
1-2
  6
CONTINUOUS
 62
    3
 10
1357.1185
 20
2065.9762
 11
1356.0756
 21
2066.2695
  0
LINE
  8
1-2
  6
CONTINUOUS
 62
    3
 10
1356.0756
 20
2066.2695
 11
1354.9999
 21
2066.3682
  0
LINE
  8
1-2
  6
CONTINUOUS
 62
    3
 10
1516.6652
 20
2246.702
 11
1517.7409
 21
2246.8008
  0
LINE
  8
1-2
  6
CONTINUOUS
 62
    3
 10
1517.7409
 20
2246.8008
 11
1518.7838
 21
2247.094
  0
LINE
  8
1-2
  6
CONTINUOUS
 62
    3
 10
1518.7838
 20
2247.094
 11
1519.7624
 21
2247.5728
  0
LINE
  8
1-2
  6
CONTINUOUS
 62
    3
 10
1519.7624
 20
2247.5728
 11
1520.6469
 21
2248.2227
  0
LINE
  8
1-2
  6
CONTINUOUS
 62
    3
 10
1520.6469
 20
2248.2227
 11
1521.4104
 21
2249.0239
  0
LINE
  8
1-2
  6
CONTINUOUS
 62
    3
 10
1521.4104
 20
2249.0239
 11
1522.0298
 21
2249.952
  0
LINE
  8
1-2
  6
CONTINUOUS
 62
    3
 10
1522.0298
 20
2249.952
 11
1522.4861
 21
2250.9788
  0
LINE
  8
1-2
  6
CONTINUOUS
 62
    3
 10
1522.4861
 20
2250.9788
 11
1522.7656
 21
2252.0732
  0
LINE
  8
1-2
  6
CONTINUOUS
 62
    3
 10
1522.7656
 20
2252.0732
 11
1522.8597
 21
2253.2019
  0
LINE
  8
1-2
  6
CONTINUOUS
 62
    3
 10
1522.8597
 20
2253.2019
 11
1522.7656
 21
2254.3306
  0
LINE
  8
1-2
  6
CONTINUOUS
 62
    3
 10
1522.7656
 20
2254.3306
 11
1522.4861
 21
2255.425
  0
LINE
  8
1-2
  6
CONTINUOUS
 62
    3
 10
1522.4861
 20
2255.425
 11
1522.0298
 21
2256.4519
  0
LINE
  8
1-2
  6
CONTINUOUS
 62
    3
 10
1522.0298
 20
2256.4519
 11
1521.4104
 21
2257.38
  0
LINE
  8
1-2
  6
CONTINUOUS
 62
    3
 10
1521.4104
 20
2257.38
 11
1520.6469
 21
2258.1812
  0
LINE
  8
1-2
  6
CONTINUOUS
 62
    3
 10
1520.6469
 20
2258.1812
 11
1519.7624
 21
2258.831
  0
LINE
  8
1-2
  6
CONTINUOUS
 62
    3
 10
1519.7624
 20
2258.831
 11
1518.7838
 21
2259.3099
  0
LINE
  8
1-2
  6
CONTINUOUS
 62
    3
 10
1518.7838
 20
2259.3099
 11
1517.7409
 21
2259.6031
  0
LINE
  8
1-2
  6
CONTINUOUS
 62
    3
 10
1517.7409
 20
2259.6031
 11
1516.6652
 21
2259.7019
  0
LINE
  8
1-2
  6
CONTINUOUS
 62
    3
 10
1516.6652
 20
2194.702
 11
1517.7409
 21
2194.8008
  0
LINE
  8
1-2
  6
CONTINUOUS
 62
    3
 10
1517.7409
 20
2194.8008
 11
1518.7838
 21
2195.094
  0
LINE
  8
1-2
  6
CONTINUOUS
 62
    3
 10
1518.7838
 20
2195.094
 11
1519.7624
 21
2195.5729
  0
LINE
  8
1-2
  6
CONTINUOUS
 62
    3
 10
1519.7624
 20
2195.5729
 11
1520.6469
 21
2196.2227
  0
LINE
  8
1-2
  6
CONTINUOUS
 62
    3
 10
1520.6469
 20
2196.2227
 11
1521.4104
 21
2197.0239
  0
LINE
  8
1-2
  6
CONTINUOUS
 62
    3
 10
1521.4104
 20
2197.0239
 11
1522.0298
 21
2197.952
  0
LINE
  8
1-2
  6
CONTINUOUS
 62
    3
 10
1522.0298
 20
2197.952
 11
1522.4861
 21
2198.9789
  0
LINE
  8
1-2
  6
CONTINUOUS
 62
    3
 10
1522.4861
 20
2198.9789
 11
1522.7656
 21
2200.0733
  0
LINE
  8
1-2
  6
CONTINUOUS
 62
    3
 10
1522.7656
 20
2200.0733
 11
1522.8597
 21
2201.202
  0
LINE
  8
1-2
  6
CONTINUOUS
 62
    3
 10
1522.8597
 20
2201.202
 11
1522.7656
 21
2202.3307
  0
LINE
  8
1-2
  6
CONTINUOUS
 62
    3
 10
1522.7656
 20
2202.3307
 11
1522.4861
 21
2203.4251
  0
LINE
  8
1-2
  6
CONTINUOUS
 62
    3
 10
1522.4861
 20
2203.4251
 11
1522.0298
 21
2204.4519
  0
LINE
  8
1-2
  6
CONTINUOUS
 62
    3
 10
1522.0298
 20
2204.4519
 11
1521.4104
 21
2205.38
  0
LINE
  8
1-2
  6
CONTINUOUS
 62
    3
 10
1521.4104
 20
2205.38
 11
1520.6469
 21
2206.1812
  0
LINE
  8
1-2
  6
CONTINUOUS
 62
    3
 10
1520.6469
 20
2206.1812
 11
1519.7624
 21
2206.8311
  0
LINE
  8
1-2
  6
CONTINUOUS
 62
    3
 10
1519.7624
 20
2206.8311
 11
1518.7838
 21
2207.3099
  0
LINE
  8
1-2
  6
CONTINUOUS
 62
    3
 10
1518.7838
 20
2207.3099
 11
1517.7409
 21
2207.6031
  0
LINE
  8
1-2
  6
CONTINUOUS
 62
    3
 10
1517.7409
 20
2207.6031
 11
1516.6652
 21
2207.7019
  0
TEXT
  8
1-d
 10
254.9998
 20
97.49997
 40
25
 41
1
 50
0
  1
番
  0
TEXT
  8
1-d
 10
655.00046
 20
157.4999
 40
25
 41
1
 50
0
  1
承
  0
TEXT
  8
1-d
 10
655.00046
 20
97.49997
 40
25
 41
1
 50
0
  1
認
  0
TEXT
  8
1-d
 10
1020.0003
 20
237.49996
 40
25
 41
1
 50
0
  1
尺
  0
TEXT
  8
1-d
 10
1020.0003
 20
197.49979
 40
25
 41
1
 50
0.0000762
  1
度
  0
TEXT
  8
1-d
 10
855.00014
 20
157.4999
 40
25
 41
1
 50
0
  1
製
  0
TEXT
  8
1-d
 10
855.00014
 20
97.49997
 40
25
 41
1
 50
0
  1
図
  0
TEXT
  8
1-d
 10
1555.0001
 20
237.49996
 40
25
 41
1
 50
0
  1
日
  0
TEXT
  8
1-d
 10
1555.0001
 20
197.49979
 40
25
 41
1
 50
0.0000762
  1
付
  0
TEXT
  8
1-d
 10
1111.4263
 20
163.48226
 40
20
 41
1
 50
0
  1
株式
  0
TEXT
  8
1-d
 10
1111.4263
 20
141.85181
 40
20
 41
1
 50
0.0000152
  1
会社
  0
TEXT
  8
1-d
 10
1174.2247
 20
143.24712
 40
40
 41
1
 50
0
  1
スズキベンチレーター
  0
TEXT
  8
1-d
 10
1237.9182
 20
94.024183
 40
20
 41
1
 50
0
  1
TEL(054)296-7000  FAX(054)296-7001
  0
TEXT
  8
1-d
 10
1084.349
 20
210.10066
 40
40
 41
1
 50
0
  1
１／１５
  0
TEXT
  8
1-8
 10
1002.2974
 20
2668.063
 40
30
 41
1
 50
0
  1
1,400
  0
TEXT
  8
1-8
 10
280.08887
 20
2186.117
 40
30
 41
1
 50
90
  1
825
  0
TEXT
  8
1-8
 10
1798.8795
 20
2262.2855
 40
30
 41
1
 50
90
  1
330
  0
TEXT
  8
1-8
 10
1798.8795
 20
2413.4516
 40
30
 41
1
 50
90
  1
160
  0
TEXT
  8
1-8
 10
1798.8795
 20
1947.2848
 40
30
 41
1
 50
90
  1
60
  0
TEXT
  8
1-8
 10
1798.8795
 20
2051.4515
 40
30
 41
1
 50
90
  1
275
  0
TEXT
  8
1-8
 10
961.31848
 20
1791.3248
 40
30
 41
1
 50
0
  1
1,120x1,120
  0
TEXT
  8
1-d
 10
254.9998
 20
157.4999
 40
25
 41
1
 50
0
  1
図
  0
TEXT
  8
1-d
 10
264.45945
 20
2794.1893
 40
50
 41
1
 50
0
  1
ＳＴ－９０　架台型立面
  0
TEXT
  8
1-2
 10
288.61159
 20
209.0488
 40
30
 41
1
 50
0
  1
ＳＴ－９０　架台型立面
  0
TEXT
  8
1-d
 10
308.45927
 20
140.30214
 40
30
 41
1
 50
0
  1
90-F02b
  0
TEXT
  8
1-d
 10
1235.6794
 20
118.64593
 40
20
 41
1
 50
0
  1
〒421-2114　静岡市葵区安倍口新田１５２番地
  0
POINT
  8
1-8
 62
    2
 10
325.51659
 20
1941.0347
  0
POINT
  8
1-8
 62
    2
 10
325.51672
 20
2491.0347
  0
POINT
  8
1-8
 62
    2
 10
583.33483
 20
2650.5285
  0
POINT
  8
1-8
 62
    2
 10
1516.6665
 20
2650.5285
  0
POINT
  8
1-8
 62
    2
 10
676.66666
 20
1783.1574
  0
POINT
  8
1-8
 62
    2
 10
1423.3336
 20
1783.1574
  0
POINT
  8
1-8
 62
    2
 10
1808.8795
 20
2164.3681
  0
POINT
  8
1-8
 62
    2
 10
1808.8795
 20
2384.3683
  0
POINT
  8
1-8
 62
    2
 10
1808.8795
 20
2491.0347
  0
POINT
  8
1-8
 62
    2
 10
1808.8795
 20
1941.0347
  0
POINT
  8
1-8
 62
    2
 10
1808.8795
 20
1981.0346
  0
ENDSEC
  0
EOF
