  0
SECTION
  2
HEADER
  9
$EXTMIN
 10
0
 20
0
  9
$EXTMAX
 10
4200
 20
2970
  0
ENDSEC
  0
SECTION
  2
TABLES
  0
TABLE
  2
LTYPE
 70
     9
  0
LTYPE
  2
CONTINUOUS
 70
    64
  3
実線
 72
    65
 73
     0
 40
0.0
  0
LTYPE
  2
DASHED1
 70
    64
  3
--  --  --  --  --  --  --  --  
 72
    65
 73
     2
 40
2.5
 49
1.25
 49
-1.25
  0
LTYPE
  2
DASHED2
 70
    64
  3
----    ----    ----    ----    
 72
    65
 73
     2
 40
5.0
 49
2.5
 49
-2.5
  0
LTYPE
  2
DASHED3
 70
    64
  3
------  ------  ------  ------  
 72
    65
 73
     2
 40
5.0
 49
3.75
 49
-1.25
  0
LTYPE
  2
CENTER1
 70
    64
  3
----- - ----- - ----- - ----- - 
 72
    65
 73
     4
 40
10.0
 49
6.25
 49
-1.25
 49
1.25
 49
-1.25
  0
LTYPE
  2
CENTER2
 70
    64
  3
----------  --  ----------  --  
 72
    65
 73
     4
 40
20.0
 49
12.5
 49
-2.5
 49
2.5
 49
-2.5
  0
LTYPE
  2
PHANTOM1
 70
    64
  3
--- - - --- - - --- - - --- - - 
 72
    65
 73
     6
 40
10.0
 49
3.25
 49
-1.25
 49
1.25
 49
-1.25
 49
1.25
 49
-1.25
  0
LTYPE
  2
PHANTOM2
 70
    64
  3
--------  -  -  --------  -  -  
 72
    65
 73
     6
 40
20.0
 49
10.0
 49
-2.5
 49
1.25
 49
-2.5
 49
1.25
 49
-2.5
  0
LTYPE
  2
DOT
 70
    64
  3
-   -   -   -   -   -   -   -   
 72
    65
 73
     2
 40
2.5
 49
0.625
 49
-1.875
  0
ENDTAB
  0
TABLE
  2
STYLE
 70
    1
  0
STYLE
  2
STANDARD
 70
    64
 40
0.0
 41
1.0
 42
0.0
 50
0.0
 71
     0
  3
TXT
  4
BIGFONT
  0
ENDTAB
  0
TABLE
  2
LAYER
 70
    5
  0
LAYER
  2
1-1
 70
   64
 62
    7
  6
CONTINUOUS
  0
LAYER
  2
1-2
 70
   64
 62
    7
  6
CONTINUOUS
  0
LAYER
  2
1-8
 70
   64
 62
    7
  6
CONTINUOUS
  0
LAYER
  2
1-d
 70
   64
 62
    7
  6
CONTINUOUS
  0
LAYER
  2
ADD_LINE
 70
   64
 62
    7
  6
CONTINUOUS
  0
ENDTAB
  0
ENDSEC
  0
SECTION
  2
ENTITIES
  0
LINE
  8
1-d
  6
CONTINUOUS
 62
    7
 10
250.00006
 20
2757.7013
 11
1850.0001
 21
2757.7013
  0
LINE
  8
1-d
  6
CONTINUOUS
 62
    7
 10
250.00006
 20
2767.7016
 11
1850.0001
 21
2767.7016
  0
LINE
  8
1-d
  6
CONTINUOUS
 62
    7
 10
249.99969
 20
189.99989
 11
1850.0005
 21
189.99989
  0
LINE
  8
1-d
  6
CONTINUOUS
 62
    7
 10
249.99969
 20
89.999806
 11
249.99969
 21
269.99991
  0
LINE
  8
1-d
  6
CONTINUOUS
 62
    7
 10
249.99969
 20
89.999806
 11
1850.0005
 21
89.999806
  0
LINE
  8
1-d
  6
CONTINUOUS
 62
    7
 10
1850.0005
 20
269.99991
 11
1850.0005
 21
89.999806
  0
LINE
  8
1-d
  6
CONTINUOUS
 62
    7
 10
249.99969
 20
269.99991
 11
1850.0005
 21
269.99991
  0
LINE
  8
1-d
  6
CONTINUOUS
 62
    7
 10
1050
 20
269.99991
 11
1050
 21
89.999806
  0
LINE
  8
1-d
  6
CONTINUOUS
 62
    7
 10
650.00019
 20
89.999806
 11
650.00019
 21
189.99989
  0
LINE
  8
1-d
  6
CONTINUOUS
 62
    7
 10
1050
 20
189.99989
 11
1050
 21
269.99991
  0
LINE
  8
1-d
  6
CONTINUOUS
 62
    7
 10
849.99981
 20
89.999806
 11
849.99981
 21
189.99989
  0
LINE
  8
1-d
  6
CONTINUOUS
 62
    7
 10
285.00002
 20
89.999806
 11
285.00002
 21
189.99989
  0
LINE
  8
1-d
  6
CONTINUOUS
 62
    7
 10
685.00006
 20
89.999806
 11
685.00006
 21
189.99989
  0
LINE
  8
1-d
  6
CONTINUOUS
 62
    7
 10
885.00018
 20
89.999806
 11
885.00018
 21
189.99989
  0
LINE
  8
1-d
  6
CONTINUOUS
 62
    7
 10
1015
 20
189.99989
 11
1015
 21
269.99991
  0
LINE
  8
1-d
  6
CONTINUOUS
 62
    7
 10
1550.0004
 20
189.99989
 11
1550.0004
 21
269.99991
  0
LINE
  8
1-d
  6
CONTINUOUS
 62
    7
 10
1585.0002
 20
189.99989
 11
1585.0002
 21
269.99991
  0
LINE
  8
1-2
  6
CONTINUOUS
 62
    3
 10
564.66846
 20
2389.669
 11
1049.9999
 21
2501.035
  0
LINE
  8
1-8
  6
CONTINUOUS
 62
    7
 10
325.51675
 20
1981.0347
 11
325.51675
 21
2501.035
  0
LINE
  8
1-8
  6
CONTINUOUS
 62
    7
 10
583.33483
 20
1981.0347
 11
325.51675
 21
1981.0347
  0
LINE
  8
1-8
  6
CONTINUOUS
 62
    7
 10
583.33483
 20
2660.5287
 11
1516.6665
 21
2660.5287
  0
LINE
  8
1-8
  6
CONTINUOUS
 62
    7
 10
745.00014
 20
1859.8243
 11
1355.0002
 21
1859.8243
  0
LINE
  8
1-2
  6
CONTINUOUS
 62
    3
 10
583.33483
 20
2394.3683
 11
583.33483
 21
2269.7017
  0
LINE
  8
1-8
  6
CONTINUOUS
 62
    7
 10
745.00014
 20
1936.7969
 11
745.00014
 21
1859.8243
  0
LINE
  8
1-8
  6
CONTINUOUS
 62
    7
 10
1355.0002
 20
1936.7969
 11
1355.0002
 21
1859.8243
  0
LINE
  8
1-8
  6
CONTINUOUS
 62
    7
 10
583.33483
 20
2448.0672
 11
583.33483
 21
2660.5287
  0
LINE
  8
1-8
  6
CONTINUOUS
 62
    7
 10
719.70288
 20
2501.035
 11
325.51675
 21
2501.035
  0
LINE
  8
1-8
  6
CONTINUOUS
 62
    7
 10
1516.6665
 20
2448.0672
 11
1516.6665
 21
2660.5287
  0
LINE
  8
1-2
  6
CONTINUOUS
 62
    3
 10
583.33483
 20
2256.7022
 11
583.33483
 21
2217.702
  0
LINE
  8
1-2
  6
CONTINUOUS
 62
    3
 10
583.33483
 20
2204.7022
 11
583.33483
 21
2174.3683
  0
LINE
  8
1-2
  6
CONTINUOUS
 62
    3
 10
745.00014
 20
2024.3688
 11
1355.0002
 21
2024.3688
  0
LINE
  8
1-2
  6
CONTINUOUS
 62
    3
 10
745.00014
 20
2063.3688
 11
745.00014
 21
2024.3688
  0
LINE
  8
1-2
  6
CONTINUOUS
 62
    3
 10
745.00014
 20
1981.0352
 11
1355.0002
 21
1981.0352
  0
LINE
  8
1-2
  6
CONTINUOUS
 62
    3
 10
745.00014
 20
2011.3688
 11
1355.0002
 21
2011.3688
  0
LINE
  8
1-2
  6
CONTINUOUS
 62
    3
 10
745.00014
 20
2174.3688
 11
745.00014
 21
2076.3688
  0
LINE
  8
1-2
  6
CONTINUOUS
 62
    3
 10
745.00014
 20
2011.3688
 11
745.00014
 21
1981.0352
  0
LINE
  8
1-2
  6
CONTINUOUS
 62
    3
 10
583.33483
 20
2394.3683
 11
1049.9999
 21
2394.3683
  0
LINE
  8
1-2
  6
CONTINUOUS
 62
    3
 10
583.33483
 20
2174.3683
 11
1049.9999
 21
2174.3683
  0
LINE
  8
1-2
  6
CONTINUOUS
 62
    3
 10
583.33483
 20
2204.7022
 11
1049.9999
 21
2204.7022
  0
LINE
  8
1-2
  6
CONTINUOUS
 62
    3
 10
583.33483
 20
2217.702
 11
1049.9999
 21
2217.702
  0
LINE
  8
1-2
  6
CONTINUOUS
 62
    3
 10
583.33483
 20
2256.7022
 11
1049.9999
 21
2256.7022
  0
LINE
  8
1-2
  6
CONTINUOUS
 62
    3
 10
583.33483
 20
2269.7017
 11
1049.9999
 21
2269.7017
  0
LINE
  8
1-2
  6
CONTINUOUS
 62
    3
 10
745.00014
 20
2063.3688
 11
1049.9999
 21
2063.3688
  0
LINE
  8
1-2
  6
CONTINUOUS
 62
    3
 10
745.00014
 20
2076.3688
 11
1049.9999
 21
2076.3688
  0
LINE
  8
1-8
  6
CONTINUOUS
 62
    7
 10
1808.8795
 20
1981.0352
 11
1808.8795
 21
2174.3683
  0
LINE
  8
1-8
  6
CONTINUOUS
 62
    7
 10
1553.6721
 20
1981.0352
 11
1808.8795
 21
1981.0352
  0
LINE
  8
1-8
  6
CONTINUOUS
 62
    7
 10
1553.6721
 20
2174.3683
 11
1808.8795
 21
2174.3683
  0
LINE
  8
1-8
  6
CONTINUOUS
 62
    7
 10
1808.8795
 20
2174.3683
 11
1808.8795
 21
2394.3683
  0
LINE
  8
1-8
  6
CONTINUOUS
 62
    7
 10
1553.6721
 20
2394.3683
 11
1808.8795
 21
2394.3683
  0
LINE
  8
1-8
  6
CONTINUOUS
 62
    7
 10
1808.8795
 20
2394.3683
 11
1808.8795
 21
2501.035
  0
LINE
  8
1-8
  6
CONTINUOUS
 62
    7
 10
1553.6721
 20
2501.035
 11
1808.8795
 21
2501.035
  0
LINE
  8
1-2
  6
CONTINUOUS
 62
    3
 10
1535.3316
 20
2389.669
 11
1050.0001
 21
2501.035
  0
LINE
  8
1-2
  6
CONTINUOUS
 62
    3
 10
1516.6652
 20
2394.3683
 11
1516.6652
 21
2269.7017
  0
LINE
  8
1-2
  6
CONTINUOUS
 62
    3
 10
1516.6652
 20
2256.7022
 11
1516.6652
 21
2217.702
  0
LINE
  8
1-2
  6
CONTINUOUS
 62
    3
 10
1516.6652
 20
2204.7022
 11
1516.6652
 21
2174.3683
  0
LINE
  8
1-2
  6
CONTINUOUS
 62
    3
 10
1354.9999
 20
2063.3688
 11
1354.9999
 21
2024.3688
  0
LINE
  8
1-2
  6
CONTINUOUS
 62
    3
 10
1354.9999
 20
2174.3688
 11
1354.9999
 21
2076.3688
  0
LINE
  8
1-2
  6
CONTINUOUS
 62
    3
 10
1354.9999
 20
2011.3688
 11
1354.9999
 21
1981.0352
  0
LINE
  8
1-2
  6
CONTINUOUS
 62
    3
 10
1516.6652
 20
2394.3683
 11
1050.0001
 21
2394.3683
  0
LINE
  8
1-2
  6
CONTINUOUS
 62
    3
 10
1516.6652
 20
2174.3683
 11
1050.0001
 21
2174.3683
  0
LINE
  8
1-2
  6
CONTINUOUS
 62
    3
 10
1516.6652
 20
2204.7022
 11
1050.0001
 21
2204.7022
  0
LINE
  8
1-2
  6
CONTINUOUS
 62
    3
 10
1516.6652
 20
2217.702
 11
1050.0001
 21
2217.702
  0
LINE
  8
1-2
  6
CONTINUOUS
 62
    3
 10
1516.6652
 20
2256.7022
 11
1050.0001
 21
2256.7022
  0
LINE
  8
1-2
  6
CONTINUOUS
 62
    3
 10
1516.6652
 20
2269.7017
 11
1050.0001
 21
2269.7017
  0
LINE
  8
1-2
  6
CONTINUOUS
 62
    3
 10
1354.9999
 20
2063.3688
 11
1050.0001
 21
2063.3688
  0
LINE
  8
1-2
  6
CONTINUOUS
 62
    3
 10
1354.9999
 20
2076.3688
 11
1050.0001
 21
2076.3688
  0
LINE
  8
1-1
  6
CENTER2
 62
    7
 10
1050
 20
1921.6217
 11
1050
 21
2602.7028
  0
LINE
  8
1-2
  6
CONTINUOUS
 62
    3
 10
583.33483
 20
2269.7019
 11
582.25918
 21
2269.6032
  0
LINE
  8
1-2
  6
CONTINUOUS
 62
    3
 10
582.25918
 20
2269.6032
 11
581.21621
 21
2269.3099
  0
LINE
  8
1-2
  6
CONTINUOUS
 62
    3
 10
581.21621
 20
2269.3099
 11
580.23761
 21
2268.8311
  0
LINE
  8
1-2
  6
CONTINUOUS
 62
    3
 10
580.23761
 20
2268.8311
 11
579.35312
 21
2268.1812
  0
LINE
  8
1-2
  6
CONTINUOUS
 62
    3
 10
579.35312
 20
2268.1812
 11
578.58961
 21
2267.38
  0
LINE
  8
1-2
  6
CONTINUOUS
 62
    3
 10
578.58961
 20
2267.38
 11
577.97029
 21
2266.4519
  0
LINE
  8
1-2
  6
CONTINUOUS
 62
    3
 10
577.97029
 20
2266.4519
 11
577.51396
 21
2265.4251
  0
LINE
  8
1-2
  6
CONTINUOUS
 62
    3
 10
577.51396
 20
2265.4251
 11
577.2345
 21
2264.3307
  0
LINE
  8
1-2
  6
CONTINUOUS
 62
    3
 10
577.2345
 20
2264.3307
 11
577.14039
 21
2263.202
  0
LINE
  8
1-2
  6
CONTINUOUS
 62
    3
 10
577.14039
 20
2263.202
 11
577.2345
 21
2262.0733
  0
LINE
  8
1-2
  6
CONTINUOUS
 62
    3
 10
577.2345
 20
2262.0733
 11
577.51396
 21
2260.9789
  0
LINE
  8
1-2
  6
CONTINUOUS
 62
    3
 10
577.51396
 20
2260.9789
 11
577.97029
 21
2259.952
  0
LINE
  8
1-2
  6
CONTINUOUS
 62
    3
 10
577.97029
 20
2259.952
 11
578.58961
 21
2259.0239
  0
LINE
  8
1-2
  6
CONTINUOUS
 62
    3
 10
578.58961
 20
2259.0239
 11
579.35312
 21
2258.2227
  0
LINE
  8
1-2
  6
CONTINUOUS
 62
    3
 10
579.35312
 20
2258.2227
 11
580.23761
 21
2257.5729
  0
LINE
  8
1-2
  6
CONTINUOUS
 62
    3
 10
580.23761
 20
2257.5729
 11
581.21621
 21
2257.094
  0
LINE
  8
1-2
  6
CONTINUOUS
 62
    3
 10
581.21621
 20
2257.094
 11
582.25918
 21
2256.8008
  0
LINE
  8
1-2
  6
CONTINUOUS
 62
    3
 10
582.25918
 20
2256.8008
 11
583.33483
 21
2256.702
  0
LINE
  8
1-2
  6
CONTINUOUS
 62
    3
 10
583.33483
 20
2217.7019
 11
582.25918
 21
2217.6032
  0
LINE
  8
1-2
  6
CONTINUOUS
 62
    3
 10
582.25918
 20
2217.6032
 11
581.21621
 21
2217.3099
  0
LINE
  8
1-2
  6
CONTINUOUS
 62
    3
 10
581.21621
 20
2217.3099
 11
580.23761
 21
2216.8311
  0
LINE
  8
1-2
  6
CONTINUOUS
 62
    3
 10
580.23761
 20
2216.8311
 11
579.35312
 21
2216.1812
  0
LINE
  8
1-2
  6
CONTINUOUS
 62
    3
 10
579.35312
 20
2216.1812
 11
578.58961
 21
2215.3801
  0
LINE
  8
1-2
  6
CONTINUOUS
 62
    3
 10
578.58961
 20
2215.3801
 11
577.97029
 21
2214.452
  0
LINE
  8
1-2
  6
CONTINUOUS
 62
    3
 10
577.97029
 20
2214.452
 11
577.51396
 21
2213.4251
  0
LINE
  8
1-2
  6
CONTINUOUS
 62
    3
 10
577.51396
 20
2213.4251
 11
577.2345
 21
2212.3307
  0
LINE
  8
1-2
  6
CONTINUOUS
 62
    3
 10
577.2345
 20
2212.3307
 11
577.14039
 21
2211.202
  0
LINE
  8
1-2
  6
CONTINUOUS
 62
    3
 10
577.14039
 20
2211.202
 11
577.2345
 21
2210.0733
  0
LINE
  8
1-2
  6
CONTINUOUS
 62
    3
 10
577.2345
 20
2210.0733
 11
577.51396
 21
2208.9789
  0
LINE
  8
1-2
  6
CONTINUOUS
 62
    3
 10
577.51396
 20
2208.9789
 11
577.97029
 21
2207.952
  0
LINE
  8
1-2
  6
CONTINUOUS
 62
    3
 10
577.97029
 20
2207.952
 11
578.58961
 21
2207.0239
  0
LINE
  8
1-2
  6
CONTINUOUS
 62
    3
 10
578.58961
 20
2207.0239
 11
579.35312
 21
2206.2228
  0
LINE
  8
1-2
  6
CONTINUOUS
 62
    3
 10
579.35312
 20
2206.2228
 11
580.23761
 21
2205.5729
  0
LINE
  8
1-2
  6
CONTINUOUS
 62
    3
 10
580.23761
 20
2205.5729
 11
581.21621
 21
2205.0941
  0
LINE
  8
1-2
  6
CONTINUOUS
 62
    3
 10
581.21621
 20
2205.0941
 11
582.25918
 21
2204.8008
  0
LINE
  8
1-2
  6
CONTINUOUS
 62
    3
 10
582.25918
 20
2204.8008
 11
583.33483
 21
2204.7021
  0
LINE
  8
1-2
  6
CONTINUOUS
 62
    3
 10
745.00014
 20
2076.3685
 11
743.92449
 21
2076.2698
  0
LINE
  8
1-2
  6
CONTINUOUS
 62
    3
 10
743.92449
 20
2076.2698
 11
742.88152
 21
2075.9765
  0
LINE
  8
1-2
  6
CONTINUOUS
 62
    3
 10
742.88152
 20
2075.9765
 11
741.90292
 21
2075.4977
  0
LINE
  8
1-2
  6
CONTINUOUS
 62
    3
 10
741.90292
 20
2075.4977
 11
741.01843
 21
2074.8478
  0
LINE
  8
1-2
  6
CONTINUOUS
 62
    3
 10
741.01843
 20
2074.8478
 11
740.25493
 21
2074.0466
  0
LINE
  8
1-2
  6
CONTINUOUS
 62
    3
 10
740.25493
 20
2074.0466
 11
739.6356
 21
2073.1185
  0
LINE
  8
1-2
  6
CONTINUOUS
 62
    3
 10
739.6356
 20
2073.1185
 11
739.17927
 21
2072.0917
  0
LINE
  8
1-2
  6
CONTINUOUS
 62
    3
 10
739.17927
 20
2072.0917
 11
738.89981
 21
2070.9973
  0
LINE
  8
1-2
  6
CONTINUOUS
 62
    3
 10
738.89981
 20
2070.9973
 11
738.8057
 21
2069.8686
  0
LINE
  8
1-2
  6
CONTINUOUS
 62
    3
 10
738.8057
 20
2069.8686
 11
738.89981
 21
2068.7399
  0
LINE
  8
1-2
  6
CONTINUOUS
 62
    3
 10
738.89981
 20
2068.7399
 11
739.17927
 21
2067.6455
  0
LINE
  8
1-2
  6
CONTINUOUS
 62
    3
 10
739.17927
 20
2067.6455
 11
739.6356
 21
2066.6186
  0
LINE
  8
1-2
  6
CONTINUOUS
 62
    3
 10
739.6356
 20
2066.6186
 11
740.25493
 21
2065.6905
  0
LINE
  8
1-2
  6
CONTINUOUS
 62
    3
 10
740.25493
 20
2065.6905
 11
741.01843
 21
2064.8893
  0
LINE
  8
1-2
  6
CONTINUOUS
 62
    3
 10
741.01843
 20
2064.8893
 11
741.90292
 21
2064.2395
  0
LINE
  8
1-2
  6
CONTINUOUS
 62
    3
 10
741.90292
 20
2064.2395
 11
742.88152
 21
2063.7606
  0
LINE
  8
1-2
  6
CONTINUOUS
 62
    3
 10
742.88152
 20
2063.7606
 11
743.92449
 21
2063.4674
  0
LINE
  8
1-2
  6
CONTINUOUS
 62
    3
 10
743.92449
 20
2063.4674
 11
745.00014
 21
2063.3686
  0
LINE
  8
1-2
  6
CONTINUOUS
 62
    3
 10
745.00014
 20
2024.3685
 11
743.92449
 21
2024.2698
  0
LINE
  8
1-2
  6
CONTINUOUS
 62
    3
 10
743.92449
 20
2024.2698
 11
742.88152
 21
2023.9765
  0
LINE
  8
1-2
  6
CONTINUOUS
 62
    3
 10
742.88152
 20
2023.9765
 11
741.90292
 21
2023.4977
  0
LINE
  8
1-2
  6
CONTINUOUS
 62
    3
 10
741.90292
 20
2023.4977
 11
741.01843
 21
2022.8478
  0
LINE
  8
1-2
  6
CONTINUOUS
 62
    3
 10
741.01843
 20
2022.8478
 11
740.25493
 21
2022.0467
  0
LINE
  8
1-2
  6
CONTINUOUS
 62
    3
 10
740.25493
 20
2022.0467
 11
739.6356
 21
2021.1186
  0
LINE
  8
1-2
  6
CONTINUOUS
 62
    3
 10
739.6356
 20
2021.1186
 11
739.17927
 21
2020.0917
  0
LINE
  8
1-2
  6
CONTINUOUS
 62
    3
 10
739.17927
 20
2020.0917
 11
738.89981
 21
2018.9973
  0
LINE
  8
1-2
  6
CONTINUOUS
 62
    3
 10
738.89981
 20
2018.9973
 11
738.8057
 21
2017.8686
  0
LINE
  8
1-2
  6
CONTINUOUS
 62
    3
 10
738.8057
 20
2017.8686
 11
738.89981
 21
2016.7399
  0
LINE
  8
1-2
  6
CONTINUOUS
 62
    3
 10
738.89981
 20
2016.7399
 11
739.17927
 21
2015.6455
  0
LINE
  8
1-2
  6
CONTINUOUS
 62
    3
 10
739.17927
 20
2015.6455
 11
739.6356
 21
2014.6186
  0
LINE
  8
1-2
  6
CONTINUOUS
 62
    3
 10
739.6356
 20
2014.6186
 11
740.25493
 21
2013.6905
  0
LINE
  8
1-2
  6
CONTINUOUS
 62
    3
 10
740.25493
 20
2013.6905
 11
741.01843
 21
2012.8894
  0
LINE
  8
1-2
  6
CONTINUOUS
 62
    3
 10
741.01843
 20
2012.8894
 11
741.90292
 21
2012.2395
  0
LINE
  8
1-2
  6
CONTINUOUS
 62
    3
 10
741.90292
 20
2012.2395
 11
742.88152
 21
2011.7606
  0
LINE
  8
1-2
  6
CONTINUOUS
 62
    3
 10
742.88152
 20
2011.7606
 11
743.92449
 21
2011.4674
  0
LINE
  8
1-2
  6
CONTINUOUS
 62
    3
 10
743.92449
 20
2011.4674
 11
745.00014
 21
2011.3687
  0
LINE
  8
1-2
  6
CONTINUOUS
 62
    3
 10
1516.6652
 20
2256.702
 11
1517.7409
 21
2256.8008
  0
LINE
  8
1-2
  6
CONTINUOUS
 62
    3
 10
1517.7409
 20
2256.8008
 11
1518.7838
 21
2257.094
  0
LINE
  8
1-2
  6
CONTINUOUS
 62
    3
 10
1518.7838
 20
2257.094
 11
1519.7624
 21
2257.5729
  0
LINE
  8
1-2
  6
CONTINUOUS
 62
    3
 10
1519.7624
 20
2257.5729
 11
1520.6469
 21
2258.2227
  0
LINE
  8
1-2
  6
CONTINUOUS
 62
    3
 10
1520.6469
 20
2258.2227
 11
1521.4104
 21
2259.0239
  0
LINE
  8
1-2
  6
CONTINUOUS
 62
    3
 10
1521.4104
 20
2259.0239
 11
1522.0298
 21
2259.952
  0
LINE
  8
1-2
  6
CONTINUOUS
 62
    3
 10
1522.0298
 20
2259.952
 11
1522.4861
 21
2260.9789
  0
LINE
  8
1-2
  6
CONTINUOUS
 62
    3
 10
1522.4861
 20
2260.9789
 11
1522.7656
 21
2262.0733
  0
LINE
  8
1-2
  6
CONTINUOUS
 62
    3
 10
1522.7656
 20
2262.0733
 11
1522.8597
 21
2263.202
  0
LINE
  8
1-2
  6
CONTINUOUS
 62
    3
 10
1522.8597
 20
2263.202
 11
1522.7656
 21
2264.3307
  0
LINE
  8
1-2
  6
CONTINUOUS
 62
    3
 10
1522.7656
 20
2264.3307
 11
1522.4861
 21
2265.4251
  0
LINE
  8
1-2
  6
CONTINUOUS
 62
    3
 10
1522.4861
 20
2265.4251
 11
1522.0298
 21
2266.4519
  0
LINE
  8
1-2
  6
CONTINUOUS
 62
    3
 10
1522.0298
 20
2266.4519
 11
1521.4104
 21
2267.38
  0
LINE
  8
1-2
  6
CONTINUOUS
 62
    3
 10
1521.4104
 20
2267.38
 11
1520.6469
 21
2268.1812
  0
LINE
  8
1-2
  6
CONTINUOUS
 62
    3
 10
1520.6469
 20
2268.1812
 11
1519.7624
 21
2268.8311
  0
LINE
  8
1-2
  6
CONTINUOUS
 62
    3
 10
1519.7624
 20
2268.8311
 11
1518.7838
 21
2269.3099
  0
LINE
  8
1-2
  6
CONTINUOUS
 62
    3
 10
1518.7838
 20
2269.3099
 11
1517.7409
 21
2269.6032
  0
LINE
  8
1-2
  6
CONTINUOUS
 62
    3
 10
1517.7409
 20
2269.6032
 11
1516.6652
 21
2269.7019
  0
LINE
  8
1-2
  6
CONTINUOUS
 62
    3
 10
1516.6652
 20
2204.7021
 11
1517.7409
 21
2204.8008
  0
LINE
  8
1-2
  6
CONTINUOUS
 62
    3
 10
1517.7409
 20
2204.8008
 11
1518.7838
 21
2205.0941
  0
LINE
  8
1-2
  6
CONTINUOUS
 62
    3
 10
1518.7838
 20
2205.0941
 11
1519.7624
 21
2205.5729
  0
LINE
  8
1-2
  6
CONTINUOUS
 62
    3
 10
1519.7624
 20
2205.5729
 11
1520.6469
 21
2206.2228
  0
LINE
  8
1-2
  6
CONTINUOUS
 62
    3
 10
1520.6469
 20
2206.2228
 11
1521.4104
 21
2207.0239
  0
LINE
  8
1-2
  6
CONTINUOUS
 62
    3
 10
1521.4104
 20
2207.0239
 11
1522.0298
 21
2207.952
  0
LINE
  8
1-2
  6
CONTINUOUS
 62
    3
 10
1522.0298
 20
2207.952
 11
1522.4861
 21
2208.9789
  0
LINE
  8
1-2
  6
CONTINUOUS
 62
    3
 10
1522.4861
 20
2208.9789
 11
1522.7656
 21
2210.0733
  0
LINE
  8
1-2
  6
CONTINUOUS
 62
    3
 10
1522.7656
 20
2210.0733
 11
1522.8597
 21
2211.202
  0
LINE
  8
1-2
  6
CONTINUOUS
 62
    3
 10
1522.8597
 20
2211.202
 11
1522.7656
 21
2212.3307
  0
LINE
  8
1-2
  6
CONTINUOUS
 62
    3
 10
1522.7656
 20
2212.3307
 11
1522.4861
 21
2213.4251
  0
LINE
  8
1-2
  6
CONTINUOUS
 62
    3
 10
1522.4861
 20
2213.4251
 11
1522.0298
 21
2214.452
  0
LINE
  8
1-2
  6
CONTINUOUS
 62
    3
 10
1522.0298
 20
2214.452
 11
1521.4104
 21
2215.3801
  0
LINE
  8
1-2
  6
CONTINUOUS
 62
    3
 10
1521.4104
 20
2215.3801
 11
1520.6469
 21
2216.1812
  0
LINE
  8
1-2
  6
CONTINUOUS
 62
    3
 10
1520.6469
 20
2216.1812
 11
1519.7624
 21
2216.8311
  0
LINE
  8
1-2
  6
CONTINUOUS
 62
    3
 10
1519.7624
 20
2216.8311
 11
1518.7838
 21
2217.3099
  0
LINE
  8
1-2
  6
CONTINUOUS
 62
    3
 10
1518.7838
 20
2217.3099
 11
1517.7409
 21
2217.6032
  0
LINE
  8
1-2
  6
CONTINUOUS
 62
    3
 10
1517.7409
 20
2217.6032
 11
1516.6652
 21
2217.7019
  0
LINE
  8
1-2
  6
CONTINUOUS
 62
    3
 10
1354.9999
 20
2063.3686
 11
1356.0756
 21
2063.4674
  0
LINE
  8
1-2
  6
CONTINUOUS
 62
    3
 10
1356.0756
 20
2063.4674
 11
1357.1185
 21
2063.7606
  0
LINE
  8
1-2
  6
CONTINUOUS
 62
    3
 10
1357.1185
 20
2063.7606
 11
1358.0971
 21
2064.2395
  0
LINE
  8
1-2
  6
CONTINUOUS
 62
    3
 10
1358.0971
 20
2064.2395
 11
1358.9816
 21
2064.8893
  0
LINE
  8
1-2
  6
CONTINUOUS
 62
    3
 10
1358.9816
 20
2064.8893
 11
1359.7451
 21
2065.6905
  0
LINE
  8
1-2
  6
CONTINUOUS
 62
    3
 10
1359.7451
 20
2065.6905
 11
1360.3645
 21
2066.6186
  0
LINE
  8
1-2
  6
CONTINUOUS
 62
    3
 10
1360.3645
 20
2066.6186
 11
1360.8208
 21
2067.6455
  0
LINE
  8
1-2
  6
CONTINUOUS
 62
    3
 10
1360.8208
 20
2067.6455
 11
1361.1002
 21
2068.7399
  0
LINE
  8
1-2
  6
CONTINUOUS
 62
    3
 10
1361.1002
 20
2068.7399
 11
1361.1943
 21
2069.8686
  0
LINE
  8
1-2
  6
CONTINUOUS
 62
    3
 10
1361.1943
 20
2069.8686
 11
1361.1002
 21
2070.9973
  0
LINE
  8
1-2
  6
CONTINUOUS
 62
    3
 10
1361.1002
 20
2070.9973
 11
1360.8208
 21
2072.0917
  0
LINE
  8
1-2
  6
CONTINUOUS
 62
    3
 10
1360.8208
 20
2072.0917
 11
1360.3645
 21
2073.1185
  0
LINE
  8
1-2
  6
CONTINUOUS
 62
    3
 10
1360.3645
 20
2073.1185
 11
1359.7451
 21
2074.0466
  0
LINE
  8
1-2
  6
CONTINUOUS
 62
    3
 10
1359.7451
 20
2074.0466
 11
1358.9816
 21
2074.8478
  0
LINE
  8
1-2
  6
CONTINUOUS
 62
    3
 10
1358.9816
 20
2074.8478
 11
1358.0971
 21
2075.4977
  0
LINE
  8
1-2
  6
CONTINUOUS
 62
    3
 10
1358.0971
 20
2075.4977
 11
1357.1185
 21
2075.9765
  0
LINE
  8
1-2
  6
CONTINUOUS
 62
    3
 10
1357.1185
 20
2075.9765
 11
1356.0756
 21
2076.2698
  0
LINE
  8
1-2
  6
CONTINUOUS
 62
    3
 10
1356.0756
 20
2076.2698
 11
1354.9999
 21
2076.3685
  0
LINE
  8
1-2
  6
CONTINUOUS
 62
    3
 10
1354.9999
 20
2011.3687
 11
1356.0756
 21
2011.4674
  0
LINE
  8
1-2
  6
CONTINUOUS
 62
    3
 10
1356.0756
 20
2011.4674
 11
1357.1185
 21
2011.7606
  0
LINE
  8
1-2
  6
CONTINUOUS
 62
    3
 10
1357.1185
 20
2011.7606
 11
1358.0971
 21
2012.2395
  0
LINE
  8
1-2
  6
CONTINUOUS
 62
    3
 10
1358.0971
 20
2012.2395
 11
1358.9816
 21
2012.8894
  0
LINE
  8
1-2
  6
CONTINUOUS
 62
    3
 10
1358.9816
 20
2012.8894
 11
1359.7451
 21
2013.6905
  0
LINE
  8
1-2
  6
CONTINUOUS
 62
    3
 10
1359.7451
 20
2013.6905
 11
1360.3645
 21
2014.6186
  0
LINE
  8
1-2
  6
CONTINUOUS
 62
    3
 10
1360.3645
 20
2014.6186
 11
1360.8208
 21
2015.6455
  0
LINE
  8
1-2
  6
CONTINUOUS
 62
    3
 10
1360.8208
 20
2015.6455
 11
1361.1002
 21
2016.7399
  0
LINE
  8
1-2
  6
CONTINUOUS
 62
    3
 10
1361.1002
 20
2016.7399
 11
1361.1943
 21
2017.8686
  0
LINE
  8
1-2
  6
CONTINUOUS
 62
    3
 10
1361.1943
 20
2017.8686
 11
1361.1002
 21
2018.9973
  0
LINE
  8
1-2
  6
CONTINUOUS
 62
    3
 10
1361.1002
 20
2018.9973
 11
1360.8208
 21
2020.0917
  0
LINE
  8
1-2
  6
CONTINUOUS
 62
    3
 10
1360.8208
 20
2020.0917
 11
1360.3645
 21
2021.1186
  0
LINE
  8
1-2
  6
CONTINUOUS
 62
    3
 10
1360.3645
 20
2021.1186
 11
1359.7451
 21
2022.0467
  0
LINE
  8
1-2
  6
CONTINUOUS
 62
    3
 10
1359.7451
 20
2022.0467
 11
1358.9816
 21
2022.8478
  0
LINE
  8
1-2
  6
CONTINUOUS
 62
    3
 10
1358.9816
 20
2022.8478
 11
1358.0971
 21
2023.4977
  0
LINE
  8
1-2
  6
CONTINUOUS
 62
    3
 10
1358.0971
 20
2023.4977
 11
1357.1185
 21
2023.9765
  0
LINE
  8
1-2
  6
CONTINUOUS
 62
    3
 10
1357.1185
 20
2023.9765
 11
1356.0756
 21
2024.2698
  0
LINE
  8
1-2
  6
CONTINUOUS
 62
    3
 10
1356.0756
 20
2024.2698
 11
1354.9999
 21
2024.3685
  0
TEXT
  8
1-d
 10
254.9998
 20
157.4999
 40
25
 41
1
 50
0
  1
図
  0
TEXT
  8
1-d
 10
254.9998
 20
97.49997
 40
25
 41
1
 50
0
  1
番
  0
TEXT
  8
1-d
 10
655.00046
 20
157.4999
 40
25
 41
1
 50
0
  1
承
  0
TEXT
  8
1-d
 10
655.00046
 20
97.49997
 40
25
 41
1
 50
0
  1
認
  0
TEXT
  8
1-d
 10
1020.0003
 20
237.49996
 40
25
 41
1
 50
0
  1
尺
  0
TEXT
  8
1-d
 10
1020.0003
 20
197.49979
 40
25
 41
1
 50
0.0000762
  1
度
  0
TEXT
  8
1-d
 10
855.00014
 20
157.4999
 40
25
 41
1
 50
0
  1
製
  0
TEXT
  8
1-d
 10
855.00014
 20
97.49997
 40
25
 41
1
 50
0
  1
図
  0
TEXT
  8
1-d
 10
1555.0001
 20
237.49996
 40
25
 41
1
 50
0
  1
日
  0
TEXT
  8
1-d
 10
1555.0001
 20
197.49979
 40
25
 41
1
 50
0.0000762
  1
付
  0
TEXT
  8
1-d
 10
1111.4263
 20
163.48226
 40
20
 41
1
 50
0
  1
株式
  0
TEXT
  8
1-d
 10
1111.4263
 20
141.85181
 40
20
 41
1
 50
0.0000152
  1
会社
  0
TEXT
  8
1-d
 10
1174.2247
 20
143.24712
 40
40
 41
1
 50
0
  1
スズキベンチレーター
  0
TEXT
  8
1-d
 10
1237.9182
 20
94.024183
 40
20
 41
1
 50
0
  1
TEL(054)296-7000  FAX(054)296-7001
  0
TEXT
  8
1-d
 10
1084.349
 20
210.10066
 40
40
 41
1
 50
0
  1
１／１５
  0
TEXT
  8
1-8
 10
1003.8496
 20
1896.9923
 40
30
 41
1
 50
0
  1
915φ
  0
TEXT
  8
1-8
 10
280.0889
 20
2196.1173
 40
30
 41
1
 50
90
  1
780
  0
TEXT
  8
1-8
 10
1002.2974
 20
2674.4598
 40
30
 41
1
 50
0
  1
1,400
  0
TEXT
  8
1-8
 10
1798.8795
 20
2044.2848
 40
30
 41
1
 50
90
  1
290
  0
TEXT
  8
1-8
 10
1798.8795
 20
2272.2857
 40
30
 41
1
 50
90
  1
330
  0
TEXT
  8
1-8
 10
1798.8795
 20
2423.4519
 40
30
 41
1
 50
90
  1
160
  0
TEXT
  8
1-d
 10
269.15527
 20
2786.1124
 40
50
 41
1
 50
0
  1
ＳＴ－９０　直付型立面
  0
TEXT
  8
1-d
 10
265.86819
 20
212.66462
 40
30
 41
1
 50
0
  1
ＳＴ－９０　直付型立面
  0
TEXT
  8
1-d
 10
308.45927
 20
140.30214
 40
30
 41
1
 50
0
  1
90-F02a
  0
TEXT
  8
1-d
 10
1235.6794
 20
118.64593
 40
20
 41
1
 50
0
  1
〒421-2114　静岡市葵区安倍口新田１５２番地
  0
POINT
  8
1-8
 62
    2
 10
325.51675
 20
1981.0347
  0
POINT
  8
1-8
 62
    2
 10
325.51675
 20
2501.035
  0
POINT
  8
1-8
 62
    2
 10
583.33483
 20
2660.5287
  0
POINT
  8
1-8
 62
    2
 10
1516.6665
 20
2660.5287
  0
POINT
  8
1-8
 62
    2
 10
745.00014
 20
1859.8243
  0
POINT
  8
1-8
 62
    2
 10
1355.0002
 20
1859.8243
  0
POINT
  8
1-8
 62
    2
 10
1808.8795
 20
1981.0352
  0
POINT
  8
1-8
 62
    2
 10
1808.8795
 20
2174.3683
  0
POINT
  8
1-8
 62
    2
 10
1808.8795
 20
2394.3683
  0
POINT
  8
1-8
 62
    2
 10
1808.8795
 20
2501.035
  0
ENDSEC
  0
EOF
