  0
SECTION
  2
HEADER
  9
$EXTMIN
 10
0
 20
0
  9
$EXTMAX
 10
4200
 20
2970
  0
ENDSEC
  0
SECTION
  2
TABLES
  0
TABLE
  2
LTYPE
 70
     9
  0
LTYPE
  2
CONTINUOUS
 70
    64
  3
実線
 72
    65
 73
     0
 40
0.0
  0
LTYPE
  2
DASHED1
 70
    64
  3
--  --  --  --  --  --  --  --  
 72
    65
 73
     2
 40
2.5
 49
1.25
 49
-1.25
  0
LTYPE
  2
DASHED2
 70
    64
  3
----    ----    ----    ----    
 72
    65
 73
     2
 40
5.0
 49
2.5
 49
-2.5
  0
LTYPE
  2
DASHED3
 70
    64
  3
------  ------  ------  ------  
 72
    65
 73
     2
 40
5.0
 49
3.75
 49
-1.25
  0
LTYPE
  2
CENTER1
 70
    64
  3
----- - ----- - ----- - ----- - 
 72
    65
 73
     4
 40
10.0
 49
6.25
 49
-1.25
 49
1.25
 49
-1.25
  0
LTYPE
  2
CENTER2
 70
    64
  3
----------  --  ----------  --  
 72
    65
 73
     4
 40
20.0
 49
12.5
 49
-2.5
 49
2.5
 49
-2.5
  0
LTYPE
  2
PHANTOM1
 70
    64
  3
--- - - --- - - --- - - --- - - 
 72
    65
 73
     6
 40
10.0
 49
3.25
 49
-1.25
 49
1.25
 49
-1.25
 49
1.25
 49
-1.25
  0
LTYPE
  2
PHANTOM2
 70
    64
  3
--------  -  -  --------  -  -  
 72
    65
 73
     6
 40
20.0
 49
10.0
 49
-2.5
 49
1.25
 49
-2.5
 49
1.25
 49
-2.5
  0
LTYPE
  2
DOT
 70
    64
  3
-   -   -   -   -   -   -   -   
 72
    65
 73
     2
 40
2.5
 49
0.625
 49
-1.875
  0
ENDTAB
  0
TABLE
  2
STYLE
 70
    1
  0
STYLE
  2
STANDARD
 70
    64
 40
0.0
 41
1.0
 42
0.0
 50
0.0
 71
     0
  3
TXT
  4
BIGFONT
  0
ENDTAB
  0
TABLE
  2
LAYER
 70
    6
  0
LAYER
  2
1-1
 70
   64
 62
    7
  6
CONTINUOUS
  0
LAYER
  2
1-2
 70
   64
 62
    7
  6
CONTINUOUS
  0
LAYER
  2
1-5
 70
   64
 62
    7
  6
CONTINUOUS
  0
LAYER
  2
1-8
 70
   64
 62
    7
  6
CONTINUOUS
  0
LAYER
  2
1-d
 70
   64
 62
    7
  6
CONTINUOUS
  0
LAYER
  2
ADD_LINE
 70
   64
 62
    7
  6
CONTINUOUS
  0
ENDTAB
  0
ENDSEC
  0
SECTION
  2
ENTITIES
  0
LINE
  8
1-d
  6
CONTINUOUS
 62
    7
 10
250.00006
 20
2757.7013
 11
1850.0001
 21
2757.7013
  0
LINE
  8
1-d
  6
CONTINUOUS
 62
    7
 10
250.00006
 20
2767.7016
 11
1850.0001
 21
2767.7016
  0
LINE
  8
1-d
  6
CONTINUOUS
 62
    7
 10
249.99969
 20
189.99989
 11
1850.0005
 21
189.99989
  0
LINE
  8
1-d
  6
CONTINUOUS
 62
    7
 10
249.99969
 20
89.999806
 11
249.99969
 21
269.99991
  0
LINE
  8
1-d
  6
CONTINUOUS
 62
    7
 10
249.99969
 20
89.999806
 11
1850.0005
 21
89.999806
  0
LINE
  8
1-d
  6
CONTINUOUS
 62
    7
 10
1850.0005
 20
269.99991
 11
1850.0005
 21
89.999806
  0
LINE
  8
1-d
  6
CONTINUOUS
 62
    7
 10
249.99969
 20
269.99991
 11
1850.0005
 21
269.99991
  0
LINE
  8
1-d
  6
CONTINUOUS
 62
    7
 10
1050
 20
269.99991
 11
1050
 21
89.999806
  0
LINE
  8
1-d
  6
CONTINUOUS
 62
    7
 10
650.00019
 20
89.999806
 11
650.00019
 21
189.99989
  0
LINE
  8
1-d
  6
CONTINUOUS
 62
    7
 10
1050
 20
189.99989
 11
1050
 21
269.99991
  0
LINE
  8
1-d
  6
CONTINUOUS
 62
    7
 10
849.99981
 20
89.999806
 11
849.99981
 21
189.99989
  0
LINE
  8
1-d
  6
CONTINUOUS
 62
    7
 10
285.00002
 20
89.999806
 11
285.00002
 21
189.99989
  0
LINE
  8
1-d
  6
CONTINUOUS
 62
    7
 10
685.00006
 20
89.999806
 11
685.00006
 21
189.99989
  0
LINE
  8
1-d
  6
CONTINUOUS
 62
    7
 10
885.00018
 20
89.999806
 11
885.00018
 21
189.99989
  0
LINE
  8
1-d
  6
CONTINUOUS
 62
    7
 10
1015
 20
189.99989
 11
1015
 21
269.99991
  0
LINE
  8
1-d
  6
CONTINUOUS
 62
    7
 10
1550.0004
 20
189.99989
 11
1550.0004
 21
269.99991
  0
LINE
  8
1-d
  6
CONTINUOUS
 62
    7
 10
1585.0002
 20
189.99989
 11
1585.0002
 21
269.99991
  0
LINE
  8
1-8
  6
CONTINUOUS
 62
    7
 10
316.66706
 20
1917.2613
 11
316.66706
 21
2503.928
  0
LINE
  8
1-8
  6
CONTINUOUS
 62
    7
 10
673.33451
 20
1917.2613
 11
316.66706
 21
1917.2613
  0
LINE
  8
1-8
  6
CONTINUOUS
 62
    7
 10
683.33331
 20
2620.2804
 11
1416.6667
 21
2620.2804
  0
LINE
  8
1-8
  6
CONTINUOUS
 62
    7
 10
795.00006
 20
1692.0925
 11
1305
 21
1692.0925
  0
LINE
  8
1-8
  6
CONTINUOUS
 62
    7
 10
795.00006
 20
1861.8397
 11
795.00006
 21
1692.0925
  0
LINE
  8
1-8
  6
CONTINUOUS
 62
    7
 10
1305
 20
1861.8397
 11
1305
 21
1692.0925
  0
LINE
  8
1-8
  6
CONTINUOUS
 62
    7
 10
683.33331
 20
2461.1756
 11
683.33331
 21
2620.2804
  0
LINE
  8
1-8
  6
CONTINUOUS
 62
    7
 10
783.40293
 20
2503.928
 11
316.66706
 21
2503.928
  0
LINE
  8
1-2
  6
CONTINUOUS
 62
    3
 10
683.33331
 20
2080.5948
 11
683.33331
 21
2050.5947
  0
LINE
  8
1-2
  6
CONTINUOUS
 62
    3
 10
683.33331
 20
2040.5951
 11
683.33331
 21
2017.2614
  0
LINE
  8
1-2
  6
CONTINUOUS
 62
    3
 10
1416.6667
 20
2080.5948
 11
1416.6667
 21
2050.5947
  0
LINE
  8
1-2
  6
CONTINUOUS
 62
    3
 10
1416.6658
 20
2040.5951
 11
1416.6658
 21
2017.2614
  0
LINE
  8
1-2
  6
CONTINUOUS
 62
    3
 10
795.00006
 20
1980.5947
 11
1305
 21
1980.5947
  0
LINE
  8
1-2
  6
CONTINUOUS
 62
    3
 10
795.00006
 20
1990.5945
 11
1305
 21
1990.5945
  0
LINE
  8
1-2
  6
CONTINUOUS
 62
    3
 10
795.00006
 20
1950.5949
 11
1305
 21
1950.5949
  0
LINE
  8
1-2
  6
CONTINUOUS
 62
    3
 10
795.00006
 20
1980.5947
 11
795.00006
 21
1950.5949
  0
LINE
  8
1-2
  6
CONTINUOUS
 62
    3
 10
795.00006
 20
1917.2615
 11
1305
 21
1917.2615
  0
LINE
  8
1-2
  6
CONTINUOUS
 62
    3
 10
795.00006
 20
1940.5949
 11
1305
 21
1940.5949
  0
LINE
  8
1-2
  6
CONTINUOUS
 62
    3
 10
1305
 20
1940.5949
 11
1305
 21
1917.2615
  0
LINE
  8
1-2
  6
CONTINUOUS
 62
    3
 10
1305
 20
1980.5947
 11
1305
 21
1950.5949
  0
LINE
  8
1-2
  6
CONTINUOUS
 62
    3
 10
795.00006
 20
2017.2617
 11
795.00006
 21
1990.5945
  0
LINE
  8
1-2
  6
CONTINUOUS
 62
    3
 10
795.00006
 20
1940.5949
 11
795.00006
 21
1917.2615
  0
LINE
  8
1-2
  6
CONTINUOUS
 62
    3
 10
683.33331
 20
2363.9283
 11
683.33331
 21
2393.9284
  0
LINE
  8
1-2
  6
CONTINUOUS
 62
    3
 10
1416.6667
 20
2363.9283
 11
1416.6667
 21
2393.9284
  0
LINE
  8
1-2
  6
CONTINUOUS
 62
    3
 10
683.33331
 20
2353.9283
 11
683.33331
 21
2090.5949
  0
LINE
  8
1-2
  6
CONTINUOUS
 62
    3
 10
1416.6667
 20
2353.9283
 11
1416.6667
 21
2090.5949
  0
LINE
  8
1-2
  6
CONTINUOUS
 62
    3
 10
1050
 20
2503.928
 11
876.79489
 21
2403.9279
  0
LINE
  8
1-2
  6
CONTINUOUS
 62
    3
 10
1305
 20
2273.9282
 11
1305
 21
2297.2616
  0
LINE
  8
1-2
  6
CONTINUOUS
 62
    3
 10
1305
 20
2233.9284
 11
1305
 21
2263.9282
  0
LINE
  8
1-2
  6
CONTINUOUS
 62
    3
 10
1050
 20
2297.2616
 11
1305
 21
2297.2616
  0
LINE
  8
1-2
  6
CONTINUOUS
 62
    3
 10
1050
 20
2273.9282
 11
1305
 21
2273.9282
  0
LINE
  8
1-2
  6
CONTINUOUS
 62
    3
 10
1050
 20
2263.9282
 11
1305
 21
2263.9282
  0
LINE
  8
1-2
  6
CONTINUOUS
 62
    3
 10
1050
 20
2233.9284
 11
1305
 21
2233.9284
  0
LINE
  8
1-2
  6
CONTINUOUS
 62
    3
 10
683.33331
 20
2403.9279
 11
1050
 21
2403.9279
  0
LINE
  8
1-2
  6
CONTINUOUS
 62
    3
 10
683.33331
 20
2393.9284
 11
1050
 21
2393.9284
  0
LINE
  8
1-2
  6
CONTINUOUS
 62
    3
 10
683.33331
 20
2353.9283
 11
1050
 21
2353.9283
  0
LINE
  8
1-2
  6
CONTINUOUS
 62
    3
 10
683.33331
 20
2363.9283
 11
1050
 21
2363.9283
  0
LINE
  8
1-2
  6
CONTINUOUS
 62
    3
 10
1223.2053
 20
2403.9279
 11
1416.6667
 21
2403.9279
  0
LINE
  8
1-2
  6
CONTINUOUS
 62
    3
 10
1240.5255
 20
2393.9284
 11
1416.6667
 21
2393.9284
  0
LINE
  8
1-2
  6
CONTINUOUS
 62
    3
 10
1292.4867
 20
2363.9283
 11
1416.6667
 21
2363.9283
  0
LINE
  8
1-2
  6
CONTINUOUS
 62
    3
 10
1309.8073
 20
2353.9283
 11
1416.6667
 21
2353.9283
  0
LINE
  8
1-2
  6
CONTINUOUS
 62
    3
 10
1050
 20
2223.9286
 11
1305
 21
2223.9286
  0
LINE
  8
1-2
  6
CONTINUOUS
 62
    3
 10
1305
 20
2223.9286
 11
1305
 21
1990.5945
  0
LINE
  8
1-2
  6
CONTINUOUS
 62
    3
 10
683.33331
 20
2040.5951
 11
1050
 21
2040.5951
  0
LINE
  8
1-2
  6
CONTINUOUS
 62
    3
 10
683.33331
 20
2050.5947
 11
1050
 21
2050.5947
  0
LINE
  8
1-2
  6
CONTINUOUS
 62
    3
 10
683.33331
 20
2090.5949
 11
1050
 21
2090.5949
  0
LINE
  8
1-2
  6
CONTINUOUS
 62
    3
 10
683.33331
 20
2080.5948
 11
1050
 21
2080.5948
  0
LINE
  8
1-2
  6
CONTINUOUS
 62
    3
 10
683.33331
 20
2017.2614
 11
1050
 21
2017.2614
  0
LINE
  8
1-2
  6
CONTINUOUS
 62
    3
 10
1305
 20
2040.5951
 11
1416.6667
 21
2040.5951
  0
LINE
  8
1-2
  6
CONTINUOUS
 62
    3
 10
1305
 20
2050.5947
 11
1416.6667
 21
2050.5947
  0
LINE
  8
1-2
  6
CONTINUOUS
 62
    3
 10
1305
 20
2090.5949
 11
1416.6667
 21
2090.5949
  0
LINE
  8
1-2
  6
CONTINUOUS
 62
    3
 10
1305
 20
2080.5948
 11
1416.6667
 21
2080.5948
  0
LINE
  8
1-2
  6
CONTINUOUS
 62
    3
 10
1305
 20
2017.2614
 11
1416.6667
 21
2017.2614
  0
LINE
  8
1-5
  6
CONTINUOUS
 62
    3
 10
1305
 20
2356.7038
 11
1050
 21
2356.7038
  0
LINE
  8
1-5
  6
CONTINUOUS
 62
    3
 10
1305
 20
2297.2616
 11
1305
 21
2356.7038
  0
LINE
  8
1-8
  6
CONTINUOUS
 62
    7
 10
1416.6667
 20
2461.1756
 11
1416.6667
 21
2620.2804
  0
LINE
  8
1-1
  6
CENTER2
 62
    7
 10
1050
 20
2503.928
 11
1050
 21
1917.2615
  0
LINE
  8
1-2
  6
CONTINUOUS
 62
    3
 10
1050
 20
2503.928
 11
1351.2425
 21
2330.0058
  0
LINE
  8
1-2
  6
CONTINUOUS
 62
    3
 10
1351.2425
 20
2330.0058
 11
1305
 21
2330.0058
  0
LINE
  8
1-5
  6
CONTINUOUS
 62
    4
 10
1305
 20
2351.7038
 11
1050
 21
2351.7038
  0
LINE
  8
1-5
  6
CONTINUOUS
 62
    4
 10
1305
 20
2346.7038
 11
1050
 21
2346.7038
  0
LINE
  8
1-5
  6
CONTINUOUS
 62
    4
 10
1305
 20
2341.7037
 11
1050
 21
2341.7037
  0
LINE
  8
1-5
  6
CONTINUOUS
 62
    4
 10
1305
 20
2336.7037
 11
1050
 21
2336.7037
  0
LINE
  8
1-5
  6
CONTINUOUS
 62
    4
 10
1305
 20
2331.7037
 11
1050
 21
2331.7037
  0
LINE
  8
1-5
  6
CONTINUOUS
 62
    4
 10
1305
 20
2326.7037
 11
1050
 21
2326.7037
  0
LINE
  8
1-5
  6
CONTINUOUS
 62
    4
 10
1305
 20
2321.7037
 11
1050
 21
2321.7037
  0
LINE
  8
1-5
  6
CONTINUOUS
 62
    4
 10
1305
 20
2316.7039
 11
1050
 21
2316.7039
  0
LINE
  8
1-5
  6
CONTINUOUS
 62
    4
 10
1305
 20
2311.7039
 11
1050
 21
2311.7039
  0
LINE
  8
1-5
  6
CONTINUOUS
 62
    4
 10
1305
 20
2306.7039
 11
1050
 21
2306.7039
  0
LINE
  8
1-5
  6
CONTINUOUS
 62
    4
 10
1305
 20
2301.7039
 11
1050
 21
2301.7039
  0
LINE
  8
1-5
  6
CONTINUOUS
 62
    4
 10
1300
 20
2297.2616
 11
1300
 21
2356.7038
  0
LINE
  8
1-5
  6
CONTINUOUS
 62
    4
 10
1295
 20
2297.2616
 11
1295
 21
2356.7038
  0
LINE
  8
1-5
  6
CONTINUOUS
 62
    4
 10
1289.9999
 20
2297.2616
 11
1289.9999
 21
2356.7038
  0
LINE
  8
1-5
  6
CONTINUOUS
 62
    4
 10
1285
 20
2297.2616
 11
1285
 21
2356.7038
  0
LINE
  8
1-5
  6
CONTINUOUS
 62
    4
 10
1280
 20
2297.2616
 11
1280
 21
2356.7038
  0
LINE
  8
1-5
  6
CONTINUOUS
 62
    4
 10
1275
 20
2297.2616
 11
1275
 21
2356.7038
  0
LINE
  8
1-5
  6
CONTINUOUS
 62
    4
 10
1270
 20
2297.2616
 11
1270
 21
2356.7038
  0
LINE
  8
1-5
  6
CONTINUOUS
 62
    4
 10
1265
 20
2297.2616
 11
1265
 21
2356.7038
  0
LINE
  8
1-5
  6
CONTINUOUS
 62
    4
 10
1260
 20
2297.2616
 11
1260
 21
2356.7038
  0
LINE
  8
1-5
  6
CONTINUOUS
 62
    4
 10
1255.0001
 20
2297.2616
 11
1255.0001
 21
2356.7038
  0
LINE
  8
1-5
  6
CONTINUOUS
 62
    4
 10
1250.0001
 20
2297.2616
 11
1250.0001
 21
2356.7038
  0
LINE
  8
1-5
  6
CONTINUOUS
 62
    4
 10
1245
 20
2297.2616
 11
1245
 21
2356.7038
  0
LINE
  8
1-5
  6
CONTINUOUS
 62
    4
 10
1240
 20
2297.2616
 11
1240
 21
2356.7038
  0
LINE
  8
1-5
  6
CONTINUOUS
 62
    4
 10
1235
 20
2297.2616
 11
1235
 21
2356.7038
  0
LINE
  8
1-5
  6
CONTINUOUS
 62
    4
 10
1230
 20
2297.2616
 11
1230
 21
2356.7038
  0
LINE
  8
1-5
  6
CONTINUOUS
 62
    4
 10
1225.0001
 20
2297.2616
 11
1225.0001
 21
2356.7038
  0
LINE
  8
1-5
  6
CONTINUOUS
 62
    4
 10
1220.0001
 20
2297.2616
 11
1220.0001
 21
2356.7038
  0
LINE
  8
1-5
  6
CONTINUOUS
 62
    4
 10
1215.0001
 20
2297.2616
 11
1215.0001
 21
2356.7038
  0
LINE
  8
1-5
  6
CONTINUOUS
 62
    4
 10
1210
 20
2297.2616
 11
1210
 21
2356.7038
  0
LINE
  8
1-5
  6
CONTINUOUS
 62
    4
 10
1205
 20
2297.2616
 11
1205
 21
2356.7038
  0
LINE
  8
1-5
  6
CONTINUOUS
 62
    4
 10
1200
 20
2297.2616
 11
1200
 21
2356.7038
  0
LINE
  8
1-5
  6
CONTINUOUS
 62
    4
 10
1195.0001
 20
2297.2616
 11
1195.0001
 21
2356.7038
  0
LINE
  8
1-5
  6
CONTINUOUS
 62
    4
 10
1190.0001
 20
2297.2616
 11
1190.0001
 21
2356.7038
  0
LINE
  8
1-5
  6
CONTINUOUS
 62
    4
 10
1185.0001
 20
2297.2616
 11
1185.0001
 21
2356.7038
  0
LINE
  8
1-5
  6
CONTINUOUS
 62
    4
 10
1180.0001
 20
2297.2616
 11
1180.0001
 21
2356.7038
  0
LINE
  8
1-5
  6
CONTINUOUS
 62
    4
 10
1175.0001
 20
2297.2616
 11
1175.0001
 21
2356.7038
  0
LINE
  8
1-5
  6
CONTINUOUS
 62
    4
 10
1170
 20
2297.2616
 11
1170
 21
2356.7038
  0
LINE
  8
1-5
  6
CONTINUOUS
 62
    4
 10
1165.0001
 20
2297.2616
 11
1165.0001
 21
2356.7038
  0
LINE
  8
1-5
  6
CONTINUOUS
 62
    4
 10
1160.0001
 20
2297.2616
 11
1160.0001
 21
2356.7038
  0
LINE
  8
1-5
  6
CONTINUOUS
 62
    4
 10
1155.0001
 20
2297.2616
 11
1155.0001
 21
2356.7038
  0
LINE
  8
1-5
  6
CONTINUOUS
 62
    4
 10
1150.0001
 20
2297.2616
 11
1150.0001
 21
2356.7038
  0
LINE
  8
1-5
  6
CONTINUOUS
 62
    4
 10
1145.0001
 20
2297.2616
 11
1145.0001
 21
2356.7038
  0
LINE
  8
1-5
  6
CONTINUOUS
 62
    4
 10
1140.0001
 20
2297.2616
 11
1140.0001
 21
2356.7038
  0
LINE
  8
1-5
  6
CONTINUOUS
 62
    4
 10
1135.0002
 20
2297.2616
 11
1135.0002
 21
2356.7038
  0
LINE
  8
1-5
  6
CONTINUOUS
 62
    4
 10
1130.0001
 20
2297.2616
 11
1130.0001
 21
2356.7038
  0
LINE
  8
1-5
  6
CONTINUOUS
 62
    4
 10
1125.0001
 20
2297.2616
 11
1125.0001
 21
2356.7038
  0
LINE
  8
1-5
  6
CONTINUOUS
 62
    4
 10
1120.0001
 20
2297.2616
 11
1120.0001
 21
2356.7038
  0
LINE
  8
1-5
  6
CONTINUOUS
 62
    4
 10
1115.0001
 20
2297.2616
 11
1115.0001
 21
2356.7038
  0
LINE
  8
1-5
  6
CONTINUOUS
 62
    4
 10
1110.0001
 20
2297.2616
 11
1110.0001
 21
2356.7038
  0
LINE
  8
1-5
  6
CONTINUOUS
 62
    4
 10
1105.0002
 20
2297.2616
 11
1105.0002
 21
2356.7038
  0
LINE
  8
1-5
  6
CONTINUOUS
 62
    4
 10
1100.0002
 20
2297.2616
 11
1100.0002
 21
2356.7038
  0
LINE
  8
1-5
  6
CONTINUOUS
 62
    4
 10
1095.0002
 20
2297.2616
 11
1095.0002
 21
2356.7038
  0
LINE
  8
1-5
  6
CONTINUOUS
 62
    4
 10
1090.0001
 20
2297.2616
 11
1090.0001
 21
2356.7038
  0
LINE
  8
1-5
  6
CONTINUOUS
 62
    4
 10
1085.0001
 20
2297.2616
 11
1085.0001
 21
2356.7038
  0
LINE
  8
1-5
  6
CONTINUOUS
 62
    4
 10
1080.0001
 20
2297.2616
 11
1080.0001
 21
2356.7038
  0
LINE
  8
1-5
  6
CONTINUOUS
 62
    4
 10
1075.0002
 20
2297.2616
 11
1075.0002
 21
2356.7038
  0
LINE
  8
1-5
  6
CONTINUOUS
 62
    4
 10
1070.0002
 20
2297.2616
 11
1070.0002
 21
2356.7038
  0
LINE
  8
1-5
  6
CONTINUOUS
 62
    4
 10
1065.0002
 20
2297.2616
 11
1065.0002
 21
2356.7038
  0
LINE
  8
1-5
  6
CONTINUOUS
 62
    4
 10
1060.0002
 20
2297.2616
 11
1060.0002
 21
2356.7038
  0
LINE
  8
1-5
  6
CONTINUOUS
 62
    4
 10
1055.0001
 20
2297.2616
 11
1055.0001
 21
2356.7038
  0
ARC
  8
1-2
  6
CONTINUOUS
 62
    3
 10
1416.6667
 20
2085.5946
 40
4.9999345
 50
270
 51
90
  0
ARC
  8
1-2
  6
CONTINUOUS
 62
    3
 10
1416.6667
 20
2045.5951
 40
4.9999345
 50
270
 51
90
  0
ARC
  8
1-2
  6
CONTINUOUS
 62
    3
 10
683.33331
 20
2085.5946
 40
4.9999345
 50
90
 51
270
  0
ARC
  8
1-2
  6
CONTINUOUS
 62
    3
 10
683.33331
 20
2045.5951
 40
4.9999345
 50
90
 51
270
  0
ARC
  8
1-2
  6
CONTINUOUS
 62
    3
 10
1305
 20
1985.5949
 40
4.9999345
 50
270
 51
90
  0
ARC
  8
1-2
  6
CONTINUOUS
 62
    3
 10
1305
 20
1945.5949
 40
4.9999345
 50
270
 51
90
  0
ARC
  8
1-2
  6
CONTINUOUS
 62
    3
 10
795.00006
 20
1985.5949
 40
4.9999345
 50
90
 51
270
  0
ARC
  8
1-2
  6
CONTINUOUS
 62
    3
 10
795.00006
 20
1945.5949
 40
4.9999345
 50
90
 51
270
  0
ARC
  8
1-2
  6
CONTINUOUS
 62
    3
 10
1416.6667
 20
2358.9283
 40
4.9999345
 50
270
 51
90
  0
ARC
  8
1-2
  6
CONTINUOUS
 62
    3
 10
1416.6667
 20
2398.9282
 40
4.9999345
 50
270
 51
90
  0
ARC
  8
1-2
  6
CONTINUOUS
 62
    3
 10
683.33331
 20
2358.9283
 40
4.9999345
 50
90
 51
270
  0
ARC
  8
1-2
  6
CONTINUOUS
 62
    3
 10
683.33331
 20
2398.9282
 40
4.9999345
 50
90
 51
270
  0
ARC
  8
1-2
  6
CONTINUOUS
 62
    3
 10
1305
 20
2228.9283
 40
4.9999345
 50
270
 51
90
  0
ARC
  8
1-2
  6
CONTINUOUS
 62
    3
 10
1305
 20
2268.9282
 40
4.9999345
 50
270
 51
90
  0
TEXT
  8
1-d
 10
254.9998
 20
157.4999
 40
25
 41
1
 50
0
  1
図
  0
TEXT
  8
1-d
 10
254.9998
 20
97.49997
 40
25
 41
1
 50
0
  1
番
  0
TEXT
  8
1-d
 10
655.00046
 20
157.4999
 40
25
 41
1
 50
0
  1
承
  0
TEXT
  8
1-d
 10
655.00046
 20
97.49997
 40
25
 41
1
 50
0
  1
認
  0
TEXT
  8
1-d
 10
1020.0003
 20
237.49996
 40
25
 41
1
 50
0
  1
尺
  0
TEXT
  8
1-d
 10
1020.0003
 20
197.49979
 40
25
 41
1
 50
0.0000762
  1
度
  0
TEXT
  8
1-d
 10
855.00014
 20
157.4999
 40
25
 41
1
 50
0
  1
製
  0
TEXT
  8
1-d
 10
855.00014
 20
97.49997
 40
25
 41
1
 50
0
  1
図
  0
TEXT
  8
1-d
 10
1555.0001
 20
237.49996
 40
25
 41
1
 50
0
  1
日
  0
TEXT
  8
1-d
 10
1555.0001
 20
197.49979
 40
25
 41
1
 50
0.0000762
  1
付
  0
TEXT
  8
1-d
 10
1111.4263
 20
163.48226
 40
20
 41
1
 50
0
  1
株式
  0
TEXT
  8
1-d
 10
1111.4263
 20
141.85181
 40
20
 41
1
 50
0.0000152
  1
会社
  0
TEXT
  8
1-d
 10
1174.2247
 20
143.24712
 40
40
 41
1
 50
0
  1
スズキベンチレーター
  0
TEXT
  8
1-d
 10
1237.9182
 20
94.024183
 40
20
 41
1
 50
0
  1
TEL(054)296-7000  FAX(054)296-7001
  0
TEXT
  8
1-d
 10
1084.349
 20
210.10066
 40
40
 41
1
 50
0
  1
１／１５
  0
TEXT
  8
1-8
 10
1017.0835
 20
1722.0926
 40
30
 41
1
 50
0
  1
765φ
  0
TEXT
  8
1-8
 10
303.33364
 20
2190.5947
 40
30
 41
1
 50
90
  1
880
  0
TEXT
  8
1-8
 10
1015.8333
 20
2656.948
 40
30
 41
1
 50
0
  1
1,100
  0
TEXT
  8
1-d
 10
308.45927
 20
140.30214
 40
30
 41
1
 50
0
  1
75-E08a
  0
TEXT
  8
1-d
 10
269.15527
 20
2786.1124
 40
50
 41
1
 50
0
  1
ＤＳ－７５０　自然換気  直付型（網付）断面
  0
TEXT
  8
1-d
 10
265.86819
 20
212.66462
 40
30
 41
1
 50
0
  1
ＤＳ－７５０　自然換気  直付型（網付）断面
  0
TEXT
  8
1-d
 10
1235.6794
 20
118.64593
 40
20
 41
1
 50
0
  1
〒421-2114　静岡市葵区安倍口新田１５２番地
  0
POINT
  8
1-8
 62
    2
 10
316.66706
 20
1917.2613
  0
POINT
  8
1-8
 62
    2
 10
316.66706
 20
2503.928
  0
POINT
  8
1-8
 62
    2
 10
683.33331
 20
2620.2804
  0
POINT
  8
1-8
 62
    2
 10
1416.6667
 20
2620.2804
  0
POINT
  8
1-8
 62
    2
 10
795.00006
 20
1692.0925
  0
POINT
  8
1-8
 62
    2
 10
1305
 20
1692.0925
  0
ENDSEC
  0
EOF
