  0
SECTION
  2
HEADER
  9
$EXTMIN
 10
0
 20
0
  9
$EXTMAX
 10
4200
 20
2970
  0
ENDSEC
  0
SECTION
  2
TABLES
  0
TABLE
  2
LTYPE
 70
     9
  0
LTYPE
  2
CONTINUOUS
 70
    64
  3
実線
 72
    65
 73
     0
 40
0.0
  0
LTYPE
  2
DASHED1
 70
    64
  3
--  --  --  --  --  --  --  --  
 72
    65
 73
     2
 40
2.5
 49
1.25
 49
-1.25
  0
LTYPE
  2
DASHED2
 70
    64
  3
----    ----    ----    ----    
 72
    65
 73
     2
 40
5.0
 49
2.5
 49
-2.5
  0
LTYPE
  2
DASHED3
 70
    64
  3
------  ------  ------  ------  
 72
    65
 73
     2
 40
5.0
 49
3.75
 49
-1.25
  0
LTYPE
  2
CENTER1
 70
    64
  3
----- - ----- - ----- - ----- - 
 72
    65
 73
     4
 40
10.0
 49
6.25
 49
-1.25
 49
1.25
 49
-1.25
  0
LTYPE
  2
CENTER2
 70
    64
  3
----------  --  ----------  --  
 72
    65
 73
     4
 40
20.0
 49
12.5
 49
-2.5
 49
2.5
 49
-2.5
  0
LTYPE
  2
PHANTOM1
 70
    64
  3
--- - - --- - - --- - - --- - - 
 72
    65
 73
     6
 40
10.0
 49
3.25
 49
-1.25
 49
1.25
 49
-1.25
 49
1.25
 49
-1.25
  0
LTYPE
  2
PHANTOM2
 70
    64
  3
--------  -  -  --------  -  -  
 72
    65
 73
     6
 40
20.0
 49
10.0
 49
-2.5
 49
1.25
 49
-2.5
 49
1.25
 49
-2.5
  0
LTYPE
  2
DOT
 70
    64
  3
-   -   -   -   -   -   -   -   
 72
    65
 73
     2
 40
2.5
 49
0.625
 49
-1.875
  0
ENDTAB
  0
TABLE
  2
STYLE
 70
    1
  0
STYLE
  2
STANDARD
 70
    64
 40
0.0
 41
1.0
 42
0.0
 50
0.0
 71
     0
  3
TXT
  4
BIGFONT
  0
ENDTAB
  0
TABLE
  2
LAYER
 70
    5
  0
LAYER
  2
1-1
 70
   64
 62
    7
  6
CONTINUOUS
  0
LAYER
  2
1-2
 70
   64
 62
    7
  6
CONTINUOUS
  0
LAYER
  2
1-8
 70
   64
 62
    7
  6
CONTINUOUS
  0
LAYER
  2
1-d
 70
   64
 62
    7
  6
CONTINUOUS
  0
LAYER
  2
ADD_LINE
 70
   64
 62
    7
  6
CONTINUOUS
  0
ENDTAB
  0
ENDSEC
  0
SECTION
  2
ENTITIES
  0
LINE
  8
1-d
  6
CONTINUOUS
 62
    7
 10
250.00006
 20
2757.7013
 11
1850.0001
 21
2757.7013
  0
LINE
  8
1-d
  6
CONTINUOUS
 62
    7
 10
250.00006
 20
2767.7016
 11
1850.0001
 21
2767.7016
  0
LINE
  8
1-d
  6
CONTINUOUS
 62
    7
 10
249.99969
 20
189.99989
 11
1850.0005
 21
189.99989
  0
LINE
  8
1-d
  6
CONTINUOUS
 62
    7
 10
249.99969
 20
89.999806
 11
249.99969
 21
269.99991
  0
LINE
  8
1-d
  6
CONTINUOUS
 62
    7
 10
249.99969
 20
89.999806
 11
1850.0005
 21
89.999806
  0
LINE
  8
1-d
  6
CONTINUOUS
 62
    7
 10
1850.0005
 20
269.99991
 11
1850.0005
 21
89.999806
  0
LINE
  8
1-d
  6
CONTINUOUS
 62
    7
 10
249.99969
 20
269.99991
 11
1850.0005
 21
269.99991
  0
LINE
  8
1-d
  6
CONTINUOUS
 62
    7
 10
1050
 20
269.99991
 11
1050
 21
89.999806
  0
LINE
  8
1-d
  6
CONTINUOUS
 62
    7
 10
650.00019
 20
89.999806
 11
650.00019
 21
189.99989
  0
LINE
  8
1-d
  6
CONTINUOUS
 62
    7
 10
1050
 20
189.99989
 11
1050
 21
269.99991
  0
LINE
  8
1-d
  6
CONTINUOUS
 62
    7
 10
849.99981
 20
89.999806
 11
849.99981
 21
189.99989
  0
LINE
  8
1-d
  6
CONTINUOUS
 62
    7
 10
285.00002
 20
89.999806
 11
285.00002
 21
189.99989
  0
LINE
  8
1-d
  6
CONTINUOUS
 62
    7
 10
685.00006
 20
89.999806
 11
685.00006
 21
189.99989
  0
LINE
  8
1-d
  6
CONTINUOUS
 62
    7
 10
885.00018
 20
89.999806
 11
885.00018
 21
189.99989
  0
LINE
  8
1-d
  6
CONTINUOUS
 62
    7
 10
1015
 20
189.99989
 11
1015
 21
269.99991
  0
LINE
  8
1-d
  6
CONTINUOUS
 62
    7
 10
1550.0004
 20
189.99989
 11
1550.0004
 21
269.99991
  0
LINE
  8
1-d
  6
CONTINUOUS
 62
    7
 10
1585.0002
 20
189.99989
 11
1585.0002
 21
269.99991
  0
LINE
  8
1-8
  6
CONTINUOUS
 62
    7
 10
316.66719
 20
1917.2613
 11
316.66719
 21
2503.928
  0
LINE
  8
1-8
  6
CONTINUOUS
 62
    7
 10
673.33476
 20
1917.2613
 11
316.66719
 21
1917.2613
  0
LINE
  8
1-8
  6
CONTINUOUS
 62
    7
 10
683.33356
 20
2620.2804
 11
1416.6677
 21
2620.2804
  0
LINE
  8
1-2
  6
CONTINUOUS
 62
    3
 10
683.33356
 20
2017.2614
 11
1416.6677
 21
2017.2614
  0
LINE
  8
1-8
  6
CONTINUOUS
 62
    7
 10
683.33356
 20
2461.1756
 11
683.33356
 21
2620.2804
  0
LINE
  8
1-8
  6
CONTINUOUS
 62
    7
 10
783.40317
 20
2503.928
 11
316.66719
 21
2503.928
  0
LINE
  8
1-2
  6
CONTINUOUS
 62
    3
 10
683.33356
 20
2080.5948
 11
1416.6677
 21
2080.5948
  0
LINE
  8
1-2
  6
CONTINUOUS
 62
    3
 10
683.33356
 20
2090.5946
 11
1416.6677
 21
2090.5946
  0
LINE
  8
1-2
  6
CONTINUOUS
 62
    3
 10
683.33356
 20
2050.5947
 11
1416.6677
 21
2050.5947
  0
LINE
  8
1-2
  6
CONTINUOUS
 62
    3
 10
683.33356
 20
2040.5949
 11
1416.6677
 21
2040.5949
  0
LINE
  8
1-2
  6
CONTINUOUS
 62
    3
 10
683.33356
 20
2080.5948
 11
683.33356
 21
2050.5947
  0
LINE
  8
1-2
  6
CONTINUOUS
 62
    3
 10
683.33356
 20
2040.5949
 11
683.33356
 21
2017.2614
  0
LINE
  8
1-2
  6
CONTINUOUS
 62
    3
 10
1416.6677
 20
2080.5948
 11
1416.6677
 21
2050.5947
  0
LINE
  8
1-2
  6
CONTINUOUS
 62
    3
 10
1416.6667
 20
2040.5949
 11
1416.6667
 21
2017.2614
  0
LINE
  8
1-2
  6
CONTINUOUS
 62
    3
 10
795.00018
 20
1980.5947
 11
1305.0001
 21
1980.5947
  0
LINE
  8
1-2
  6
CONTINUOUS
 62
    3
 10
795.00018
 20
1990.5945
 11
1305.0001
 21
1990.5945
  0
LINE
  8
1-2
  6
CONTINUOUS
 62
    3
 10
1305.0001
 20
2017.2616
 11
1305.0001
 21
1990.5945
  0
LINE
  8
1-2
  6
CONTINUOUS
 62
    3
 10
795.00018
 20
2017.2616
 11
795.00018
 21
1990.5945
  0
LINE
  8
1-2
  6
CONTINUOUS
 62
    3
 10
683.33356
 20
2363.9283
 11
1416.6677
 21
2363.9283
  0
LINE
  8
1-2
  6
CONTINUOUS
 62
    3
 10
683.33356
 20
2353.9283
 11
1416.6677
 21
2353.9283
  0
LINE
  8
1-2
  6
CONTINUOUS
 62
    3
 10
683.33356
 20
2393.9281
 11
1416.6677
 21
2393.9281
  0
LINE
  8
1-2
  6
CONTINUOUS
 62
    3
 10
683.33356
 20
2403.9279
 11
1416.6677
 21
2403.9279
  0
LINE
  8
1-2
  6
CONTINUOUS
 62
    3
 10
683.33356
 20
2363.9283
 11
683.33356
 21
2393.9281
  0
LINE
  8
1-2
  6
CONTINUOUS
 62
    3
 10
1416.6677
 20
2363.9283
 11
1416.6677
 21
2393.9281
  0
LINE
  8
1-2
  6
CONTINUOUS
 62
    3
 10
683.33356
 20
2353.9283
 11
683.33356
 21
2090.5946
  0
LINE
  8
1-2
  6
CONTINUOUS
 62
    3
 10
1416.6677
 20
2353.9283
 11
1416.6677
 21
2090.5946
  0
LINE
  8
1-2
  6
CONTINUOUS
 62
    3
 10
1050
 20
2503.928
 11
876.79513
 21
2403.9279
  0
LINE
  8
1-2
  6
CONTINUOUS
 62
    3
 10
1050
 20
2503.928
 11
1223.2054
 21
2403.9279
  0
LINE
  8
1-8
  6
CONTINUOUS
 62
    7
 10
1416.6677
 20
2461.1756
 11
1416.6677
 21
2620.2804
  0
LINE
  8
1-2
  6
CONTINUOUS
 62
    3
 10
726.66695
 20
1917.2615
 11
726.66695
 21
1877.2616
  0
LINE
  8
1-2
  6
CONTINUOUS
 62
    3
 10
726.66695
 20
1877.2616
 11
1373.3336
 21
1877.2616
  0
LINE
  8
1-2
  6
CONTINUOUS
 62
    3
 10
1373.3336
 20
1917.2615
 11
1373.3336
 21
1877.2616
  0
LINE
  8
1-2
  6
CONTINUOUS
 62
    3
 10
726.66695
 20
1917.2615
 11
1373.3336
 21
1917.2615
  0
LINE
  8
1-8
  6
CONTINUOUS
 62
    7
 10
726.66695
 20
1721.4391
 11
1373.3336
 21
1721.4391
  0
LINE
  8
1-8
  6
CONTINUOUS
 62
    7
 10
316.66719
 20
1877.2616
 11
316.66719
 21
1917.2615
  0
LINE
  8
1-8
  6
CONTINUOUS
 62
    7
 10
673.33476
 20
1877.2616
 11
316.66719
 21
1877.2616
  0
LINE
  8
1-8
  6
CONTINUOUS
 62
    7
 10
673.33476
 20
1917.2615
 11
316.66719
 21
1917.2615
  0
LINE
  8
1-2
  6
CONTINUOUS
 62
    3
 10
726.66695
 20
1917.2615
 11
836.36322
 21
1980.5947
  0
LINE
  8
1-2
  6
CONTINUOUS
 62
    3
 10
795.00018
 20
1980.5947
 11
795.00018
 21
1956.7138
  0
LINE
  8
1-8
  6
CONTINUOUS
 62
    3
 10
869.68817
 20
1917.2615
 11
869.68817
 21
1980.5947
  0
LINE
  8
1-8
  6
CONTINUOUS
 62
    3
 10
1230.3124
 20
1917.2615
 11
1230.3124
 21
1980.5947
  0
LINE
  8
1-2
  6
CONTINUOUS
 62
    3
 10
1373.3336
 20
1917.2615
 11
1263.6373
 21
1980.5947
  0
LINE
  8
1-2
  6
CONTINUOUS
 62
    3
 10
1305.0001
 20
1980.5947
 11
1305.0001
 21
1956.7138
  0
LINE
  8
1-1
  6
CENTER2
 62
    7
 10
1050
 20
2503.928
 11
1050
 21
1877.2616
  0
LINE
  8
1-8
  6
CONTINUOUS
 62
    7
 10
726.66695
 20
1850.7638
 11
726.66695
 21
1721.4391
  0
LINE
  8
1-8
  6
CONTINUOUS
 62
    7
 10
1373.3336
 20
1849.6622
 11
1373.3336
 21
1721.4391
  0
ARC
  8
1-2
  6
CONTINUOUS
 62
    3
 10
1416.6677
 20
2085.5946
 40
4.9999345
 50
270
 51
90
  0
ARC
  8
1-2
  6
CONTINUOUS
 62
    3
 10
1416.6677
 20
2045.595
 40
4.9999345
 50
270
 51
90
  0
ARC
  8
1-2
  6
CONTINUOUS
 62
    3
 10
683.33356
 20
2085.5946
 40
4.9999345
 50
90
 51
270
  0
ARC
  8
1-2
  6
CONTINUOUS
 62
    3
 10
683.33356
 20
2045.595
 40
4.9999345
 50
90
 51
270
  0
ARC
  8
1-2
  6
CONTINUOUS
 62
    3
 10
1305.0001
 20
1985.5948
 40
4.9999345
 50
270
 51
90
  0
ARC
  8
1-2
  6
CONTINUOUS
 62
    3
 10
795.00018
 20
1985.5948
 40
4.9999345
 50
90
 51
270
  0
ARC
  8
1-2
  6
CONTINUOUS
 62
    3
 10
1416.6677
 20
2358.9283
 40
4.9999345
 50
270
 51
90
  0
ARC
  8
1-2
  6
CONTINUOUS
 62
    3
 10
1416.6677
 20
2398.9282
 40
4.9999345
 50
270
 51
90
  0
ARC
  8
1-2
  6
CONTINUOUS
 62
    3
 10
683.33356
 20
2358.9283
 40
4.9999345
 50
90
 51
270
  0
ARC
  8
1-2
  6
CONTINUOUS
 62
    3
 10
683.33356
 20
2398.9282
 40
4.9999345
 50
90
 51
270
  0
TEXT
  8
1-d
 10
254.9998
 20
157.4999
 40
25
 41
1
 50
0
  1
図
  0
TEXT
  8
1-d
 10
254.9998
 20
97.49997
 40
25
 41
1
 50
0
  1
番
  0
TEXT
  8
1-d
 10
655.00046
 20
157.4999
 40
25
 41
1
 50
0
  1
承
  0
TEXT
  8
1-d
 10
655.00046
 20
97.49997
 40
25
 41
1
 50
0
  1
認
  0
TEXT
  8
1-d
 10
1020.0003
 20
237.49996
 40
25
 41
1
 50
0
  1
尺
  0
TEXT
  8
1-d
 10
1020.0003
 20
197.49979
 40
25
 41
1
 50
0.0000762
  1
度
  0
TEXT
  8
1-d
 10
855.00014
 20
157.4999
 40
25
 41
1
 50
0
  1
製
  0
TEXT
  8
1-d
 10
855.00014
 20
97.49997
 40
25
 41
1
 50
0
  1
図
  0
TEXT
  8
1-d
 10
1555.0001
 20
237.49996
 40
25
 41
1
 50
0
  1
日
  0
TEXT
  8
1-d
 10
1555.0001
 20
197.49979
 40
25
 41
1
 50
0.0000762
  1
付
  0
TEXT
  8
1-d
 10
1111.4263
 20
163.48226
 40
20
 41
1
 50
0
  1
株式
  0
TEXT
  8
1-d
 10
1111.4263
 20
141.85181
 40
20
 41
1
 50
0.0000152
  1
会社
  0
TEXT
  8
1-d
 10
1174.2247
 20
143.24712
 40
40
 41
1
 50
0
  1
スズキベンチレーター
  0
TEXT
  8
1-d
 10
1237.9182
 20
94.024183
 40
20
 41
1
 50
0
  1
TEL(054)296-7000  FAX(054)296-7001
  0
TEXT
  8
1-d
 10
1084.349
 20
210.10066
 40
40
 41
1
 50
0
  1
１／１５
  0
TEXT
  8
1-8
 10
303.33377
 20
2190.5945
 40
30
 41
1
 50
90
  1
880
  0
TEXT
  8
1-8
 10
1015.8335
 20
2656.948
 40
30
 41
1
 50
0
  1
1,100
  0
TEXT
  8
1-8
 10
306.66715
 20
1883.5115
 40
30
 41
1
 50
90
  1
60
  0
TEXT
  8
1-8
 10
991.08264
 20
1734.2084
 40
30
 41
1
 50
0
  1
970x970
  0
TEXT
  8
1-d
 10
308.45927
 20
140.30214
 40
30
 41
1
 50
0
  1
75-E06b
  0
TEXT
  8
1-d
 10
269.15527
 20
2786.1124
 40
50
 41
1
 50
0
  1
ＤＳ－７５０　自然換気  架台型立面
  0
TEXT
  8
1-d
 10
265.86819
 20
212.66462
 40
30
 41
1
 50
0
  1
ＤＳ－７５０　自然換気  架台型立面
  0
TEXT
  8
1-d
 10
1235.6794
 20
118.64593
 40
20
 41
1
 50
0
  1
〒421-2114　静岡市葵区安倍口新田１５２番地
  0
POINT
  8
1-8
 62
    2
 10
316.66719
 20
1917.2613
  0
POINT
  8
1-8
 62
    2
 10
316.66719
 20
2503.928
  0
POINT
  8
1-8
 62
    2
 10
683.33356
 20
2620.2804
  0
POINT
  8
1-8
 62
    2
 10
1416.6677
 20
2620.2804
  0
POINT
  8
1-8
 62
    2
 10
726.66695
 20
1721.4391
  0
POINT
  8
1-8
 62
    2
 10
1373.3336
 20
1721.4391
  0
POINT
  8
1-8
 62
    2
 10
316.66719
 20
1877.2616
  0
POINT
  8
1-8
 62
    2
 10
316.66719
 20
1917.2615
  0
ENDSEC
  0
EOF
