  0
SECTION
  2
HEADER
  9
$EXTMIN
 10
0
 20
0
  9
$EXTMAX
 10
4200
 20
2970
  0
ENDSEC
  0
SECTION
  2
TABLES
  0
TABLE
  2
LTYPE
 70
     9
  0
LTYPE
  2
CONTINUOUS
 70
    64
  3
実線
 72
    65
 73
     0
 40
0.0
  0
LTYPE
  2
DASHED1
 70
    64
  3
--  --  --  --  --  --  --  --  
 72
    65
 73
     2
 40
2.5
 49
1.25
 49
-1.25
  0
LTYPE
  2
DASHED2
 70
    64
  3
----    ----    ----    ----    
 72
    65
 73
     2
 40
5.0
 49
2.5
 49
-2.5
  0
LTYPE
  2
DASHED3
 70
    64
  3
------  ------  ------  ------  
 72
    65
 73
     2
 40
5.0
 49
3.75
 49
-1.25
  0
LTYPE
  2
CENTER1
 70
    64
  3
----- - ----- - ----- - ----- - 
 72
    65
 73
     4
 40
10.0
 49
6.25
 49
-1.25
 49
1.25
 49
-1.25
  0
LTYPE
  2
CENTER2
 70
    64
  3
----------  --  ----------  --  
 72
    65
 73
     4
 40
20.0
 49
12.5
 49
-2.5
 49
2.5
 49
-2.5
  0
LTYPE
  2
PHANTOM1
 70
    64
  3
--- - - --- - - --- - - --- - - 
 72
    65
 73
     6
 40
10.0
 49
3.25
 49
-1.25
 49
1.25
 49
-1.25
 49
1.25
 49
-1.25
  0
LTYPE
  2
PHANTOM2
 70
    64
  3
--------  -  -  --------  -  -  
 72
    65
 73
     6
 40
20.0
 49
10.0
 49
-2.5
 49
1.25
 49
-2.5
 49
1.25
 49
-2.5
  0
LTYPE
  2
DOT
 70
    64
  3
-   -   -   -   -   -   -   -   
 72
    65
 73
     2
 40
2.5
 49
0.625
 49
-1.875
  0
ENDTAB
  0
TABLE
  2
STYLE
 70
    1
  0
STYLE
  2
STANDARD
 70
    64
 40
0.0
 41
1.0
 42
0.0
 50
0.0
 71
     0
  3
TXT
  4
BIGFONT
  0
ENDTAB
  0
TABLE
  2
LAYER
 70
    7
  0
LAYER
  2
1-0
 70
   64
 62
    7
  6
CONTINUOUS
  0
LAYER
  2
1-1
 70
   64
 62
    7
  6
CONTINUOUS
  0
LAYER
  2
1-2
 70
   64
 62
    7
  6
CONTINUOUS
  0
LAYER
  2
1-4
 70
   64
 62
    7
  6
CONTINUOUS
  0
LAYER
  2
1-8
 70
   64
 62
    7
  6
CONTINUOUS
  0
LAYER
  2
1-d
 70
   64
 62
    7
  6
CONTINUOUS
  0
LAYER
  2
ADD_LINE
 70
   64
 62
    7
  6
CONTINUOUS
  0
ENDTAB
  0
ENDSEC
  0
SECTION
  2
ENTITIES
  0
LINE
  8
1-d
  6
CONTINUOUS
 62
    7
 10
250.00006
 20
2757.7013
 11
1850.0001
 21
2757.7013
  0
LINE
  8
1-d
  6
CONTINUOUS
 62
    7
 10
250.00006
 20
2767.7016
 11
1850.0001
 21
2767.7016
  0
LINE
  8
1-d
  6
CONTINUOUS
 62
    7
 10
249.99969
 20
189.99989
 11
1850.0005
 21
189.99989
  0
LINE
  8
1-d
  6
CONTINUOUS
 62
    7
 10
249.99969
 20
89.999806
 11
249.99969
 21
269.99991
  0
LINE
  8
1-d
  6
CONTINUOUS
 62
    7
 10
249.99969
 20
89.999806
 11
1850.0005
 21
89.999806
  0
LINE
  8
1-d
  6
CONTINUOUS
 62
    7
 10
1850.0005
 20
269.99991
 11
1850.0005
 21
89.999806
  0
LINE
  8
1-d
  6
CONTINUOUS
 62
    7
 10
249.99969
 20
269.99991
 11
1850.0005
 21
269.99991
  0
LINE
  8
1-d
  6
CONTINUOUS
 62
    7
 10
1050
 20
269.99991
 11
1050
 21
89.999806
  0
LINE
  8
1-d
  6
CONTINUOUS
 62
    7
 10
650.00019
 20
89.999806
 11
650.00019
 21
189.99989
  0
LINE
  8
1-d
  6
CONTINUOUS
 62
    7
 10
1050
 20
189.99989
 11
1050
 21
269.99991
  0
LINE
  8
1-d
  6
CONTINUOUS
 62
    7
 10
849.99981
 20
89.999806
 11
849.99981
 21
189.99989
  0
LINE
  8
1-d
  6
CONTINUOUS
 62
    7
 10
285.00002
 20
89.999806
 11
285.00002
 21
189.99989
  0
LINE
  8
1-d
  6
CONTINUOUS
 62
    7
 10
685.00006
 20
89.999806
 11
685.00006
 21
189.99989
  0
LINE
  8
1-d
  6
CONTINUOUS
 62
    7
 10
885.00018
 20
89.999806
 11
885.00018
 21
189.99989
  0
LINE
  8
1-d
  6
CONTINUOUS
 62
    7
 10
1015
 20
189.99989
 11
1015
 21
269.99991
  0
LINE
  8
1-d
  6
CONTINUOUS
 62
    7
 10
1550.0004
 20
189.99989
 11
1550.0004
 21
269.99991
  0
LINE
  8
1-d
  6
CONTINUOUS
 62
    7
 10
1585.0002
 20
189.99989
 11
1585.0002
 21
269.99991
  0
LINE
  8
1-8
  6
CONTINUOUS
 62
    7
 10
583.33372
 20
1810.0426
 11
583.33372
 21
2270.0427
  0
LINE
  8
1-8
  6
CONTINUOUS
 62
    7
 10
672.6668
 20
2373.063
 11
1427.3344
 21
2373.0625
  0
LINE
  8
1-2
  6
CONTINUOUS
 62
    3
 10
1068.2561
 20
2038.0735
 11
1073.0609
 21
2041.0262
  0
LINE
  8
1-2
  6
CONTINUOUS
 62
    3
 10
1073.0609
 20
2041.0262
 11
1077.8427
 21
2044.0383
  0
LINE
  8
1-2
  6
CONTINUOUS
 62
    3
 10
1077.8427
 20
2044.0383
 11
1082.5794
 21
2047.1625
  0
LINE
  8
1-2
  6
CONTINUOUS
 62
    3
 10
1082.5794
 20
2047.1625
 11
1087.2182
 21
2050.4606
  0
LINE
  8
1-2
  6
CONTINUOUS
 62
    3
 10
1087.2182
 20
2050.4606
 11
1091.6743
 21
2053.9988
  0
LINE
  8
1-2
  6
CONTINUOUS
 62
    3
 10
1091.6743
 20
2053.9988
 11
1095.8543
 21
2057.8351
  0
LINE
  8
1-2
  6
CONTINUOUS
 62
    3
 10
1095.8543
 20
2057.8351
 11
1099.6671
 21
2062.0376
  0
LINE
  8
1-2
  6
CONTINUOUS
 62
    3
 10
1099.6671
 20
2062.0376
 11
1103.0209
 21
2066.6652
  0
LINE
  8
1-2
  6
CONTINUOUS
 62
    3
 10
1103.0209
 20
2066.6652
 11
1105.9459
 21
2071.6712
  0
LINE
  8
1-2
  6
CONTINUOUS
 62
    3
 10
1105.9459
 20
2071.6712
 11
1108.7098
 21
2076.783
  0
LINE
  8
1-2
  6
CONTINUOUS
 62
    3
 10
1108.7098
 20
2076.783
 11
1111.5932
 21
2081.7123
  0
LINE
  8
1-2
  6
CONTINUOUS
 62
    3
 10
1111.5932
 20
2081.7123
 11
1114.8918
 21
2086.1706
  0
LINE
  8
1-2
  6
CONTINUOUS
 62
    3
 10
1114.8918
 20
2086.1706
 11
1118.8848
 21
2089.8669
  0
LINE
  8
1-2
  6
CONTINUOUS
 62
    3
 10
1118.8848
 20
2089.8669
 11
1123.6601
 21
2092.7248
  0
LINE
  8
1-2
  6
CONTINUOUS
 62
    3
 10
1123.6601
 20
2092.7248
 11
1128.9269
 21
2095.0599
  0
LINE
  8
1-2
  6
CONTINUOUS
 62
    3
 10
1128.9269
 20
2095.0599
 11
1131.4203
 21
2096.0561
  0
LINE
  8
1-2
  6
CONTINUOUS
 62
    3
 10
1128.9269
 20
2095.0599
 11
1132.3952
 21
2095.6112
  0
LINE
  8
1-2
  6
CONTINUOUS
 62
    3
 10
1132.3952
 20
2095.6112
 11
1135.8948
 21
2096.0905
  0
LINE
  8
1-2
  6
CONTINUOUS
 62
    3
 10
1135.8948
 20
2096.0905
 11
1139.452
 21
2096.434
  0
LINE
  8
1-2
  6
CONTINUOUS
 62
    3
 10
1139.452
 20
2096.434
 11
1143.0965
 21
2096.5639
  0
LINE
  8
1-2
  6
CONTINUOUS
 62
    3
 10
1143.0965
 20
2096.5639
 11
1146.8522
 21
2096.4164
  0
LINE
  8
1-2
  6
CONTINUOUS
 62
    3
 10
1146.8522
 20
2096.4164
 11
1150.6098
 21
2095.869
  0
LINE
  8
1-2
  6
CONTINUOUS
 62
    3
 10
1150.6098
 20
2095.869
 11
1154.1155
 21
2094.7712
  0
LINE
  8
1-2
  6
CONTINUOUS
 62
    3
 10
1154.1155
 20
2094.7712
 11
1157.1033
 21
2092.9512
  0
LINE
  8
1-2
  6
CONTINUOUS
 62
    3
 10
1157.1033
 20
2092.9512
 11
1159.3588
 21
2090.2913
  0
LINE
  8
1-2
  6
CONTINUOUS
 62
    3
 10
1159.3588
 20
2090.2913
 11
1161.1171
 21
2087.0978
  0
LINE
  8
1-2
  6
CONTINUOUS
 62
    3
 10
1066.3699
 20
2024.8756
 11
1072.0001
 21
2025.7117
  0
LINE
  8
1-2
  6
CONTINUOUS
 62
    3
 10
1072.0001
 20
2025.7117
 11
1077.596
 21
2026.6577
  0
LINE
  8
1-2
  6
CONTINUOUS
 62
    3
 10
1077.596
 20
2026.6577
 11
1083.13
 21
2027.8137
  0
LINE
  8
1-2
  6
CONTINUOUS
 62
    3
 10
1083.13
 20
2027.8137
 11
1088.5647
 21
2029.2926
  0
LINE
  8
1-2
  6
CONTINUOUS
 62
    3
 10
1088.5647
 20
2029.2926
 11
1093.8721
 21
2031.1967
  0
LINE
  8
1-2
  6
CONTINUOUS
 62
    3
 10
1093.8721
 20
2031.1967
 11
1099.0218
 21
2033.5516
  0
LINE
  8
1-2
  6
CONTINUOUS
 62
    3
 10
1099.0218
 20
2033.5516
 11
1103.9924
 21
2036.3123
  0
LINE
  8
1-2
  6
CONTINUOUS
 62
    3
 10
1103.9924
 20
2036.3123
 11
1108.7561
 21
2039.4466
  0
LINE
  8
1-2
  6
CONTINUOUS
 62
    3
 10
1108.7561
 20
2039.4466
 11
1113.2909
 21
2042.8989
  0
LINE
  8
1-2
  6
CONTINUOUS
 62
    3
 10
1113.2909
 20
2042.8989
 11
1117.5746
 21
2046.6359
  0
LINE
  8
1-2
  6
CONTINUOUS
 62
    3
 10
1117.5746
 20
2046.6359
 11
1121.6405
 21
2050.5895
  0
LINE
  8
1-2
  6
CONTINUOUS
 62
    3
 10
1121.6405
 20
2050.5895
 11
1125.5701
 21
2054.6706
  0
LINE
  8
1-2
  6
CONTINUOUS
 62
    3
 10
1125.5701
 20
2054.6706
 11
1129.45
 21
2058.7882
  0
LINE
  8
1-2
  6
CONTINUOUS
 62
    3
 10
1129.45
 20
2058.7882
 11
1133.3622
 21
2062.8517
  0
LINE
  8
1-2
  6
CONTINUOUS
 62
    3
 10
1133.3622
 20
2062.8517
 11
1137.3962
 21
2066.7721
  0
LINE
  8
1-2
  6
CONTINUOUS
 62
    3
 10
1137.3962
 20
2066.7721
 11
1141.6292
 21
2070.4718
  0
LINE
  8
1-2
  6
CONTINUOUS
 62
    3
 10
1141.6292
 20
2070.4718
 11
1146.0554
 21
2073.9479
  0
LINE
  8
1-2
  6
CONTINUOUS
 62
    3
 10
1146.0554
 20
2073.9479
 11
1150.6392
 21
2077.2534
  0
LINE
  8
1-2
  6
CONTINUOUS
 62
    3
 10
1150.6392
 20
2077.2534
 11
1155.3324
 21
2080.4303
  0
LINE
  8
1-2
  6
CONTINUOUS
 62
    3
 10
1155.3324
 20
2080.4303
 11
1160.0996
 21
2083.5275
  0
LINE
  8
1-2
  6
CONTINUOUS
 62
    3
 10
1160.0996
 20
2083.5275
 11
1163.4744
 21
2085.6842
  0
LINE
  8
1-2
  6
CONTINUOUS
 62
    3
 10
1163.4744
 20
2085.6842
 11
1168.7407
 21
2087.8688
  0
LINE
  8
1-2
  6
CONTINUOUS
 62
    3
 10
1168.7407
 20
2087.8688
 11
1174.0369
 21
2089.9082
  0
LINE
  8
1-2
  6
CONTINUOUS
 62
    3
 10
1174.0369
 20
2089.9082
 11
1179.3962
 21
2091.6589
  0
LINE
  8
1-2
  6
CONTINUOUS
 62
    3
 10
1179.3962
 20
2091.6589
 11
1184.8488
 21
2092.9782
  0
LINE
  8
1-2
  6
CONTINUOUS
 62
    3
 10
1184.8488
 20
2092.9782
 11
1190.4085
 21
2093.7866
  0
LINE
  8
1-2
  6
CONTINUOUS
 62
    3
 10
1190.4085
 20
2093.7866
 11
1196.0481
 21
2094.1414
  0
LINE
  8
1-2
  6
CONTINUOUS
 62
    3
 10
1196.0481
 20
2094.1414
 11
1201.7351
 21
2094.1206
  0
LINE
  8
1-2
  6
CONTINUOUS
 62
    3
 10
1201.7351
 20
2094.1206
 11
1207.4388
 21
2093.8005
  0
LINE
  8
1-2
  6
CONTINUOUS
 62
    3
 10
1207.4388
 20
2093.8005
 11
1213.1324
 21
2093.2603
  0
LINE
  8
1-2
  6
CONTINUOUS
 62
    3
 10
1213.1324
 20
2093.2603
 11
1218.7822
 21
2092.5655
  0
LINE
  8
1-2
  6
CONTINUOUS
 62
    3
 10
1218.7822
 20
2092.5655
 11
1224.3825
 21
2091.7014
  0
LINE
  8
1-2
  6
CONTINUOUS
 62
    3
 10
1224.3825
 20
2091.7014
 11
1229.9348
 21
2090.6493
  0
LINE
  8
1-2
  6
CONTINUOUS
 62
    3
 10
1229.9348
 20
2090.6493
 11
1235.4312
 21
2089.3733
  0
LINE
  8
1-2
  6
CONTINUOUS
 62
    3
 10
1235.4312
 20
2089.3733
 11
1240.8751
 21
2087.851
  0
LINE
  8
1-2
  6
CONTINUOUS
 62
    3
 10
1240.8751
 20
2087.851
 11
1246.2638
 21
2086.0492
  0
LINE
  8
1-2
  6
CONTINUOUS
 62
    3
 10
1246.2638
 20
2086.0492
 11
1251.5761
 21
2083.9415
  0
LINE
  8
1-2
  6
CONTINUOUS
 62
    3
 10
1251.5761
 20
2083.9415
 11
1256.7622
 21
2081.5052
  0
LINE
  8
1-2
  6
CONTINUOUS
 62
    3
 10
1256.7622
 20
2081.5052
 11
1261.7464
 21
2078.7244
  0
LINE
  8
1-2
  6
CONTINUOUS
 62
    3
 10
1261.7464
 20
2078.7244
 11
1266.4641
 21
2075.574
  0
LINE
  8
1-2
  6
CONTINUOUS
 62
    3
 10
1266.4641
 20
2075.574
 11
1270.8467
 21
2072.0304
  0
LINE
  8
1-2
  6
CONTINUOUS
 62
    3
 10
1270.8467
 20
2072.0304
 11
1274.8337
 21
2068.0835
  0
LINE
  8
1-2
  6
CONTINUOUS
 62
    3
 10
1274.8337
 20
2068.0835
 11
1278.476
 21
2063.7909
  0
LINE
  8
1-2
  6
CONTINUOUS
 62
    3
 10
1278.476
 20
2063.7909
 11
1281.865
 21
2059.248
  0
LINE
  8
1-2
  6
CONTINUOUS
 62
    3
 10
1281.865
 20
2059.248
 11
1285.0963
 21
2054.5511
  0
LINE
  8
1-2
  6
CONTINUOUS
 62
    3
 10
1285.0963
 20
2054.5511
 11
1286.9741
 21
2051.7456
  0
LINE
  8
1-2
  6
CONTINUOUS
 62
    3
 10
1285.0963
 20
2054.5511
 11
1287.6227
 21
2049.3192
  0
LINE
  8
1-2
  6
CONTINUOUS
 62
    3
 10
1287.6227
 20
2049.3192
 11
1290.0149
 21
2044.0638
  0
LINE
  8
1-2
  6
CONTINUOUS
 62
    3
 10
1290.0149
 20
2044.0638
 11
1292.1429
 21
2038.7718
  0
LINE
  8
1-2
  6
CONTINUOUS
 62
    3
 10
1292.1429
 20
2038.7718
 11
1293.8715
 21
2033.414
  0
LINE
  8
1-2
  6
CONTINUOUS
 62
    3
 10
1293.8715
 20
2033.414
 11
1295.0691
 21
2027.976
  0
LINE
  8
1-2
  6
CONTINUOUS
 62
    3
 10
1295.0691
 20
2027.976
 11
1295.6075
 21
2022.4358
  0
LINE
  8
1-2
  6
CONTINUOUS
 62
    3
 10
1295.6075
 20
2022.4358
 11
1295.4531
 21
2016.816
  0
LINE
  8
1-2
  6
CONTINUOUS
 62
    3
 10
1295.4531
 20
2016.816
 11
1294.6997
 21
2011.1714
  0
LINE
  8
1-2
  6
CONTINUOUS
 62
    3
 10
1294.6997
 20
2011.1714
 11
1293.4447
 21
2005.5674
  0
LINE
  8
1-2
  6
CONTINUOUS
 62
    3
 10
1293.4447
 20
2005.5674
 11
1291.774
 21
2000.0683
  0
LINE
  8
1-2
  6
CONTINUOUS
 62
    3
 10
1291.774
 20
2000.0683
 11
1289.7155
 21
1994.7498
  0
LINE
  8
1-2
  6
CONTINUOUS
 62
    3
 10
1289.7155
 20
1994.7498
 11
1287.2136
 21
1989.6867
  0
LINE
  8
1-2
  6
CONTINUOUS
 62
    3
 10
1287.2136
 20
1989.6867
 11
1284.2082
 21
1984.9581
  0
LINE
  8
1-2
  6
CONTINUOUS
 62
    3
 10
1284.2082
 20
1984.9581
 11
1280.706
 21
1980.5913
  0
LINE
  8
1-2
  6
CONTINUOUS
 62
    3
 10
1280.706
 20
1980.5913
 11
1276.8128
 21
1976.5058
  0
LINE
  8
1-2
  6
CONTINUOUS
 62
    3
 10
1276.8128
 20
1976.5058
 11
1272.6513
 21
1972.6168
  0
LINE
  8
1-2
  6
CONTINUOUS
 62
    3
 10
1272.6513
 20
1972.6168
 11
1268.3379
 21
1968.8409
  0
LINE
  8
1-2
  6
CONTINUOUS
 62
    3
 10
1268.3379
 20
1968.8409
 11
1267.175
 21
1967.8415
  0
LINE
  8
1-2
  6
CONTINUOUS
 62
    3
 10
1268.3379
 20
1968.8409
 11
1263.3877
 21
1966.0656
  0
LINE
  8
1-2
  6
CONTINUOUS
 62
    3
 10
1263.3877
 20
1966.0656
 11
1258.4183
 21
1963.3413
  0
LINE
  8
1-2
  6
CONTINUOUS
 62
    3
 10
1258.4183
 20
1963.3413
 11
1253.4079
 21
1960.7164
  0
LINE
  8
1-2
  6
CONTINUOUS
 62
    3
 10
1253.4079
 20
1960.7164
 11
1248.3287
 21
1958.2405
  0
LINE
  8
1-2
  6
CONTINUOUS
 62
    3
 10
1248.3287
 20
1958.2405
 11
1243.1684
 21
1955.9621
  0
LINE
  8
1-2
  6
CONTINUOUS
 62
    3
 10
1243.1684
 20
1955.9621
 11
1237.8976
 21
1953.9304
  0
LINE
  8
1-2
  6
CONTINUOUS
 62
    3
 10
1237.8976
 20
1953.9304
 11
1232.5158
 21
1952.1746
  0
LINE
  8
1-2
  6
CONTINUOUS
 62
    3
 10
1232.5158
 20
1952.1746
 11
1227.0449
 21
1950.7008
  0
LINE
  8
1-2
  6
CONTINUOUS
 62
    3
 10
1227.0449
 20
1950.7008
 11
1221.5057
 21
1949.5071
  0
LINE
  8
1-2
  6
CONTINUOUS
 62
    3
 10
1221.5057
 20
1949.5071
 11
1215.9158
 21
1948.5938
  0
LINE
  8
1-2
  6
CONTINUOUS
 62
    3
 10
1215.9158
 20
1948.5938
 11
1210.3014
 21
1947.955
  0
LINE
  8
1-2
  6
CONTINUOUS
 62
    3
 10
1210.3014
 20
1947.955
 11
1204.6687
 21
1947.5415
  0
LINE
  8
1-2
  6
CONTINUOUS
 62
    3
 10
1204.6687
 20
1947.5415
 11
1199.0211
 21
1947.3002
  0
LINE
  8
1-2
  6
CONTINUOUS
 62
    3
 10
1199.0211
 20
1947.3002
 11
1193.3612
 21
1947.1693
  0
LINE
  8
1-2
  6
CONTINUOUS
 62
    3
 10
1193.3612
 20
1947.1693
 11
1188.455
 21
1947.1003
  0
LINE
  8
1-2
  6
CONTINUOUS
 62
    3
 10
1125.2123
 20
1946.5804
 11
1130.506
 21
1944.4378
  0
LINE
  8
1-2
  6
CONTINUOUS
 62
    3
 10
1130.506
 20
1944.4378
 11
1135.8304
 21
1942.3198
  0
LINE
  8
1-2
  6
CONTINUOUS
 62
    3
 10
1135.8304
 20
1942.3198
 11
1141.2048
 21
1940.368
  0
LINE
  8
1-2
  6
CONTINUOUS
 62
    3
 10
1141.2048
 20
1940.368
 11
1146.6307
 21
1938.7405
  0
LINE
  8
1-2
  6
CONTINUOUS
 62
    3
 10
1146.6307
 20
1938.7405
 11
1152.1231
 21
1937.5927
  0
LINE
  8
1-2
  6
CONTINUOUS
 62
    3
 10
1152.1231
 20
1937.5927
 11
1157.6935
 21
1937.0787
  0
LINE
  8
1-2
  6
CONTINUOUS
 62
    3
 10
1157.6935
 20
1937.0787
 11
1163.3289
 21
1937.1592
  0
LINE
  8
1-2
  6
CONTINUOUS
 62
    3
 10
1163.3289
 20
1937.1592
 11
1169.0054
 21
1937.5778
  0
LINE
  8
1-2
  6
CONTINUOUS
 62
    3
 10
1169.0054
 20
1937.5778
 11
1170.0719
 21
1937.6719
  0
LINE
  8
1-2
  6
CONTINUOUS
 62
    3
 10
1169.0054
 20
1937.5778
 11
1173.6469
 21
1938.6131
  0
LINE
  8
1-2
  6
CONTINUOUS
 62
    3
 10
1173.6469
 20
1938.6131
 11
1178.1021
 21
1940.0453
  0
LINE
  8
1-2
  6
CONTINUOUS
 62
    3
 10
1178.1021
 20
1940.0453
 11
1182.1895
 21
1942.2757
  0
LINE
  8
1-2
  6
CONTINUOUS
 62
    3
 10
1182.1895
 20
1942.2757
 11
1185.6742
 21
1945.4756
  0
LINE
  8
1-2
  6
CONTINUOUS
 62
    3
 10
1185.6742
 20
1945.4756
 11
1188.258
 21
1949.4864
  0
LINE
  8
1-2
  6
CONTINUOUS
 62
    3
 10
1188.258
 20
1949.4864
 11
1189.6654
 21
1954.0727
  0
LINE
  8
1-2
  6
CONTINUOUS
 62
    3
 10
1189.6654
 20
1954.0727
 11
1189.7691
 21
1958.8158
  0
LINE
  8
1-2
  6
CONTINUOUS
 62
    3
 10
1189.7691
 20
1958.8158
 11
1188.5139
 21
1963.2599
  0
LINE
  8
1-2
  6
CONTINUOUS
 62
    3
 10
1188.5139
 20
1963.2599
 11
1186.1684
 21
1967.3028
  0
LINE
  8
1-2
  6
CONTINUOUS
 62
    3
 10
1186.1684
 20
1967.3028
 11
1183.2709
 21
1971.1403
  0
LINE
  8
1-2
  6
CONTINUOUS
 62
    3
 10
1074.5149
 20
2017.5593
 11
1080.2193
 21
2016.5881
  0
LINE
  8
1-2
  6
CONTINUOUS
 62
    3
 10
1080.2193
 20
2016.5881
 11
1085.9053
 21
2015.7812
  0
LINE
  8
1-2
  6
CONTINUOUS
 62
    3
 10
1085.9053
 20
2015.7812
 11
1091.5496
 21
2015.3016
  0
LINE
  8
1-2
  6
CONTINUOUS
 62
    3
 10
1091.5496
 20
2015.3016
 11
1097.1326
 21
2015.3103
  0
LINE
  8
1-2
  6
CONTINUOUS
 62
    3
 10
1097.1326
 20
2015.3103
 11
1102.6342
 21
2015.9673
  0
LINE
  8
1-2
  6
CONTINUOUS
 62
    3
 10
1102.6342
 20
2015.9673
 11
1108.0548
 21
2017.3015
  0
LINE
  8
1-2
  6
CONTINUOUS
 62
    3
 10
1108.0548
 20
2017.3015
 11
1113.4062
 21
2019.1328
  0
LINE
  8
1-2
  6
CONTINUOUS
 62
    3
 10
1113.4062
 20
2019.1328
 11
1118.7143
 21
2021.2805
  0
LINE
  8
1-2
  6
CONTINUOUS
 62
    3
 10
1118.7143
 20
2021.2805
 11
1123.9895
 21
2023.5503
  0
LINE
  8
1-2
  6
CONTINUOUS
 62
    3
 10
1123.9895
 20
2023.5503
 11
1129.2587
 21
2025.779
  0
LINE
  8
1-2
  6
CONTINUOUS
 62
    3
 10
1129.2587
 20
2025.779
 11
1134.5225
 21
2027.9238
  0
LINE
  8
1-2
  6
CONTINUOUS
 62
    3
 10
1134.5225
 20
2027.9238
 11
1139.786
 21
2030.005
  0
LINE
  8
1-2
  6
CONTINUOUS
 62
    3
 10
1139.786
 20
2030.005
 11
1145.0436
 21
2032.034
  0
LINE
  8
1-2
  6
CONTINUOUS
 62
    3
 10
1145.0436
 20
2032.034
 11
1150.3012
 21
2034.0254
  0
LINE
  8
1-2
  6
CONTINUOUS
 62
    3
 10
1150.3012
 20
2034.0254
 11
1155.5603
 21
2035.999
  0
LINE
  8
1-2
  6
CONTINUOUS
 62
    3
 10
1155.5603
 20
2035.999
 11
1155.4868
 21
2031.1556
  0
LINE
  8
1-2
  6
CONTINUOUS
 62
    3
 10
1155.4868
 20
2031.1556
 11
1155.4173
 21
2026.3177
  0
LINE
  8
1-2
  6
CONTINUOUS
 62
    3
 10
1155.4173
 20
2026.3177
 11
1155.3475
 21
2021.4738
  0
LINE
  8
1-2
  6
CONTINUOUS
 62
    3
 10
1155.3475
 20
2021.4738
 11
1155.2745
 21
2016.6349
  0
LINE
  8
1-2
  6
CONTINUOUS
 62
    3
 10
1155.2745
 20
2016.6349
 11
1155.2055
 21
2011.7967
  0
LINE
  8
1-2
  6
CONTINUOUS
 62
    3
 10
1155.2055
 20
2011.7967
 11
1155.1352
 21
2006.953
  0
LINE
  8
1-2
  6
CONTINUOUS
 62
    3
 10
1155.1352
 20
2006.953
 11
1155.0625
 21
2002.1151
  0
LINE
  8
1-2
  6
CONTINUOUS
 62
    3
 10
1155.0625
 20
2002.1151
 11
1154.9929
 21
1997.2719
  0
LINE
  8
1-2
  6
CONTINUOUS
 62
    3
 10
1154.9929
 20
1997.2719
 11
1154.9207
 21
1992.4323
  0
LINE
  8
1-2
  6
CONTINUOUS
 62
    3
 10
1154.9207
 20
1992.4323
 11
1154.8504
 21
1987.5904
  0
LINE
  8
1-2
  6
CONTINUOUS
 62
    3
 10
1183.2709
 20
1971.1403
 11
1182.1136
 21
1972.1605
  0
LINE
  8
1-2
  6
CONTINUOUS
 62
    3
 10
1182.1136
 20
1972.1605
 11
1180.45
 21
1973.3942
  0
LINE
  8
1-2
  6
CONTINUOUS
 62
    3
 10
1180.45
 20
1973.3942
 11
1178.3466
 21
1974.8056
  0
LINE
  8
1-2
  6
CONTINUOUS
 62
    3
 10
1178.3466
 20
1974.8056
 11
1175.8598
 21
1976.3606
  0
LINE
  8
1-2
  6
CONTINUOUS
 62
    3
 10
1175.8598
 20
1976.3606
 11
1173.0246
 21
1978.0281
  0
LINE
  8
1-2
  6
CONTINUOUS
 62
    3
 10
1173.0246
 20
1978.0281
 11
1169.8918
 21
1979.7869
  0
LINE
  8
1-2
  6
CONTINUOUS
 62
    3
 10
1169.8918
 20
1979.7869
 11
1166.4915
 21
1981.6149
  0
LINE
  8
1-2
  6
CONTINUOUS
 62
    3
 10
1166.4915
 20
1981.6149
 11
1162.8491
 21
1983.4923
  0
LINE
  8
1-2
  6
CONTINUOUS
 62
    3
 10
1162.8491
 20
1983.4923
 11
1158.9977
 21
1985.4047
  0
LINE
  8
1-2
  6
CONTINUOUS
 62
    3
 10
1158.9977
 20
1985.4047
 11
1154.9583
 21
1987.338
  0
LINE
  8
1-2
  6
CONTINUOUS
 62
    3
 10
1154.9583
 20
1987.338
 11
1150.7456
 21
1989.2794
  0
LINE
  8
1-2
  6
CONTINUOUS
 62
    3
 10
1150.7456
 20
1989.2794
 11
1146.3862
 21
1991.2233
  0
LINE
  8
1-2
  6
CONTINUOUS
 62
    3
 10
1146.3862
 20
1991.2233
 11
1141.8922
 21
1993.1568
  0
LINE
  8
1-2
  6
CONTINUOUS
 62
    3
 10
1141.8922
 20
1993.1568
 11
1137.2861
 21
1995.0749
  0
LINE
  8
1-2
  6
CONTINUOUS
 62
    3
 10
1137.2861
 20
1995.0749
 11
1132.5803
 21
1996.9733
  0
LINE
  8
1-2
  6
CONTINUOUS
 62
    3
 10
1132.5803
 20
1996.9733
 11
1127.7934
 21
1998.8424
  0
LINE
  8
1-2
  6
CONTINUOUS
 62
    3
 10
1127.7934
 20
1998.8424
 11
1122.9428
 21
2000.6809
  0
LINE
  8
1-2
  6
CONTINUOUS
 62
    3
 10
1122.9428
 20
2000.6809
 11
1118.0479
 21
2002.4843
  0
LINE
  8
1-2
  6
CONTINUOUS
 62
    3
 10
1118.0479
 20
2002.4843
 11
1113.1298
 21
2004.2517
  0
LINE
  8
1-2
  6
CONTINUOUS
 62
    3
 10
1113.1298
 20
2004.2517
 11
1108.2068
 21
2005.9717
  0
LINE
  8
1-2
  6
CONTINUOUS
 62
    3
 10
1108.2068
 20
2005.9717
 11
1103.298
 21
2007.6449
  0
LINE
  8
1-2
  6
CONTINUOUS
 62
    3
 10
1103.298
 20
2007.6449
 11
1098.4284
 21
2009.271
  0
LINE
  8
1-2
  6
CONTINUOUS
 62
    3
 10
1098.4284
 20
2009.271
 11
1093.6244
 21
2010.8396
  0
LINE
  8
1-2
  6
CONTINUOUS
 62
    3
 10
1093.6244
 20
2010.8396
 11
1088.9037
 21
2012.3509
  0
LINE
  8
1-2
  6
CONTINUOUS
 62
    3
 10
1088.9037
 20
2012.3509
 11
1084.2976
 21
2013.7989
  0
LINE
  8
1-2
  6
CONTINUOUS
 62
    3
 10
1084.2976
 20
2013.7989
 11
1079.8296
 21
2015.1759
  0
LINE
  8
1-2
  6
CONTINUOUS
 62
    3
 10
1079.8296
 20
2015.1759
 11
1075.5254
 21
2016.478
  0
LINE
  8
1-2
  6
CONTINUOUS
 62
    3
 10
1075.5254
 20
2016.478
 11
1071.407
 21
2017.6998
  0
LINE
  8
1-2
  6
CONTINUOUS
 62
    3
 10
1071.407
 20
2017.6998
 11
1067.5017
 21
2018.8326
  0
LINE
  8
1-2
  6
CONTINUOUS
 62
    3
 10
1155.5603
 20
2035.999
 11
1155.6271
 21
2036.022
  0
LINE
  8
1-2
  6
CONTINUOUS
 62
    3
 10
1078.5904
 20
1935.2665
 11
1078.5904
 21
1924.1517
  0
LINE
  8
1-2
  6
CONTINUOUS
 62
    3
 10
1078.5904
 20
1924.1517
 11
1112.3665
 21
1924.1517
  0
LINE
  8
1-2
  6
CONTINUOUS
 62
    3
 10
1112.3665
 20
1935.2665
 11
1112.3665
 21
1924.1517
  0
LINE
  8
1-2
  6
CONTINUOUS
 62
    3
 10
1078.5904
 20
1935.2665
 11
1112.3665
 21
1935.2665
  0
LINE
  8
1-2
  6
CONTINUOUS
 62
    3
 10
1096.5484
 20
1935.2665
 11
1096.5484
 21
1957.4215
  0
LINE
  8
1-2
  6
CONTINUOUS
 62
    3
 10
1089.0136
 20
1964.9541
 11
1050
 21
1964.9541
  0
LINE
  8
1-2
  6
CONTINUOUS
 62
    3
 10
1062.9411
 20
2049.0079
 11
1062.9411
 21
2012.54
  0
LINE
  8
1-2
  6
CONTINUOUS
 62
    3
 10
1068.2561
 20
2038.0735
 11
1067.7043
 21
2037.7618
  0
LINE
  8
1-2
  6
CONTINUOUS
 62
    3
 10
1067.7043
 20
2037.7618
 11
1067.1397
 21
2037.4342
  0
LINE
  8
1-2
  6
CONTINUOUS
 62
    3
 10
1067.1397
 20
2037.4342
 11
1066.5681
 21
2037.0907
  0
LINE
  8
1-2
  6
CONTINUOUS
 62
    3
 10
1066.5681
 20
2037.0907
 11
1065.9841
 21
2036.7307
  0
LINE
  8
1-2
  6
CONTINUOUS
 62
    3
 10
1065.9841
 20
2036.7307
 11
1065.3885
 21
2036.3595
  0
LINE
  8
1-2
  6
CONTINUOUS
 62
    3
 10
1065.3885
 20
2036.3595
 11
1064.7828
 21
2035.9693
  0
LINE
  8
1-2
  6
CONTINUOUS
 62
    3
 10
1064.7828
 20
2035.9693
 11
1064.1669
 21
2035.5655
  0
LINE
  8
1-2
  6
CONTINUOUS
 62
    3
 10
1064.1669
 20
2035.5655
 11
1063.5389
 21
2035.1438
  0
LINE
  8
1-2
  6
CONTINUOUS
 62
    3
 10
1063.5389
 20
2035.1438
 11
1062.9023
 21
2034.7103
  0
LINE
  8
1-2
  6
CONTINUOUS
 62
    3
 10
1066.3699
 20
2024.8756
 11
1065.9606
 21
2024.7972
  0
LINE
  8
1-2
  6
CONTINUOUS
 62
    3
 10
1065.9606
 20
2024.7972
 11
1065.557
 21
2024.7242
  0
LINE
  8
1-2
  6
CONTINUOUS
 62
    3
 10
1065.557
 20
2024.7242
 11
1065.1609
 21
2024.6519
  0
LINE
  8
1-2
  6
CONTINUOUS
 62
    3
 10
1065.1609
 20
2024.6519
 11
1064.7687
 21
2024.5814
  0
LINE
  8
1-2
  6
CONTINUOUS
 62
    3
 10
1064.7687
 20
2024.5814
 11
1064.3847
 21
2024.5143
  0
LINE
  8
1-2
  6
CONTINUOUS
 62
    3
 10
1064.3847
 20
2024.5143
 11
1064.0044
 21
2024.4515
  0
LINE
  8
1-2
  6
CONTINUOUS
 62
    3
 10
1064.0044
 20
2024.4515
 11
1063.6312
 21
2024.3923
  0
LINE
  8
1-2
  6
CONTINUOUS
 62
    3
 10
1063.6312
 20
2024.3923
 11
1063.2625
 21
2024.3347
  0
LINE
  8
1-2
  6
CONTINUOUS
 62
    3
 10
1063.2625
 20
2024.3347
 11
1062.9023
 21
2024.2788
  0
LINE
  8
1-2
  6
CONTINUOUS
 62
    3
 10
1074.5149
 20
2017.5593
 11
1072.9597
 21
2017.8889
  0
LINE
  8
1-2
  6
CONTINUOUS
 62
    3
 10
1072.9597
 20
2017.8889
 11
1071.4679
 21
2018.2076
  0
LINE
  8
1-2
  6
CONTINUOUS
 62
    3
 10
1071.4679
 20
2018.2076
 11
1070.0441
 21
2018.5164
  0
LINE
  8
1-2
  6
CONTINUOUS
 62
    3
 10
1070.0441
 20
2018.5164
 11
1068.6872
 21
2018.815
  0
LINE
  8
1-2
  6
CONTINUOUS
 62
    3
 10
1068.6872
 20
2018.815
 11
1067.396
 21
2019.1028
  0
LINE
  8
1-2
  6
CONTINUOUS
 62
    3
 10
1067.396
 20
2019.1028
 11
1066.1732
 21
2019.3822
  0
LINE
  8
1-2
  6
CONTINUOUS
 62
    3
 10
1066.1732
 20
2019.3822
 11
1065.0156
 21
2019.6497
  0
LINE
  8
1-2
  6
CONTINUOUS
 62
    3
 10
1065.0156
 20
2019.6497
 11
1063.9257
 21
2019.908
  0
LINE
  8
1-2
  6
CONTINUOUS
 62
    3
 10
1063.9257
 20
2019.908
 11
1062.9023
 21
2020.1549
  0
LINE
  8
1-2
  6
CONTINUOUS
 62
    3
 10
1067.5017
 20
2018.8326
 11
1066.8932
 21
2018.9984
  0
LINE
  8
1-2
  6
CONTINUOUS
 62
    3
 10
1066.8932
 20
2018.9984
 11
1066.3093
 21
2019.1578
  0
LINE
  8
1-2
  6
CONTINUOUS
 62
    3
 10
1066.3093
 20
2019.1578
 11
1065.751
 21
2019.3151
  0
LINE
  8
1-2
  6
CONTINUOUS
 62
    3
 10
1065.751
 20
2019.3151
 11
1065.2185
 21
2019.4666
  0
LINE
  8
1-2
  6
CONTINUOUS
 62
    3
 10
1065.2185
 20
2019.4666
 11
1064.7133
 21
2019.6121
  0
LINE
  8
1-2
  6
CONTINUOUS
 62
    3
 10
1064.7133
 20
2019.6121
 11
1064.2308
 21
2019.7506
  0
LINE
  8
1-2
  6
CONTINUOUS
 62
    3
 10
1064.2308
 20
2019.7506
 11
1063.7747
 21
2019.8867
  0
LINE
  8
1-2
  6
CONTINUOUS
 62
    3
 10
1063.7747
 20
2019.8867
 11
1063.3452
 21
2020.0183
  0
LINE
  8
1-2
  6
CONTINUOUS
 62
    3
 10
1063.3452
 20
2020.0183
 11
1062.9411
 21
2020.147
  0
LINE
  8
1-2
  6
CONTINUOUS
 62
    3
 10
1057.9592
 20
2053.9921
 11
1050
 21
2053.9921
  0
LINE
  8
1-2
  6
CONTINUOUS
 62
    3
 10
1057.9592
 20
1977.4226
 11
1050
 21
1977.4226
  0
LINE
  8
1-2
  6
CONTINUOUS
 62
    3
 10
1054.1575
 20
2003.384
 11
1057.0441
 21
2000.1254
  0
LINE
  8
1-2
  6
CONTINUOUS
 62
    3
 10
1057.0441
 20
2000.1254
 11
1060.217
 21
1996.7402
  0
LINE
  8
1-2
  6
CONTINUOUS
 62
    3
 10
1060.217
 20
1996.7402
 11
1063.6295
 21
1993.2681
  0
LINE
  8
1-2
  6
CONTINUOUS
 62
    3
 10
1063.6295
 20
1993.2681
 11
1067.2379
 21
1989.7446
  0
LINE
  8
1-2
  6
CONTINUOUS
 62
    3
 10
1067.2379
 20
1989.7446
 11
1071.0012
 21
1986.2035
  0
LINE
  8
1-2
  6
CONTINUOUS
 62
    3
 10
1071.0012
 20
1986.2035
 11
1074.8811
 21
1982.6762
  0
LINE
  8
1-2
  6
CONTINUOUS
 62
    3
 10
1074.8811
 20
1982.6762
 11
1078.8416
 21
1979.1908
  0
LINE
  8
1-2
  6
CONTINUOUS
 62
    3
 10
1078.8416
 20
1979.1908
 11
1082.8496
 21
1975.7717
  0
LINE
  8
1-2
  6
CONTINUOUS
 62
    3
 10
1082.8496
 20
1975.7717
 11
1086.8745
 21
1972.4436
  0
LINE
  8
1-2
  6
CONTINUOUS
 62
    3
 10
1086.8745
 20
1972.4436
 11
1090.8884
 21
1969.2259
  0
LINE
  8
1-2
  6
CONTINUOUS
 62
    3
 10
1090.8884
 20
1969.2259
 11
1094.8663
 21
1966.1371
  0
LINE
  8
1-2
  6
CONTINUOUS
 62
    3
 10
1094.8663
 20
1966.1371
 11
1098.7857
 21
1963.1913
  0
LINE
  8
1-2
  6
CONTINUOUS
 62
    3
 10
1098.7857
 20
1963.1913
 11
1102.6265
 21
1960.4024
  0
LINE
  8
1-2
  6
CONTINUOUS
 62
    3
 10
1102.6265
 20
1960.4024
 11
1106.3717
 21
1957.7788
  0
LINE
  8
1-2
  6
CONTINUOUS
 62
    3
 10
1106.3717
 20
1957.7788
 11
1110.0064
 21
1955.3282
  0
LINE
  8
1-2
  6
CONTINUOUS
 62
    3
 10
1110.0064
 20
1955.3282
 11
1113.5186
 21
1953.0554
  0
LINE
  8
1-2
  6
CONTINUOUS
 62
    3
 10
1113.5186
 20
1953.0554
 11
1116.8993
 21
1950.9618
  0
LINE
  8
1-2
  6
CONTINUOUS
 62
    3
 10
1116.8993
 20
1950.9618
 11
1120.1418
 21
1949.0477
  0
LINE
  8
1-2
  6
CONTINUOUS
 62
    3
 10
1120.1418
 20
1949.0477
 11
1123.2417
 21
1947.3082
  0
LINE
  8
1-2
  6
CONTINUOUS
 62
    3
 10
1123.2417
 20
1947.3082
 11
1123.4698
 21
1947.2087
  0
LINE
  8
1-2
  6
CONTINUOUS
 62
    3
 10
1123.4698
 20
1947.2087
 11
1123.6955
 21
1947.1137
  0
LINE
  8
1-2
  6
CONTINUOUS
 62
    3
 10
1123.6955
 20
1947.1137
 11
1123.9194
 21
1947.0231
  0
LINE
  8
1-2
  6
CONTINUOUS
 62
    3
 10
1123.9194
 20
1947.0231
 11
1124.1406
 21
1946.9377
  0
LINE
  8
1-2
  6
CONTINUOUS
 62
    3
 10
1124.1406
 20
1946.9377
 11
1124.3596
 21
1946.8568
  0
LINE
  8
1-2
  6
CONTINUOUS
 62
    3
 10
1124.3596
 20
1946.8568
 11
1124.5761
 21
1946.7806
  0
LINE
  8
1-2
  6
CONTINUOUS
 62
    3
 10
1124.5761
 20
1946.7806
 11
1124.7907
 21
1946.7091
  0
LINE
  8
1-2
  6
CONTINUOUS
 62
    3
 10
1124.7907
 20
1946.7091
 11
1125.0027
 21
1946.6428
  0
LINE
  8
1-2
  6
CONTINUOUS
 62
    3
 10
1125.0027
 20
1946.6428
 11
1125.2123
 21
1946.5804
  0
LINE
  8
1-2
  6
CONTINUOUS
 62
    3
 10
1054.1575
 20
2003.384
 11
1055.8641
 21
2004.2317
  0
LINE
  8
1-2
  6
CONTINUOUS
 62
    3
 10
1055.8641
 20
2004.2317
 11
1057.3878
 21
2005.1217
  0
LINE
  8
1-2
  6
CONTINUOUS
 62
    3
 10
1057.3878
 20
2005.1217
 11
1058.7289
 21
2006.0541
  0
LINE
  8
1-2
  6
CONTINUOUS
 62
    3
 10
1058.7289
 20
2006.0541
 11
1059.8877
 21
2007.029
  0
LINE
  8
1-2
  6
CONTINUOUS
 62
    3
 10
1059.8877
 20
2007.029
 11
1060.8636
 21
2008.0465
  0
LINE
  8
1-2
  6
CONTINUOUS
 62
    3
 10
1060.8636
 20
2008.0465
 11
1061.6569
 21
2009.1063
  0
LINE
  8
1-2
  6
CONTINUOUS
 62
    3
 10
1061.6569
 20
2009.1063
 11
1062.2676
 21
2010.2083
  0
LINE
  8
1-2
  6
CONTINUOUS
 62
    3
 10
1062.2676
 20
2010.2083
 11
1062.6956
 21
2011.353
  0
LINE
  8
1-2
  6
CONTINUOUS
 62
    3
 10
1062.6956
 20
2011.353
 11
1062.9411
 21
2012.54
  0
LINE
  8
1-2
  6
CONTINUOUS
 62
    3
 10
1062.9423
 20
1982.407
 11
1062.9423
 21
1993.9671
  0
LINE
  8
1-2
  6
CONTINUOUS
 62
    3
 10
1127.6639
 20
2025.4214
 11
1117.8505
 21
2047.0507
  0
LINE
  8
1-2
  6
CONTINUOUS
 62
    3
 10
672.6668
 20
2000.0433
 11
1050
 21
2000.0433
  0
LINE
  8
1-2
  6
CONTINUOUS
 62
    3
 10
1427.3344
 20
2000.0428
 11
1305.0001
 21
2000.0433
  0
LINE
  8
1-8
  6
CONTINUOUS
 62
    7
 10
1516.6666
 20
2000.0433
 11
1516.6666
 21
2183.3764
  0
LINE
  8
1-8
  6
CONTINUOUS
 62
    7
 10
1516.6666
 20
2183.3764
 11
1516.6666
 21
2270.0427
  0
LINE
  8
1-8
  6
CONTINUOUS
 62
    7
 10
1516.6666
 20
1850.0438
 11
1516.6666
 21
2000.0433
  0
LINE
  8
1-8
  6
CONTINUOUS
 62
    7
 10
1385.6051
 20
1850.0425
 11
1385.6051
 21
2101.3771
  0
LINE
  8
1-8
  6
CONTINUOUS
 62
    7
 10
1304.9999
 20
1850.0425
 11
1385.6051
 21
1850.0425
  0
LINE
  8
1-2
  6
CONTINUOUS
 62
    3
 10
795.00006
 20
1920.0437
 11
795.00006
 21
2000.0433
  0
LINE
  8
1-2
  6
CONTINUOUS
 62
    3
 10
672.6668
 20
2023.3766
 11
672.6668
 21
2000.0433
  0
LINE
  8
1-2
  6
CONTINUOUS
 62
    3
 10
672.6668
 20
2063.3767
 11
672.6668
 21
2033.3764
  0
LINE
  8
1-2
  6
CONTINUOUS
 62
    3
 10
672.6668
 20
2183.3764
 11
672.6668
 21
2073.3765
  0
LINE
  8
1-2
  6
CONTINUOUS
 62
    3
 10
1427.3334
 20
2023.3759
 11
1427.3334
 21
2000.0428
  0
LINE
  8
1-2
  6
CONTINUOUS
 62
    3
 10
1427.3334
 20
2063.376
 11
1427.3334
 21
2033.3759
  0
LINE
  8
1-2
  6
CONTINUOUS
 62
    3
 10
1427.3334
 20
2023.3759
 11
1305.0001
 21
2023.3766
  0
LINE
  8
1-2
  6
CONTINUOUS
 62
    3
 10
1427.3334
 20
2033.3759
 11
1305.0001
 21
2033.3764
  0
LINE
  8
1-2
  6
CONTINUOUS
 62
    3
 10
1427.3334
 20
2063.376
 11
1305.0001
 21
2063.3767
  0
LINE
  8
1-2
  6
CONTINUOUS
 62
    3
 10
1427.3334
 20
2073.376
 11
1305.0001
 21
2073.3765
  0
LINE
  8
1-2
  6
CONTINUOUS
 62
    3
 10
1305.0001
 20
2101.3771
 11
1050
 21
2101.3771
  0
LINE
  8
1-2
  6
CONTINUOUS
 62
    3
 10
1118.8848
 20
2091.377
 11
1050
 21
2091.377
  0
LINE
  8
1-2
  6
CONTINUOUS
 62
    3
 10
1305.0001
 20
2091.377
 11
1226.094
 21
2091.377
  0
LINE
  8
1-2
  6
CONTINUOUS
 62
    3
 10
1305.0001
 20
2091.377
 11
1305.0001
 21
1920.0437
  0
LINE
  8
1-2
  6
CONTINUOUS
 62
    3
 10
1089.8819
 20
1908.7585
 11
1050
 21
1908.7585
  0
LINE
  8
1-2
  6
CONTINUOUS
 62
    3
 10
1096.5484
 20
1915.425
 11
1096.5484
 21
1924.1517
  0
LINE
  8
1-2
  6
CONTINUOUS
 62
    3
 10
1086.5484
 20
1902.764
 11
1050
 21
1902.764
  0
LINE
  8
1-2
  6
CONTINUOUS
 62
    3
 10
1089.8819
 20
1906.0975
 11
1089.8819
 21
1908.7585
  0
LINE
  8
1-2
  6
CONTINUOUS
 62
    3
 10
1096.5484
 20
1920.0437
 11
1305.0001
 21
1920.0437
  0
LINE
  8
1-2
  6
CONTINUOUS
 62
    3
 10
1093.8169
 20
1910.0437
 11
1305.0001
 21
1910.0437
  0
LINE
  8
1-2
  6
CONTINUOUS
 62
    3
 10
795.00006
 20
1920.0437
 11
1050
 21
1920.0437
  0
LINE
  8
1-2
  6
CONTINUOUS
 62
    3
 10
795.00006
 20
1910.0437
 11
1050
 21
1910.0437
  0
LINE
  8
1-2
  6
CONTINUOUS
 62
    3
 10
672.6668
 20
2073.3765
 11
1050
 21
2073.3765
  0
LINE
  8
1-2
  6
CONTINUOUS
 62
    3
 10
672.6668
 20
2063.3767
 11
1050
 21
2063.3767
  0
LINE
  8
1-2
  6
CONTINUOUS
 62
    3
 10
672.6668
 20
2033.3764
 11
1050
 21
2033.3764
  0
LINE
  8
1-2
  6
CONTINUOUS
 62
    3
 10
672.6668
 20
2023.3766
 11
1050
 21
2023.3766
  0
LINE
  8
1-2
  6
CONTINUOUS
 62
    3
 10
1373.3333
 20
1850.0425
 11
726.66677
 21
1850.0425
  0
LINE
  8
1-2
  6
CONTINUOUS
 62
    3
 10
1373.3333
 20
1850.0425
 11
1373.3333
 21
1810.0426
  0
LINE
  8
1-8
  6
CONTINUOUS
 62
    7
 10
1516.6666
 20
1810.0439
 11
1516.6666
 21
1850.0438
  0
LINE
  8
1-8
  6
CONTINUOUS
 62
    7
 10
726.66708
 20
1686.8362
 11
1373.3333
 21
1686.8362
  0
LINE
  8
1-2
  6
CONTINUOUS
 62
    3
 10
726.66677
 20
1850.0425
 11
830.59168
 21
1910.0437
  0
LINE
  8
1-2
  6
CONTINUOUS
 62
    3
 10
795.00006
 20
1910.0437
 11
795.00006
 21
1889.4948
  0
LINE
  8
1-2
  6
CONTINUOUS
 62
    3
 10
1305.0001
 20
1910.0437
 11
1305.0001
 21
1850.0425
  0
LINE
  8
1-2
  6
CONTINUOUS
 62
    3
 10
1373.3333
 20
1850.0425
 11
1305.0001
 21
1889.4948
  0
LINE
  8
1-2
  6
CONTINUOUS
 62
    3
 10
830.59168
 20
1910.0437
 11
830.59168
 21
1850.0425
  0
LINE
  8
1-8
  6
CONTINUOUS
 62
    7
 10
672.6668
 20
2225.8784
 11
672.6668
 21
2373.063
  0
LINE
  8
1-8
  6
CONTINUOUS
 62
    7
 10
1452.8204
 20
2270.0427
 11
1516.6666
 21
2270.0427
  0
LINE
  8
1-8
  6
CONTINUOUS
 62
    7
 10
1452.8204
 20
2183.3764
 11
1516.6666
 21
2183.3764
  0
LINE
  8
1-8
  6
CONTINUOUS
 62
    7
 10
1452.8204
 20
1850.0438
 11
1516.6666
 21
1850.0438
  0
LINE
  8
1-8
  6
CONTINUOUS
 62
    7
 10
1452.8204
 20
2000.0433
 11
1516.6666
 21
2000.0433
  0
LINE
  8
1-8
  6
CONTINUOUS
 62
    7
 10
1452.8204
 20
1810.0439
 11
1516.6666
 21
1810.0439
  0
LINE
  8
1-8
  6
CONTINUOUS
 62
    7
 10
1373.3333
 20
1779.4625
 11
1373.3333
 21
1686.8362
  0
LINE
  8
1-2
  6
CONTINUOUS
 62
    3
 10
1373.3333
 20
1810.0426
 11
726.66708
 21
1810.0426
  0
LINE
  8
1-8
  6
CONTINUOUS
 62
    7
 10
643.98555
 20
2270.0427
 11
583.33372
 21
2270.0427
  0
LINE
  8
1-8
  6
CONTINUOUS
 62
    7
 10
644.65339
 20
1810.0426
 11
583.33372
 21
1810.0426
  0
LINE
  8
1-8
  6
CONTINUOUS
 62
    7
 10
1328.9181
 20
2101.3771
 11
1385.6051
 21
2101.3771
  0
LINE
  8
1-2
  6
CONTINUOUS
 62
    3
 10
1427.3344
 20
2183.2331
 11
1427.3344
 21
2073.376
  0
LINE
  8
1-2
  6
CONTINUOUS
 62
    3
 10
726.66677
 20
1850.0425
 11
726.66677
 21
1810.0426
  0
LINE
  8
1-8
  6
CONTINUOUS
 62
    7
 10
726.66708
 20
1779.4625
 11
726.66708
 21
1686.8362
  0
LINE
  8
1-2
  6
CONTINUOUS
 62
    3
 10
1221.6225
 20
2230.4894
 11
1050
 21
2131.4029
  0
LINE
  8
ADD_LINE
  6
DOT
 62
    4
 10
795.00006
 20
1755.3047
 11
795.00006
 21
2313.503
  0
LINE
  8
ADD_LINE
  6
DOT
 62
    4
 10
1305.0001
 20
1755.3047
 11
1305.0001
 21
2313.503
  0
LINE
  8
ADD_LINE
  6
DOT
 62
    4
 10
465.31537
 20
2270.0427
 11
1661.7119
 21
2270.0427
  0
LINE
  8
ADD_LINE
  6
DOT
 62
    4
 10
465.31537
 20
2183.3761
 11
1661.7119
 21
2183.3761
  0
LINE
  8
ADD_LINE
  6
DOT
 62
    4
 10
465.31537
 20
2000.0425
 11
1661.7119
 21
2000.0425
  0
LINE
  8
ADD_LINE
  6
DOT
 62
    4
 10
465.31537
 20
1850.0425
 11
1661.7119
 21
1850.0425
  0
LINE
  8
ADD_LINE
  6
DOT
 62
    4
 10
465.31537
 20
1810.0426
 11
1661.7119
 21
1810.0426
  0
LINE
  8
ADD_LINE
  6
DOT
 62
    4
 10
1373.3333
 20
1976.5417
 11
1373.3333
 21
1667.9951
  0
LINE
  8
ADD_LINE
  6
DOT
 62
    4
 10
726.66677
 20
1976.5417
 11
726.66677
 21
1667.9951
  0
LINE
  8
1-2
  6
CONTINUOUS
 62
    3
 10
672.6668
 20
2183.3764
 11
1050
 21
2183.3764
  0
LINE
  8
1-2
  6
CONTINUOUS
 62
    3
 10
1427.3344
 20
2183.3757
 11
1140.0203
 21
2183.3764
  0
LINE
  8
1-2
  6
CONTINUOUS
 62
    3
 10
1050
 20
2270.0427
 11
657.56684
 21
2179.908
  0
LINE
  8
1-2
  6
CONTINUOUS
 62
    3
 10
1050
 20
2270.0427
 11
1442.4334
 21
2179.908
  0
LINE
  8
1-2
  6
CONTINUOUS
 62
    3
 10
1221.6225
 20
2230.4892
 11
1050
 21
2230.4892
  0
LINE
  8
1-8
  6
CONTINUOUS
 62
    7
 10
1427.3344
 20
2225.8784
 11
1427.3344
 21
2373.0625
  0
LINE
  8
1-4
  6
CONTINUOUS
 62
    2
 10
1050
 20
2101.3771
 11
1276.7935
 21
2217.9524
  0
LINE
  8
ADD_LINE
  6
DOT
 62
    4
 10
672.6668
 20
2373.063
 11
672.6668
 21
1881.0705
  0
LINE
  8
ADD_LINE
  6
DOT
 62
    4
 10
1427.3334
 20
2373.0625
 11
1427.3334
 21
1891.8814
  0
LINE
  8
1-1
  6
CENTER2
 62
    7
 10
1050
 20
2339.3694
 11
1050
 21
1759.4595
  0
ARC
  8
1-2
  6
CONTINUOUS
 62
    3
 10
1089.0136
 20
1957.4215
 40
7.5333357
 50
0
 51
90
  0
ARC
  8
1-2
  6
CONTINUOUS
 62
    3
 10
1057.9592
 20
1982.407
 40
4.9833
 50
270
 51
0
  0
ARC
  8
1-2
  6
CONTINUOUS
 62
    3
 10
1057.9592
 20
2049.0079
 40
4.9833
 50
0
 51
90
  0
ARC
  8
1-2
  6
CONTINUOUS
 62
    3
 10
795.00006
 20
1915.0437
 40
5.0000167
 50
90
 51
270
  0
ARC
  8
1-2
  6
CONTINUOUS
 62
    3
 10
1305.0001
 20
1915.0437
 40
5.0000167
 50
270
 51
90.000946
  0
ARC
  8
1-2
  6
CONTINUOUS
 62
    3
 10
672.6668
 20
2068.3765
 40
5.0000167
 50
90
 51
270
  0
ARC
  8
1-2
  6
CONTINUOUS
 62
    3
 10
672.6668
 20
2028.3764
 40
5.0000167
 50
90
 51
270
  0
ARC
  8
1-2
  6
CONTINUOUS
 62
    3
 10
1427.3334
 20
2068.376
 40
5.0000167
 50
270
 51
90
  0
ARC
  8
1-2
  6
CONTINUOUS
 62
    3
 10
1427.3334
 20
2028.3759
 40
5.0000167
 50
270
 51
90
  0
ARC
  8
1-2
  6
CONTINUOUS
 62
    3
 10
1305.0001
 20
2096.3773
 40
5.0000167
 50
270
 51
90
  0
ARC
  8
1-2
  6
CONTINUOUS
 62
    3
 10
1089.8819
 20
1915.425
 40
6.6666666
 50
270
 51
0
  0
ARC
  8
1-2
  6
CONTINUOUS
 62
    3
 10
1086.5484
 20
1906.0975
 40
3.3333333
 50
270
 51
0
  0
ARC
  8
1-4
  6
DASHED1
 62
    2
 10
1050
 20
2101.3771
 40
254.99995
 50
0
 51
27.203857
  0
TEXT
  8
1-d
 10
254.9998
 20
157.4999
 40
25
 41
1
 50
0
  1
図
  0
TEXT
  8
1-d
 10
254.9998
 20
97.49997
 40
25
 41
1
 50
0
  1
番
  0
TEXT
  8
1-d
 10
655.00046
 20
157.4999
 40
25
 41
1
 50
0
  1
承
  0
TEXT
  8
1-d
 10
655.00046
 20
97.49997
 40
25
 41
1
 50
0
  1
認
  0
TEXT
  8
1-d
 10
1020.0003
 20
237.49996
 40
25
 41
1
 50
0
  1
尺
  0
TEXT
  8
1-d
 10
1020.0003
 20
197.49979
 40
25
 41
1
 50
0.0000762
  1
度
  0
TEXT
  8
1-d
 10
855.00014
 20
157.4999
 40
25
 41
1
 50
0
  1
製
  0
TEXT
  8
1-d
 10
855.00014
 20
97.49997
 40
25
 41
1
 50
0
  1
図
  0
TEXT
  8
1-d
 10
1555.0001
 20
237.49996
 40
25
 41
1
 50
0
  1
日
  0
TEXT
  8
1-d
 10
1555.0001
 20
197.49979
 40
25
 41
1
 50
0.0000762
  1
付
  0
TEXT
  8
1-d
 10
1111.4263
 20
163.48226
 40
20
 41
1
 50
0
  1
株式
  0
TEXT
  8
1-d
 10
1111.4263
 20
141.85181
 40
20
 41
1
 50
0.0000152
  1
会社
  0
TEXT
  8
1-d
 10
1174.2247
 20
143.24712
 40
40
 41
1
 50
0
  1
スズキベンチレーター
  0
TEXT
  8
1-d
 10
1237.9182
 20
94.024183
 40
20
 41
1
 50
0
  1
TEL(054)296-7000  FAX(054)296-7001
  0
TEXT
  8
1-8
 10
1012.1397
 20
2382.0614
 40
30
 41
1
 50
0
  1
1,130
  0
TEXT
  8
1-8
 10
1509.9998
 20
2069.2096
 40
30
 41
1
 50
90
  1
275
  0
TEXT
  8
1-8
 10
1509.9998
 20
2204.2096
 40
30
 41
1
 50
90
  1
130
  0
TEXT
  8
1-8
 10
563.33365
 20
2035.8758
 40
30
 41
1
 50
90
  1
690
  0
TEXT
  8
1-8
 10
1509.9998
 20
1900.8768
 40
30
 41
1
 50
90
  1
225
  0
TEXT
  8
1-8
 10
1509.9998
 20
1815.4603
 40
30
 41
1
 50
90
  1
60
  0
TEXT
  8
1-8
 10
1378.9384
 20
1953.2098
 40
30
 41
1
 50
90
  1
370
  0
TEXT
  8
1-8
 10
1015.8335
 20
1693.5029
 40
30
 41
1
 50
0
  1
970*970
  0
TEXT
  8
1-d
 10
1084.349
 20
210.10066
 40
40
 41
1
 50
0
  1
１／１５
  0
TEXT
  8
1-d
 10
308.45927
 20
140.30214
 40
30
 41
1
 50
0
  1
75-E03b
  0
TEXT
  8
1-d
 10
255.00006
 20
2792.7014
 40
50
 41
1
 50
0
  1
ＳＴ－７５　架台型（ダンパー付）断面
  0
TEXT
  8
1-d
 10
280.6757
 20
215.81083
 40
30
 41
1
 50
0
  1
ＳＴ－７５　架台型（ダンパー付）断面
  0
TEXT
  8
1-d
 10
1235.6794
 20
118.64593
 40
20
 41
1
 50
0
  1
〒421-2114　静岡市葵区安倍口新田１５２番地
  0
POINT
  8
1-8
 62
    2
 10
583.33372
 20
1810.0426
  0
POINT
  8
1-8
 62
    2
 10
583.33372
 20
2270.0427
  0
POINT
  8
1-8
 62
    2
 10
672.6668
 20
2373.063
  0
POINT
  8
1-8
 62
    2
 10
1427.3344
 20
2373.0625
  0
POINT
  8
1-8
 62
    2
 10
1516.6666
 20
2000.0433
  0
POINT
  8
1-8
 62
    2
 10
1516.6666
 20
2183.3764
  0
POINT
  8
1-8
 62
    2
 10
1516.6666
 20
2270.0427
  0
POINT
  8
1-8
 62
    2
 10
1516.6666
 20
1850.0438
  0
POINT
  8
1-8
 62
    2
 10
1385.6051
 20
1850.0425
  0
POINT
  8
1-8
 62
    2
 10
1385.6051
 20
2101.3771
  0
POINT
  8
1-8
 62
    2
 10
1516.6666
 20
1810.0439
  0
POINT
  8
1-8
 62
    2
 10
726.66708
 20
1686.8362
  0
POINT
  8
1-8
 62
    2
 10
1373.3333
 20
1686.8362
  0
ENDSEC
  0
EOF
