  0
SECTION
  2
HEADER
  9
$EXTMIN
 10
0
 20
0
  9
$EXTMAX
 10
4200
 20
2970
  0
ENDSEC
  0
SECTION
  2
TABLES
  0
TABLE
  2
LTYPE
 70
     9
  0
LTYPE
  2
CONTINUOUS
 70
    64
  3
実線
 72
    65
 73
     0
 40
0.0
  0
LTYPE
  2
DASHED1
 70
    64
  3
--  --  --  --  --  --  --  --  
 72
    65
 73
     2
 40
2.5
 49
1.25
 49
-1.25
  0
LTYPE
  2
DASHED2
 70
    64
  3
----    ----    ----    ----    
 72
    65
 73
     2
 40
5.0
 49
2.5
 49
-2.5
  0
LTYPE
  2
DASHED3
 70
    64
  3
------  ------  ------  ------  
 72
    65
 73
     2
 40
5.0
 49
3.75
 49
-1.25
  0
LTYPE
  2
CENTER1
 70
    64
  3
----- - ----- - ----- - ----- - 
 72
    65
 73
     4
 40
10.0
 49
6.25
 49
-1.25
 49
1.25
 49
-1.25
  0
LTYPE
  2
CENTER2
 70
    64
  3
----------  --  ----------  --  
 72
    65
 73
     4
 40
20.0
 49
12.5
 49
-2.5
 49
2.5
 49
-2.5
  0
LTYPE
  2
PHANTOM1
 70
    64
  3
--- - - --- - - --- - - --- - - 
 72
    65
 73
     6
 40
10.0
 49
3.25
 49
-1.25
 49
1.25
 49
-1.25
 49
1.25
 49
-1.25
  0
LTYPE
  2
PHANTOM2
 70
    64
  3
--------  -  -  --------  -  -  
 72
    65
 73
     6
 40
20.0
 49
10.0
 49
-2.5
 49
1.25
 49
-2.5
 49
1.25
 49
-2.5
  0
LTYPE
  2
DOT
 70
    64
  3
-   -   -   -   -   -   -   -   
 72
    65
 73
     2
 40
2.5
 49
0.625
 49
-1.875
  0
ENDTAB
  0
TABLE
  2
STYLE
 70
    1
  0
STYLE
  2
STANDARD
 70
    64
 40
0.0
 41
1.0
 42
0.0
 50
0.0
 71
     0
  3
TXT
  4
BIGFONT
  0
ENDTAB
  0
TABLE
  2
LAYER
 70
    7
  0
LAYER
  2
1-0
 70
   64
 62
    7
  6
CONTINUOUS
  0
LAYER
  2
1-1
 70
   64
 62
    7
  6
CONTINUOUS
  0
LAYER
  2
1-2
 70
   64
 62
    7
  6
CONTINUOUS
  0
LAYER
  2
1-4
 70
   64
 62
    7
  6
CONTINUOUS
  0
LAYER
  2
1-8
 70
   64
 62
    7
  6
CONTINUOUS
  0
LAYER
  2
1-d
 70
   64
 62
    7
  6
CONTINUOUS
  0
LAYER
  2
ADD_LINE
 70
   64
 62
    7
  6
CONTINUOUS
  0
ENDTAB
  0
ENDSEC
  0
SECTION
  2
ENTITIES
  0
LINE
  8
1-d
  6
CONTINUOUS
 62
    7
 10
250.00006
 20
2757.7013
 11
1850.0001
 21
2757.7013
  0
LINE
  8
1-d
  6
CONTINUOUS
 62
    7
 10
250.00006
 20
2767.7016
 11
1850.0001
 21
2767.7016
  0
LINE
  8
1-d
  6
CONTINUOUS
 62
    7
 10
249.99969
 20
189.99989
 11
1850.0005
 21
189.99989
  0
LINE
  8
1-d
  6
CONTINUOUS
 62
    7
 10
249.99969
 20
89.999806
 11
249.99969
 21
269.99991
  0
LINE
  8
1-d
  6
CONTINUOUS
 62
    7
 10
249.99969
 20
89.999806
 11
1850.0005
 21
89.999806
  0
LINE
  8
1-d
  6
CONTINUOUS
 62
    7
 10
1850.0005
 20
269.99991
 11
1850.0005
 21
89.999806
  0
LINE
  8
1-d
  6
CONTINUOUS
 62
    7
 10
249.99969
 20
269.99991
 11
1850.0005
 21
269.99991
  0
LINE
  8
1-d
  6
CONTINUOUS
 62
    7
 10
1050
 20
269.99991
 11
1050
 21
89.999806
  0
LINE
  8
1-d
  6
CONTINUOUS
 62
    7
 10
650.00019
 20
89.999806
 11
650.00019
 21
189.99989
  0
LINE
  8
1-d
  6
CONTINUOUS
 62
    7
 10
1050
 20
189.99989
 11
1050
 21
269.99991
  0
LINE
  8
1-d
  6
CONTINUOUS
 62
    7
 10
849.99981
 20
89.999806
 11
849.99981
 21
189.99989
  0
LINE
  8
1-d
  6
CONTINUOUS
 62
    7
 10
285.00002
 20
89.999806
 11
285.00002
 21
189.99989
  0
LINE
  8
1-d
  6
CONTINUOUS
 62
    7
 10
685.00006
 20
89.999806
 11
685.00006
 21
189.99989
  0
LINE
  8
1-d
  6
CONTINUOUS
 62
    7
 10
885.00018
 20
89.999806
 11
885.00018
 21
189.99989
  0
LINE
  8
1-d
  6
CONTINUOUS
 62
    7
 10
1015
 20
189.99989
 11
1015
 21
269.99991
  0
LINE
  8
1-d
  6
CONTINUOUS
 62
    7
 10
1550.0004
 20
189.99989
 11
1550.0004
 21
269.99991
  0
LINE
  8
1-d
  6
CONTINUOUS
 62
    7
 10
1585.0002
 20
189.99989
 11
1585.0002
 21
269.99991
  0
LINE
  8
1-2
  6
CONTINUOUS
 62
    3
 10
1068.2561
 20
2068.0736
 11
1073.0607
 21
2071.0266
  0
LINE
  8
1-2
  6
CONTINUOUS
 62
    3
 10
1073.0607
 20
2071.0266
 11
1077.8427
 21
2074.0384
  0
LINE
  8
1-2
  6
CONTINUOUS
 62
    3
 10
1077.8427
 20
2074.0384
 11
1082.5794
 21
2077.1626
  0
LINE
  8
1-2
  6
CONTINUOUS
 62
    3
 10
1082.5794
 20
2077.1626
 11
1087.2182
 21
2080.461
  0
LINE
  8
1-2
  6
CONTINUOUS
 62
    3
 10
1087.2182
 20
2080.461
 11
1091.6743
 21
2083.9989
  0
LINE
  8
1-2
  6
CONTINUOUS
 62
    3
 10
1091.6743
 20
2083.9989
 11
1095.8543
 21
2087.8352
  0
LINE
  8
1-2
  6
CONTINUOUS
 62
    3
 10
1095.8543
 20
2087.8352
 11
1099.6669
 21
2092.0377
  0
LINE
  8
1-2
  6
CONTINUOUS
 62
    3
 10
1099.6669
 20
2092.0377
 11
1103.0209
 21
2096.6656
  0
LINE
  8
1-2
  6
CONTINUOUS
 62
    3
 10
1103.0209
 20
2096.6656
 11
1105.9459
 21
2101.6715
  0
LINE
  8
1-2
  6
CONTINUOUS
 62
    3
 10
1105.9459
 20
2101.6715
 11
1108.7098
 21
2106.7831
  0
LINE
  8
1-2
  6
CONTINUOUS
 62
    3
 10
1108.7098
 20
2106.7831
 11
1111.593
 21
2111.7126
  0
LINE
  8
1-2
  6
CONTINUOUS
 62
    3
 10
1111.593
 20
2111.7126
 11
1114.8918
 21
2116.1707
  0
LINE
  8
1-2
  6
CONTINUOUS
 62
    3
 10
1114.8918
 20
2116.1707
 11
1118.8845
 21
2119.8672
  0
LINE
  8
1-2
  6
CONTINUOUS
 62
    3
 10
1118.8845
 20
2119.8672
 11
1123.6601
 21
2122.7249
  0
LINE
  8
1-2
  6
CONTINUOUS
 62
    3
 10
1123.6601
 20
2122.7249
 11
1128.9269
 21
2125.06
  0
LINE
  8
1-2
  6
CONTINUOUS
 62
    3
 10
1128.9269
 20
2125.06
 11
1131.4203
 21
2126.0562
  0
LINE
  8
1-2
  6
CONTINUOUS
 62
    3
 10
1128.9269
 20
2125.06
 11
1132.3952
 21
2125.6113
  0
LINE
  8
1-2
  6
CONTINUOUS
 62
    3
 10
1132.3952
 20
2125.6113
 11
1135.8948
 21
2126.0906
  0
LINE
  8
1-2
  6
CONTINUOUS
 62
    3
 10
1135.8948
 20
2126.0906
 11
1139.452
 21
2126.4341
  0
LINE
  8
1-2
  6
CONTINUOUS
 62
    3
 10
1139.452
 20
2126.4341
 11
1143.0965
 21
2126.564
  0
LINE
  8
1-2
  6
CONTINUOUS
 62
    3
 10
1143.0965
 20
2126.564
 11
1146.8522
 21
2126.4165
  0
LINE
  8
1-2
  6
CONTINUOUS
 62
    3
 10
1146.8522
 20
2126.4165
 11
1150.6098
 21
2125.8691
  0
LINE
  8
1-2
  6
CONTINUOUS
 62
    3
 10
1150.6098
 20
2125.8691
 11
1154.1155
 21
2124.7713
  0
LINE
  8
1-2
  6
CONTINUOUS
 62
    3
 10
1154.1155
 20
2124.7713
 11
1157.1033
 21
2122.9513
  0
LINE
  8
1-2
  6
CONTINUOUS
 62
    3
 10
1157.1033
 20
2122.9513
 11
1159.3588
 21
2120.2914
  0
LINE
  8
1-2
  6
CONTINUOUS
 62
    3
 10
1159.3588
 20
2120.2914
 11
1161.1171
 21
2117.0981
  0
LINE
  8
1-2
  6
CONTINUOUS
 62
    3
 10
1066.3699
 20
2054.8759
 11
1072.0001
 21
2055.712
  0
LINE
  8
1-2
  6
CONTINUOUS
 62
    3
 10
1072.0001
 20
2055.712
 11
1077.5957
 21
2056.6578
  0
LINE
  8
1-2
  6
CONTINUOUS
 62
    3
 10
1077.5957
 20
2056.6578
 11
1083.13
 21
2057.8138
  0
LINE
  8
1-2
  6
CONTINUOUS
 62
    3
 10
1083.13
 20
2057.8138
 11
1088.5647
 21
2059.293
  0
LINE
  8
1-2
  6
CONTINUOUS
 62
    3
 10
1088.5647
 20
2059.293
 11
1093.8718
 21
2061.1968
  0
LINE
  8
1-2
  6
CONTINUOUS
 62
    3
 10
1093.8718
 20
2061.1968
 11
1099.0218
 21
2063.5519
  0
LINE
  8
1-2
  6
CONTINUOUS
 62
    3
 10
1099.0218
 20
2063.5519
 11
1103.9921
 21
2066.3126
  0
LINE
  8
1-2
  6
CONTINUOUS
 62
    3
 10
1103.9921
 20
2066.3126
 11
1108.7561
 21
2069.4469
  0
LINE
  8
1-2
  6
CONTINUOUS
 62
    3
 10
1108.7561
 20
2069.4469
 11
1113.2909
 21
2072.8992
  0
LINE
  8
1-2
  6
CONTINUOUS
 62
    3
 10
1113.2909
 20
2072.8992
 11
1117.5746
 21
2076.636
  0
LINE
  8
1-2
  6
CONTINUOUS
 62
    3
 10
1117.5746
 20
2076.636
 11
1121.6405
 21
2080.5899
  0
LINE
  8
1-2
  6
CONTINUOUS
 62
    3
 10
1121.6405
 20
2080.5899
 11
1125.5701
 21
2084.6707
  0
LINE
  8
1-2
  6
CONTINUOUS
 62
    3
 10
1125.5701
 20
2084.6707
 11
1129.45
 21
2088.7883
  0
LINE
  8
1-2
  6
CONTINUOUS
 62
    3
 10
1129.45
 20
2088.7883
 11
1133.3622
 21
2092.852
  0
LINE
  8
1-2
  6
CONTINUOUS
 62
    3
 10
1133.3622
 20
2092.852
 11
1137.3962
 21
2096.7725
  0
LINE
  8
1-2
  6
CONTINUOUS
 62
    3
 10
1137.3962
 20
2096.7725
 11
1141.6292
 21
2100.4722
  0
LINE
  8
1-2
  6
CONTINUOUS
 62
    3
 10
1141.6292
 20
2100.4722
 11
1146.0554
 21
2103.9482
  0
LINE
  8
1-2
  6
CONTINUOUS
 62
    3
 10
1146.0554
 20
2103.9482
 11
1150.6392
 21
2107.2538
  0
LINE
  8
1-2
  6
CONTINUOUS
 62
    3
 10
1150.6392
 20
2107.2538
 11
1155.3324
 21
2110.4304
  0
LINE
  8
1-2
  6
CONTINUOUS
 62
    3
 10
1155.3324
 20
2110.4304
 11
1160.0996
 21
2113.5278
  0
LINE
  8
1-2
  6
CONTINUOUS
 62
    3
 10
1160.0996
 20
2113.5278
 11
1163.4744
 21
2115.6845
  0
LINE
  8
1-2
  6
CONTINUOUS
 62
    3
 10
1163.4744
 20
2115.6845
 11
1168.7407
 21
2117.8692
  0
LINE
  8
1-2
  6
CONTINUOUS
 62
    3
 10
1168.7407
 20
2117.8692
 11
1174.0369
 21
2119.9083
  0
LINE
  8
1-2
  6
CONTINUOUS
 62
    3
 10
1174.0369
 20
2119.9083
 11
1179.3959
 21
2121.659
  0
LINE
  8
1-2
  6
CONTINUOUS
 62
    3
 10
1179.3959
 20
2121.659
 11
1184.8488
 21
2122.9783
  0
LINE
  8
1-2
  6
CONTINUOUS
 62
    3
 10
1184.8488
 20
2122.9783
 11
1190.4085
 21
2123.7867
  0
LINE
  8
1-2
  6
CONTINUOUS
 62
    3
 10
1190.4085
 20
2123.7867
 11
1196.0481
 21
2124.1415
  0
LINE
  8
1-2
  6
CONTINUOUS
 62
    3
 10
1196.0481
 20
2124.1415
 11
1201.7351
 21
2124.1207
  0
LINE
  8
1-2
  6
CONTINUOUS
 62
    3
 10
1201.7351
 20
2124.1207
 11
1207.4388
 21
2123.8006
  0
LINE
  8
1-2
  6
CONTINUOUS
 62
    3
 10
1207.4388
 20
2123.8006
 11
1213.1324
 21
2123.2604
  0
LINE
  8
1-2
  6
CONTINUOUS
 62
    3
 10
1213.1324
 20
2123.2604
 11
1218.7819
 21
2122.5656
  0
LINE
  8
1-2
  6
CONTINUOUS
 62
    3
 10
1218.7819
 20
2122.5656
 11
1224.3825
 21
2121.7015
  0
LINE
  8
1-2
  6
CONTINUOUS
 62
    3
 10
1224.3825
 20
2121.7015
 11
1229.9345
 21
2120.6494
  0
LINE
  8
1-2
  6
CONTINUOUS
 62
    3
 10
1229.9345
 20
2120.6494
 11
1235.4312
 21
2119.3736
  0
LINE
  8
1-2
  6
CONTINUOUS
 62
    3
 10
1235.4312
 20
2119.3736
 11
1240.8748
 21
2117.8514
  0
LINE
  8
1-2
  6
CONTINUOUS
 62
    3
 10
1240.8748
 20
2117.8514
 11
1246.2636
 21
2116.0493
  0
LINE
  8
1-2
  6
CONTINUOUS
 62
    3
 10
1246.2636
 20
2116.0493
 11
1251.5761
 21
2113.9418
  0
LINE
  8
1-2
  6
CONTINUOUS
 62
    3
 10
1251.5761
 20
2113.9418
 11
1256.762
 21
2111.5053
  0
LINE
  8
1-2
  6
CONTINUOUS
 62
    3
 10
1256.762
 20
2111.5053
 11
1261.7464
 21
2108.7248
  0
LINE
  8
1-2
  6
CONTINUOUS
 62
    3
 10
1261.7464
 20
2108.7248
 11
1266.4641
 21
2105.5744
  0
LINE
  8
1-2
  6
CONTINUOUS
 62
    3
 10
1266.4641
 20
2105.5744
 11
1270.8467
 21
2102.0308
  0
LINE
  8
1-2
  6
CONTINUOUS
 62
    3
 10
1270.8467
 20
2102.0308
 11
1274.8335
 21
2098.0839
  0
LINE
  8
1-2
  6
CONTINUOUS
 62
    3
 10
1274.8335
 20
2098.0839
 11
1278.476
 21
2093.7913
  0
LINE
  8
1-2
  6
CONTINUOUS
 62
    3
 10
1278.476
 20
2093.7913
 11
1281.865
 21
2089.2483
  0
LINE
  8
1-2
  6
CONTINUOUS
 62
    3
 10
1281.865
 20
2089.2483
 11
1285.0963
 21
2084.5512
  0
LINE
  8
1-2
  6
CONTINUOUS
 62
    3
 10
1285.0963
 20
2084.5512
 11
1286.9739
 21
2081.7459
  0
LINE
  8
1-2
  6
CONTINUOUS
 62
    3
 10
1285.0963
 20
2084.5512
 11
1287.6227
 21
2079.3193
  0
LINE
  8
1-2
  6
CONTINUOUS
 62
    3
 10
1287.6227
 20
2079.3193
 11
1290.0149
 21
2074.0642
  0
LINE
  8
1-2
  6
CONTINUOUS
 62
    3
 10
1290.0149
 20
2074.0642
 11
1292.1429
 21
2068.7722
  0
LINE
  8
1-2
  6
CONTINUOUS
 62
    3
 10
1292.1429
 20
2068.7722
 11
1293.8715
 21
2063.4143
  0
LINE
  8
1-2
  6
CONTINUOUS
 62
    3
 10
1293.8715
 20
2063.4143
 11
1295.0691
 21
2057.9761
  0
LINE
  8
1-2
  6
CONTINUOUS
 62
    3
 10
1295.0691
 20
2057.9761
 11
1295.6075
 21
2052.4362
  0
LINE
  8
1-2
  6
CONTINUOUS
 62
    3
 10
1295.6075
 20
2052.4362
 11
1295.4531
 21
2046.8163
  0
LINE
  8
1-2
  6
CONTINUOUS
 62
    3
 10
1295.4531
 20
2046.8163
 11
1294.6997
 21
2041.1717
  0
LINE
  8
1-2
  6
CONTINUOUS
 62
    3
 10
1294.6997
 20
2041.1717
 11
1293.4447
 21
2035.5677
  0
LINE
  8
1-2
  6
CONTINUOUS
 62
    3
 10
1293.4447
 20
2035.5677
 11
1291.774
 21
2030.0686
  0
LINE
  8
1-2
  6
CONTINUOUS
 62
    3
 10
1291.774
 20
2030.0686
 11
1289.7155
 21
2024.7501
  0
LINE
  8
1-2
  6
CONTINUOUS
 62
    3
 10
1289.7155
 20
2024.7501
 11
1287.2136
 21
2019.687
  0
LINE
  8
1-2
  6
CONTINUOUS
 62
    3
 10
1287.2136
 20
2019.687
 11
1284.208
 21
2014.9584
  0
LINE
  8
1-2
  6
CONTINUOUS
 62
    3
 10
1284.208
 20
2014.9584
 11
1280.7057
 21
2010.5916
  0
LINE
  8
1-2
  6
CONTINUOUS
 62
    3
 10
1280.7057
 20
2010.5916
 11
1276.8125
 21
2006.5062
  0
LINE
  8
1-2
  6
CONTINUOUS
 62
    3
 10
1276.8125
 20
2006.5062
 11
1272.6511
 21
2002.6171
  0
LINE
  8
1-2
  6
CONTINUOUS
 62
    3
 10
1272.6511
 20
2002.6171
 11
1268.3377
 21
1998.8412
  0
LINE
  8
1-2
  6
CONTINUOUS
 62
    3
 10
1268.3377
 20
1998.8412
 11
1267.175
 21
1997.8418
  0
LINE
  8
1-2
  6
CONTINUOUS
 62
    3
 10
1268.3377
 20
1998.8412
 11
1263.3874
 21
1996.0659
  0
LINE
  8
1-2
  6
CONTINUOUS
 62
    3
 10
1263.3874
 20
1996.0659
 11
1258.4183
 21
1993.3416
  0
LINE
  8
1-2
  6
CONTINUOUS
 62
    3
 10
1258.4183
 20
1993.3416
 11
1253.4077
 21
1990.7168
  0
LINE
  8
1-2
  6
CONTINUOUS
 62
    3
 10
1253.4077
 20
1990.7168
 11
1248.3287
 21
1988.2409
  0
LINE
  8
1-2
  6
CONTINUOUS
 62
    3
 10
1248.3287
 20
1988.2409
 11
1243.1681
 21
1985.9625
  0
LINE
  8
1-2
  6
CONTINUOUS
 62
    3
 10
1243.1681
 20
1985.9625
 11
1237.8976
 21
1983.9307
  0
LINE
  8
1-2
  6
CONTINUOUS
 62
    3
 10
1237.8976
 20
1983.9307
 11
1232.5158
 21
1982.1749
  0
LINE
  8
1-2
  6
CONTINUOUS
 62
    3
 10
1232.5158
 20
1982.1749
 11
1227.0449
 21
1980.7011
  0
LINE
  8
1-2
  6
CONTINUOUS
 62
    3
 10
1227.0449
 20
1980.7011
 11
1221.5057
 21
1979.5075
  0
LINE
  8
1-2
  6
CONTINUOUS
 62
    3
 10
1221.5057
 20
1979.5075
 11
1215.9158
 21
1978.5942
  0
LINE
  8
1-2
  6
CONTINUOUS
 62
    3
 10
1215.9158
 20
1978.5942
 11
1210.3014
 21
1977.9553
  0
LINE
  8
1-2
  6
CONTINUOUS
 62
    3
 10
1210.3014
 20
1977.9553
 11
1204.6685
 21
1977.5418
  0
LINE
  8
1-2
  6
CONTINUOUS
 62
    3
 10
1204.6685
 20
1977.5418
 11
1199.0211
 21
1977.3006
  0
LINE
  8
1-2
  6
CONTINUOUS
 62
    3
 10
1199.0211
 20
1977.3006
 11
1193.361
 21
1977.1697
  0
LINE
  8
1-2
  6
CONTINUOUS
 62
    3
 10
1193.361
 20
1977.1697
 11
1188.455
 21
1977.1006
  0
LINE
  8
1-2
  6
CONTINUOUS
 62
    3
 10
1125.2123
 20
1976.5808
 11
1130.5058
 21
1974.4384
  0
LINE
  8
1-2
  6
CONTINUOUS
 62
    3
 10
1130.5058
 20
1974.4384
 11
1135.8304
 21
1972.3201
  0
LINE
  8
1-2
  6
CONTINUOUS
 62
    3
 10
1135.8304
 20
1972.3201
 11
1141.2048
 21
1970.3683
  0
LINE
  8
1-2
  6
CONTINUOUS
 62
    3
 10
1141.2048
 20
1970.3683
 11
1146.6307
 21
1968.7409
  0
LINE
  8
1-2
  6
CONTINUOUS
 62
    3
 10
1146.6307
 20
1968.7409
 11
1152.1231
 21
1967.593
  0
LINE
  8
1-2
  6
CONTINUOUS
 62
    3
 10
1152.1231
 20
1967.593
 11
1157.6935
 21
1967.0791
  0
LINE
  8
1-2
  6
CONTINUOUS
 62
    3
 10
1157.6935
 20
1967.0791
 11
1163.3289
 21
1967.1595
  0
LINE
  8
1-2
  6
CONTINUOUS
 62
    3
 10
1163.3289
 20
1967.1595
 11
1169.0054
 21
1967.5782
  0
LINE
  8
1-2
  6
CONTINUOUS
 62
    3
 10
1169.0054
 20
1967.5782
 11
1170.0719
 21
1967.6722
  0
LINE
  8
1-2
  6
CONTINUOUS
 62
    3
 10
1169.0054
 20
1967.5782
 11
1173.6469
 21
1968.6135
  0
LINE
  8
1-2
  6
CONTINUOUS
 62
    3
 10
1173.6469
 20
1968.6135
 11
1178.1018
 21
1970.0456
  0
LINE
  8
1-2
  6
CONTINUOUS
 62
    3
 10
1178.1018
 20
1970.0456
 11
1182.1895
 21
1972.2761
  0
LINE
  8
1-2
  6
CONTINUOUS
 62
    3
 10
1182.1895
 20
1972.2761
 11
1185.6742
 21
1975.476
  0
LINE
  8
1-2
  6
CONTINUOUS
 62
    3
 10
1185.6742
 20
1975.476
 11
1188.258
 21
1979.4867
  0
LINE
  8
1-2
  6
CONTINUOUS
 62
    3
 10
1188.258
 20
1979.4867
 11
1189.6652
 21
1984.073
  0
LINE
  8
1-2
  6
CONTINUOUS
 62
    3
 10
1189.6652
 20
1984.073
 11
1189.7691
 21
1988.8162
  0
LINE
  8
1-2
  6
CONTINUOUS
 62
    3
 10
1189.7691
 20
1988.8162
 11
1188.5139
 21
1993.2602
  0
LINE
  8
1-2
  6
CONTINUOUS
 62
    3
 10
1188.5139
 20
1993.2602
 11
1186.1684
 21
1997.3031
  0
LINE
  8
1-2
  6
CONTINUOUS
 62
    3
 10
1186.1684
 20
1997.3031
 11
1183.2709
 21
2001.1407
  0
LINE
  8
1-2
  6
CONTINUOUS
 62
    3
 10
1074.5146
 20
2047.5596
 11
1080.2193
 21
2046.5884
  0
LINE
  8
1-2
  6
CONTINUOUS
 62
    3
 10
1080.2193
 20
2046.5884
 11
1085.9053
 21
2045.7815
  0
LINE
  8
1-2
  6
CONTINUOUS
 62
    3
 10
1085.9053
 20
2045.7815
 11
1091.5494
 21
2045.302
  0
LINE
  8
1-2
  6
CONTINUOUS
 62
    3
 10
1091.5494
 20
2045.302
 11
1097.1326
 21
2045.3107
  0
LINE
  8
1-2
  6
CONTINUOUS
 62
    3
 10
1097.1326
 20
2045.3107
 11
1102.6342
 21
2045.9676
  0
LINE
  8
1-2
  6
CONTINUOUS
 62
    3
 10
1102.6342
 20
2045.9676
 11
1108.0546
 21
2047.3018
  0
LINE
  8
1-2
  6
CONTINUOUS
 62
    3
 10
1108.0546
 20
2047.3018
 11
1113.4062
 21
2049.1331
  0
LINE
  8
1-2
  6
CONTINUOUS
 62
    3
 10
1113.4062
 20
2049.1331
 11
1118.7143
 21
2051.2809
  0
LINE
  8
1-2
  6
CONTINUOUS
 62
    3
 10
1118.7143
 20
2051.2809
 11
1123.9895
 21
2053.5507
  0
LINE
  8
1-2
  6
CONTINUOUS
 62
    3
 10
1123.9895
 20
2053.5507
 11
1129.2587
 21
2055.7793
  0
LINE
  8
1-2
  6
CONTINUOUS
 62
    3
 10
1129.2587
 20
2055.7793
 11
1134.5225
 21
2057.9242
  0
LINE
  8
1-2
  6
CONTINUOUS
 62
    3
 10
1134.5225
 20
2057.9242
 11
1139.786
 21
2060.0051
  0
LINE
  8
1-2
  6
CONTINUOUS
 62
    3
 10
1139.786
 20
2060.0051
 11
1145.0436
 21
2062.0341
  0
LINE
  8
1-2
  6
CONTINUOUS
 62
    3
 10
1145.0436
 20
2062.0341
 11
1150.3012
 21
2064.0255
  0
LINE
  8
1-2
  6
CONTINUOUS
 62
    3
 10
1150.3012
 20
2064.0255
 11
1155.5601
 21
2065.9991
  0
LINE
  8
1-2
  6
CONTINUOUS
 62
    3
 10
1155.5601
 20
2065.9991
 11
1155.4868
 21
2061.156
  0
LINE
  8
1-2
  6
CONTINUOUS
 62
    3
 10
1155.4868
 20
2061.156
 11
1155.417
 21
2056.318
  0
LINE
  8
1-2
  6
CONTINUOUS
 62
    3
 10
1155.417
 20
2056.318
 11
1155.3473
 21
2051.4741
  0
LINE
  8
1-2
  6
CONTINUOUS
 62
    3
 10
1155.3473
 20
2051.4741
 11
1155.2745
 21
2046.6352
  0
LINE
  8
1-2
  6
CONTINUOUS
 62
    3
 10
1155.2745
 20
2046.6352
 11
1155.2052
 21
2041.797
  0
LINE
  8
1-2
  6
CONTINUOUS
 62
    3
 10
1155.2052
 20
2041.797
 11
1155.1352
 21
2036.9534
  0
LINE
  8
1-2
  6
CONTINUOUS
 62
    3
 10
1155.1352
 20
2036.9534
 11
1155.0622
 21
2032.1154
  0
LINE
  8
1-2
  6
CONTINUOUS
 62
    3
 10
1155.0622
 20
2032.1154
 11
1154.9929
 21
2027.2723
  0
LINE
  8
1-2
  6
CONTINUOUS
 62
    3
 10
1154.9929
 20
2027.2723
 11
1154.9207
 21
2022.4326
  0
LINE
  8
1-2
  6
CONTINUOUS
 62
    3
 10
1154.9207
 20
2022.4326
 11
1154.8504
 21
2017.5907
  0
LINE
  8
1-2
  6
CONTINUOUS
 62
    3
 10
1183.2709
 20
2001.1407
 11
1182.1133
 21
2002.1609
  0
LINE
  8
1-2
  6
CONTINUOUS
 62
    3
 10
1182.1133
 20
2002.1609
 11
1180.45
 21
2003.3946
  0
LINE
  8
1-2
  6
CONTINUOUS
 62
    3
 10
1180.45
 20
2003.3946
 11
1178.3466
 21
2004.806
  0
LINE
  8
1-2
  6
CONTINUOUS
 62
    3
 10
1178.3466
 20
2004.806
 11
1175.8595
 21
2006.3609
  0
LINE
  8
1-2
  6
CONTINUOUS
 62
    3
 10
1175.8595
 20
2006.3609
 11
1173.0244
 21
2008.0284
  0
LINE
  8
1-2
  6
CONTINUOUS
 62
    3
 10
1173.0244
 20
2008.0284
 11
1169.8918
 21
2009.7872
  0
LINE
  8
1-2
  6
CONTINUOUS
 62
    3
 10
1169.8918
 20
2009.7872
 11
1166.4915
 21
2011.6153
  0
LINE
  8
1-2
  6
CONTINUOUS
 62
    3
 10
1166.4915
 20
2011.6153
 11
1162.8491
 21
2013.4926
  0
LINE
  8
1-2
  6
CONTINUOUS
 62
    3
 10
1162.8491
 20
2013.4926
 11
1158.9977
 21
2015.4051
  0
LINE
  8
1-2
  6
CONTINUOUS
 62
    3
 10
1158.9977
 20
2015.4051
 11
1154.9583
 21
2017.3383
  0
LINE
  8
1-2
  6
CONTINUOUS
 62
    3
 10
1154.9583
 20
2017.3383
 11
1150.7456
 21
2019.2797
  0
LINE
  8
1-2
  6
CONTINUOUS
 62
    3
 10
1150.7456
 20
2019.2797
 11
1146.3862
 21
2021.2236
  0
LINE
  8
1-2
  6
CONTINUOUS
 62
    3
 10
1146.3862
 20
2021.2236
 11
1141.8922
 21
2023.1571
  0
LINE
  8
1-2
  6
CONTINUOUS
 62
    3
 10
1141.8922
 20
2023.1571
 11
1137.2861
 21
2025.0753
  0
LINE
  8
1-2
  6
CONTINUOUS
 62
    3
 10
1137.2861
 20
2025.0753
 11
1132.5803
 21
2026.9736
  0
LINE
  8
1-2
  6
CONTINUOUS
 62
    3
 10
1132.5803
 20
2026.9736
 11
1127.7934
 21
2028.8428
  0
LINE
  8
1-2
  6
CONTINUOUS
 62
    3
 10
1127.7934
 20
2028.8428
 11
1122.9425
 21
2030.6813
  0
LINE
  8
1-2
  6
CONTINUOUS
 62
    3
 10
1122.9425
 20
2030.6813
 11
1118.0479
 21
2032.4846
  0
LINE
  8
1-2
  6
CONTINUOUS
 62
    3
 10
1118.0479
 20
2032.4846
 11
1113.1298
 21
2034.2521
  0
LINE
  8
1-2
  6
CONTINUOUS
 62
    3
 10
1113.1298
 20
2034.2521
 11
1108.2065
 21
2035.972
  0
LINE
  8
1-2
  6
CONTINUOUS
 62
    3
 10
1108.2065
 20
2035.972
 11
1103.298
 21
2037.6452
  0
LINE
  8
1-2
  6
CONTINUOUS
 62
    3
 10
1103.298
 20
2037.6452
 11
1098.4284
 21
2039.2714
  0
LINE
  8
1-2
  6
CONTINUOUS
 62
    3
 10
1098.4284
 20
2039.2714
 11
1093.6244
 21
2040.8399
  0
LINE
  8
1-2
  6
CONTINUOUS
 62
    3
 10
1093.6244
 20
2040.8399
 11
1088.9037
 21
2042.3513
  0
LINE
  8
1-2
  6
CONTINUOUS
 62
    3
 10
1088.9037
 20
2042.3513
 11
1084.2974
 21
2043.7993
  0
LINE
  8
1-2
  6
CONTINUOUS
 62
    3
 10
1084.2974
 20
2043.7993
 11
1079.8296
 21
2045.1763
  0
LINE
  8
1-2
  6
CONTINUOUS
 62
    3
 10
1079.8296
 20
2045.1763
 11
1075.5252
 21
2046.4783
  0
LINE
  8
1-2
  6
CONTINUOUS
 62
    3
 10
1075.5252
 20
2046.4783
 11
1071.407
 21
2047.7002
  0
LINE
  8
1-2
  6
CONTINUOUS
 62
    3
 10
1071.407
 20
2047.7002
 11
1067.5017
 21
2048.833
  0
LINE
  8
1-2
  6
CONTINUOUS
 62
    3
 10
1155.5601
 20
2065.9991
 11
1155.6271
 21
2066.0224
  0
LINE
  8
1-2
  6
CONTINUOUS
 62
    3
 10
1078.5904
 20
1965.2668
 11
1078.5904
 21
1954.1521
  0
LINE
  8
1-2
  6
CONTINUOUS
 62
    3
 10
1078.5904
 20
1954.1521
 11
1112.3665
 21
1954.1521
  0
LINE
  8
1-2
  6
CONTINUOUS
 62
    3
 10
1112.3665
 20
1965.2668
 11
1112.3665
 21
1954.1521
  0
LINE
  8
1-2
  6
CONTINUOUS
 62
    3
 10
1078.5904
 20
1965.2668
 11
1112.3665
 21
1965.2668
  0
LINE
  8
1-2
  6
CONTINUOUS
 62
    3
 10
1096.5484
 20
1965.2668
 11
1096.5484
 21
1987.4219
  0
LINE
  8
1-2
  6
CONTINUOUS
 62
    3
 10
1089.0136
 20
1994.9544
 11
1050
 21
1994.9544
  0
LINE
  8
1-2
  6
CONTINUOUS
 62
    3
 10
1062.9409
 20
2079.0083
 11
1062.9409
 21
2042.5403
  0
LINE
  8
1-2
  6
CONTINUOUS
 62
    3
 10
1068.2561
 20
2068.0736
 11
1067.7043
 21
2067.7619
  0
LINE
  8
1-2
  6
CONTINUOUS
 62
    3
 10
1067.7043
 20
2067.7619
 11
1067.1394
 21
2067.4343
  0
LINE
  8
1-2
  6
CONTINUOUS
 62
    3
 10
1067.1394
 20
2067.4343
 11
1066.5678
 21
2067.0908
  0
LINE
  8
1-2
  6
CONTINUOUS
 62
    3
 10
1066.5678
 20
2067.0908
 11
1065.9841
 21
2066.731
  0
LINE
  8
1-2
  6
CONTINUOUS
 62
    3
 10
1065.9841
 20
2066.731
 11
1065.3885
 21
2066.3599
  0
LINE
  8
1-2
  6
CONTINUOUS
 62
    3
 10
1065.3885
 20
2066.3599
 11
1064.7828
 21
2065.9694
  0
LINE
  8
1-2
  6
CONTINUOUS
 62
    3
 10
1064.7828
 20
2065.9694
 11
1064.1669
 21
2065.5656
  0
LINE
  8
1-2
  6
CONTINUOUS
 62
    3
 10
1064.1669
 20
2065.5656
 11
1063.5387
 21
2065.1439
  0
LINE
  8
1-2
  6
CONTINUOUS
 62
    3
 10
1063.5387
 20
2065.1439
 11
1062.9023
 21
2064.7104
  0
LINE
  8
1-2
  6
CONTINUOUS
 62
    3
 10
1066.3699
 20
2054.8759
 11
1065.9606
 21
2054.7975
  0
LINE
  8
1-2
  6
CONTINUOUS
 62
    3
 10
1065.9606
 20
2054.7975
 11
1065.557
 21
2054.7245
  0
LINE
  8
1-2
  6
CONTINUOUS
 62
    3
 10
1065.557
 20
2054.7245
 11
1065.1609
 21
2054.6523
  0
LINE
  8
1-2
  6
CONTINUOUS
 62
    3
 10
1065.1609
 20
2054.6523
 11
1064.7687
 21
2054.5817
  0
LINE
  8
1-2
  6
CONTINUOUS
 62
    3
 10
1064.7687
 20
2054.5817
 11
1064.3847
 21
2054.5147
  0
LINE
  8
1-2
  6
CONTINUOUS
 62
    3
 10
1064.3847
 20
2054.5147
 11
1064.0044
 21
2054.4516
  0
LINE
  8
1-2
  6
CONTINUOUS
 62
    3
 10
1064.0044
 20
2054.4516
 11
1063.6312
 21
2054.3927
  0
LINE
  8
1-2
  6
CONTINUOUS
 62
    3
 10
1063.6312
 20
2054.3927
 11
1063.2625
 21
2054.3348
  0
LINE
  8
1-2
  6
CONTINUOUS
 62
    3
 10
1063.2625
 20
2054.3348
 11
1062.9023
 21
2054.2791
  0
LINE
  8
1-2
  6
CONTINUOUS
 62
    3
 10
1074.5146
 20
2047.5596
 11
1072.9597
 21
2047.8892
  0
LINE
  8
1-2
  6
CONTINUOUS
 62
    3
 10
1072.9597
 20
2047.8892
 11
1071.4676
 21
2048.2079
  0
LINE
  8
1-2
  6
CONTINUOUS
 62
    3
 10
1071.4676
 20
2048.2079
 11
1070.0441
 21
2048.5167
  0
LINE
  8
1-2
  6
CONTINUOUS
 62
    3
 10
1070.0441
 20
2048.5167
 11
1068.6872
 21
2048.8154
  0
LINE
  8
1-2
  6
CONTINUOUS
 62
    3
 10
1068.6872
 20
2048.8154
 11
1067.396
 21
2049.1032
  0
LINE
  8
1-2
  6
CONTINUOUS
 62
    3
 10
1067.396
 20
2049.1032
 11
1066.1729
 21
2049.3825
  0
LINE
  8
1-2
  6
CONTINUOUS
 62
    3
 10
1066.1729
 20
2049.3825
 11
1065.0156
 21
2049.65
  0
LINE
  8
1-2
  6
CONTINUOUS
 62
    3
 10
1065.0156
 20
2049.65
 11
1063.9257
 21
2049.9083
  0
LINE
  8
1-2
  6
CONTINUOUS
 62
    3
 10
1063.9257
 20
2049.9083
 11
1062.9023
 21
2050.1553
  0
LINE
  8
1-2
  6
CONTINUOUS
 62
    3
 10
1067.5017
 20
2048.833
 11
1066.893
 21
2048.9987
  0
LINE
  8
1-2
  6
CONTINUOUS
 62
    3
 10
1066.893
 20
2048.9987
 11
1066.3093
 21
2049.1581
  0
LINE
  8
1-2
  6
CONTINUOUS
 62
    3
 10
1066.3093
 20
2049.1581
 11
1065.7508
 21
2049.3155
  0
LINE
  8
1-2
  6
CONTINUOUS
 62
    3
 10
1065.7508
 20
2049.3155
 11
1065.2183
 21
2049.4669
  0
LINE
  8
1-2
  6
CONTINUOUS
 62
    3
 10
1065.2183
 20
2049.4669
 11
1064.7133
 21
2049.6124
  0
LINE
  8
1-2
  6
CONTINUOUS
 62
    3
 10
1064.7133
 20
2049.6124
 11
1064.2308
 21
2049.751
  0
LINE
  8
1-2
  6
CONTINUOUS
 62
    3
 10
1064.2308
 20
2049.751
 11
1063.7747
 21
2049.8871
  0
LINE
  8
1-2
  6
CONTINUOUS
 62
    3
 10
1063.7747
 20
2049.8871
 11
1063.3452
 21
2050.0187
  0
LINE
  8
1-2
  6
CONTINUOUS
 62
    3
 10
1063.3452
 20
2050.0187
 11
1062.9409
 21
2050.1474
  0
LINE
  8
1-2
  6
CONTINUOUS
 62
    3
 10
672.66667
 20
2213.3765
 11
1050
 21
2213.3765
  0
LINE
  8
1-8
  6
CONTINUOUS
 62
    7
 10
583.33365
 20
1876.7108
 11
583.33365
 21
2300.0428
  0
LINE
  8
1-8
  6
CONTINUOUS
 62
    7
 10
672.66667
 20
2403.0631
 11
1427.3344
 21
2403.0621
  0
LINE
  8
1-2
  6
CONTINUOUS
 62
    3
 10
1057.9589
 20
2083.9924
 11
1050
 21
2083.9924
  0
LINE
  8
1-2
  6
CONTINUOUS
 62
    3
 10
1057.9589
 20
2007.4229
 11
1050
 21
2007.4229
  0
LINE
  8
1-8
  6
CONTINUOUS
 62
    7
 10
795
 20
1808.2089
 11
1304.9999
 21
1808.2089
  0
LINE
  8
1-2
  6
CONTINUOUS
 62
    3
 10
1054.1575
 20
2033.3843
 11
1057.0441
 21
2030.1258
  0
LINE
  8
1-2
  6
CONTINUOUS
 62
    3
 10
1057.0441
 20
2030.1258
 11
1060.217
 21
2026.7405
  0
LINE
  8
1-2
  6
CONTINUOUS
 62
    3
 10
1060.217
 20
2026.7405
 11
1063.6292
 21
2023.2685
  0
LINE
  8
1-2
  6
CONTINUOUS
 62
    3
 10
1063.6292
 20
2023.2685
 11
1067.2379
 21
2019.7449
  0
LINE
  8
1-2
  6
CONTINUOUS
 62
    3
 10
1067.2379
 20
2019.7449
 11
1071.001
 21
2016.2038
  0
LINE
  8
1-2
  6
CONTINUOUS
 62
    3
 10
1071.001
 20
2016.2038
 11
1074.8811
 21
2012.6766
  0
LINE
  8
1-2
  6
CONTINUOUS
 62
    3
 10
1074.8811
 20
2012.6766
 11
1078.8413
 21
2009.1911
  0
LINE
  8
1-2
  6
CONTINUOUS
 62
    3
 10
1078.8413
 20
2009.1911
 11
1082.8494
 21
2005.772
  0
LINE
  8
1-2
  6
CONTINUOUS
 62
    3
 10
1082.8494
 20
2005.772
 11
1086.8742
 21
2002.4439
  0
LINE
  8
1-2
  6
CONTINUOUS
 62
    3
 10
1086.8742
 20
2002.4439
 11
1090.8884
 21
1999.2262
  0
LINE
  8
1-2
  6
CONTINUOUS
 62
    3
 10
1090.8884
 20
1999.2262
 11
1094.8663
 21
1996.1374
  0
LINE
  8
1-2
  6
CONTINUOUS
 62
    3
 10
1094.8663
 20
1996.1374
 11
1098.7857
 21
1993.1917
  0
LINE
  8
1-2
  6
CONTINUOUS
 62
    3
 10
1098.7857
 20
1993.1917
 11
1102.6265
 21
1990.4028
  0
LINE
  8
1-2
  6
CONTINUOUS
 62
    3
 10
1102.6265
 20
1990.4028
 11
1106.3715
 21
1987.7792
  0
LINE
  8
1-2
  6
CONTINUOUS
 62
    3
 10
1106.3715
 20
1987.7792
 11
1110.0064
 21
1985.3285
  0
LINE
  8
1-2
  6
CONTINUOUS
 62
    3
 10
1110.0064
 20
1985.3285
 11
1113.5186
 21
1983.0558
  0
LINE
  8
1-2
  6
CONTINUOUS
 62
    3
 10
1113.5186
 20
1983.0558
 11
1116.8993
 21
1980.9622
  0
LINE
  8
1-2
  6
CONTINUOUS
 62
    3
 10
1116.8993
 20
1980.9622
 11
1120.1418
 21
1979.048
  0
LINE
  8
1-2
  6
CONTINUOUS
 62
    3
 10
1120.1418
 20
1979.048
 11
1123.2415
 21
1977.3085
  0
LINE
  8
1-2
  6
CONTINUOUS
 62
    3
 10
1123.2415
 20
1977.3085
 11
1123.4696
 21
1977.209
  0
LINE
  8
1-2
  6
CONTINUOUS
 62
    3
 10
1123.4696
 20
1977.209
 11
1123.6955
 21
1977.114
  0
LINE
  8
1-2
  6
CONTINUOUS
 62
    3
 10
1123.6955
 20
1977.114
 11
1123.9194
 21
1977.0234
  0
LINE
  8
1-2
  6
CONTINUOUS
 62
    3
 10
1123.9194
 20
1977.0234
 11
1124.1406
 21
1976.9381
  0
LINE
  8
1-2
  6
CONTINUOUS
 62
    3
 10
1124.1406
 20
1976.9381
 11
1124.3594
 21
1976.8572
  0
LINE
  8
1-2
  6
CONTINUOUS
 62
    3
 10
1124.3594
 20
1976.8572
 11
1124.5761
 21
1976.781
  0
LINE
  8
1-2
  6
CONTINUOUS
 62
    3
 10
1124.5761
 20
1976.781
 11
1124.7907
 21
1976.7094
  0
LINE
  8
1-2
  6
CONTINUOUS
 62
    3
 10
1124.7907
 20
1976.7094
 11
1125.0027
 21
1976.6431
  0
LINE
  8
1-2
  6
CONTINUOUS
 62
    3
 10
1125.0027
 20
1976.6431
 11
1125.2123
 21
1976.5808
  0
LINE
  8
1-2
  6
CONTINUOUS
 62
    3
 10
1054.1575
 20
2033.3843
 11
1055.8641
 21
2034.232
  0
LINE
  8
1-2
  6
CONTINUOUS
 62
    3
 10
1055.8641
 20
2034.232
 11
1057.3878
 21
2035.1221
  0
LINE
  8
1-2
  6
CONTINUOUS
 62
    3
 10
1057.3878
 20
2035.1221
 11
1058.7289
 21
2036.0544
  0
LINE
  8
1-2
  6
CONTINUOUS
 62
    3
 10
1058.7289
 20
2036.0544
 11
1059.8875
 21
2037.0293
  0
LINE
  8
1-2
  6
CONTINUOUS
 62
    3
 10
1059.8875
 20
2037.0293
 11
1060.8634
 21
2038.0468
  0
LINE
  8
1-2
  6
CONTINUOUS
 62
    3
 10
1060.8634
 20
2038.0468
 11
1061.6566
 21
2039.1066
  0
LINE
  8
1-2
  6
CONTINUOUS
 62
    3
 10
1061.6566
 20
2039.1066
 11
1062.2673
 21
2040.2087
  0
LINE
  8
1-2
  6
CONTINUOUS
 62
    3
 10
1062.2673
 20
2040.2087
 11
1062.6954
 21
2041.3534
  0
LINE
  8
1-2
  6
CONTINUOUS
 62
    3
 10
1062.6954
 20
2041.3534
 11
1062.9409
 21
2042.5403
  0
LINE
  8
1-2
  6
CONTINUOUS
 62
    3
 10
1062.9423
 20
2012.4073
 11
1062.9423
 21
2023.9675
  0
LINE
  8
1-2
  6
CONTINUOUS
 62
    3
 10
1127.6639
 20
2055.4215
 11
1117.8502
 21
2077.0508
  0
LINE
  8
1-2
  6
CONTINUOUS
 62
    3
 10
672.66667
 20
2030.0436
 11
1050
 21
2030.0436
  0
LINE
  8
1-8
  6
CONTINUOUS
 62
    7
 10
1516.6663
 20
2030.0436
 11
1516.6663
 21
2213.3765
  0
LINE
  8
1-8
  6
CONTINUOUS
 62
    7
 10
1516.6663
 20
2213.3765
 11
1516.6663
 21
2300.0428
  0
LINE
  8
1-8
  6
CONTINUOUS
 62
    7
 10
1516.6663
 20
1876.7108
 11
1516.6663
 21
2030.0436
  0
LINE
  8
1-8
  6
CONTINUOUS
 62
    7
 10
1385.6051
 20
1876.7108
 11
1385.6051
 21
2131.3772
  0
LINE
  8
1-2
  6
CONTINUOUS
 62
    3
 10
795
 20
1940.0441
 11
795
 21
1910.044
  0
LINE
  8
1-2
  6
CONTINUOUS
 62
    3
 10
795
 20
1950.0441
 11
795
 21
2030.0436
  0
LINE
  8
1-2
  6
CONTINUOUS
 62
    3
 10
1305.0001
 20
1940.0441
 11
1305.0001
 21
1910.044
  0
LINE
  8
1-2
  6
CONTINUOUS
 62
    3
 10
672.66667
 20
2053.3767
 11
672.66667
 21
2030.0436
  0
LINE
  8
1-2
  6
CONTINUOUS
 62
    3
 10
672.66667
 20
2093.3768
 11
672.66667
 21
2063.3767
  0
LINE
  8
1-2
  6
CONTINUOUS
 62
    3
 10
1427.3334
 20
2093.3761
 11
1427.3334
 21
2063.3757
  0
LINE
  8
1-2
  6
CONTINUOUS
 62
    3
 10
1427.3344
 20
2213.3758
 11
1427.3344
 21
2103.3759
  0
LINE
  8
1-2
  6
CONTINUOUS
 62
    3
 10
1427.3334
 20
2053.376
 11
1304.9999
 21
2053.3767
  0
LINE
  8
1-2
  6
CONTINUOUS
 62
    3
 10
1427.3334
 20
2063.3757
 11
1304.9999
 21
2063.3767
  0
LINE
  8
1-2
  6
CONTINUOUS
 62
    3
 10
1427.3334
 20
2093.3761
 11
1304.9999
 21
2093.3768
  0
LINE
  8
1-2
  6
CONTINUOUS
 62
    3
 10
1427.3334
 20
2103.3759
 11
1304.9999
 21
2103.3769
  0
LINE
  8
1-2
  6
CONTINUOUS
 62
    3
 10
1304.9999
 20
2131.3772
 11
1050
 21
2131.3772
  0
LINE
  8
1-2
  6
CONTINUOUS
 62
    3
 10
1118.8845
 20
2121.3771
 11
1050
 21
2121.3771
  0
LINE
  8
1-2
  6
CONTINUOUS
 62
    3
 10
1304.9999
 20
2121.3771
 11
1226.0938
 21
2121.3771
  0
LINE
  8
1-2
  6
CONTINUOUS
 62
    3
 10
1304.9999
 20
2121.3771
 11
1304.9999
 21
1950.0441
  0
LINE
  8
1-2
  6
CONTINUOUS
 62
    3
 10
1089.8816
 20
1938.7589
 11
1050
 21
1938.7589
  0
LINE
  8
1-2
  6
CONTINUOUS
 62
    3
 10
1096.5484
 20
1945.4254
 11
1096.5484
 21
1954.1521
  0
LINE
  8
1-2
  6
CONTINUOUS
 62
    3
 10
1086.5484
 20
1932.7644
 11
1050
 21
1932.7644
  0
LINE
  8
1-2
  6
CONTINUOUS
 62
    3
 10
1089.8816
 20
1936.0979
 11
1089.8816
 21
1938.7589
  0
LINE
  8
1-2
  6
CONTINUOUS
 62
    3
 10
795
 20
1910.044
 11
1305.0001
 21
1910.044
  0
LINE
  8
1-2
  6
CONTINUOUS
 62
    3
 10
1096.5484
 20
1950.0441
 11
1304.9999
 21
1950.0441
  0
LINE
  8
1-2
  6
CONTINUOUS
 62
    3
 10
1093.8169
 20
1940.0441
 11
1305.0001
 21
1940.0441
  0
LINE
  8
1-2
  6
CONTINUOUS
 62
    3
 10
795
 20
1950.0441
 11
1050
 21
1950.0441
  0
LINE
  8
1-2
  6
CONTINUOUS
 62
    3
 10
795
 20
1940.0441
 11
1050
 21
1940.0441
  0
LINE
  8
1-2
  6
CONTINUOUS
 62
    3
 10
795
 20
1876.7108
 11
1050
 21
1876.7108
  0
LINE
  8
1-2
  6
CONTINUOUS
 62
    3
 10
795
 20
1900.0439
 11
795
 21
1876.7108
  0
LINE
  8
1-2
  6
CONTINUOUS
 62
    3
 10
795
 20
1900.0439
 11
1305.0001
 21
1900.0427
  0
LINE
  8
1-2
  6
CONTINUOUS
 62
    3
 10
1305.0001
 20
1900.0427
 11
1305.0001
 21
1876.7096
  0
LINE
  8
1-2
  6
CONTINUOUS
 62
    3
 10
1305.0001
 20
1876.7096
 11
1050
 21
1876.7108
  0
LINE
  8
1-2
  6
CONTINUOUS
 62
    3
 10
1306.9999
 20
2121.3771
 11
1306.9999
 21
2112.5767
  0
LINE
  8
1-2
  6
CONTINUOUS
 62
    3
 10
1408.5354
 20
2038.684
 11
1408.5354
 21
2029.9956
  0
LINE
  8
1-2
  6
CONTINUOUS
 62
    3
 10
1420.12
 20
2035.3769
 11
1398.9815
 21
2035.3769
  0
LINE
  8
1-2
  6
CONTINUOUS
 62
    3
 10
1420.12
 20
2035.3769
 11
1420.12
 21
2033.3771
  0
LINE
  8
1-2
  6
CONTINUOUS
 62
    3
 10
1301.3769
 20
2116.8569
 11
1310.0655
 21
2116.8569
  0
LINE
  8
1-2
  6
CONTINUOUS
 62
    3
 10
1301.7906
 20
2014.2498
 11
1311.7203
 21
2014.2498
  0
LINE
  8
1-2
  6
CONTINUOUS
 62
    3
 10
1301.7906
 20
1965.8379
 11
1311.7203
 21
1965.8379
  0
LINE
  8
1-2
  6
CONTINUOUS
 62
    3
 10
672.66667
 20
2103.3769
 11
1050
 21
2103.3769
  0
LINE
  8
1-2
  6
CONTINUOUS
 62
    3
 10
672.66667
 20
2093.3768
 11
1050
 21
2093.3768
  0
LINE
  8
1-2
  6
CONTINUOUS
 62
    3
 10
672.66667
 20
2063.3767
 11
1050
 21
2063.3767
  0
LINE
  8
1-2
  6
CONTINUOUS
 62
    3
 10
672.66667
 20
2053.3767
 11
1050
 21
2053.3767
  0
LINE
  8
1-2
  6
CONTINUOUS
 62
    3
 10
1306.9999
 20
2112.5767
 11
1398.9815
 21
2035.3769
  0
LINE
  8
1-2
  6
CONTINUOUS
 62
    3
 10
1304.9999
 20
2111.6696
 11
1398.2295
 21
2033.3771
  0
LINE
  8
1-8
  6
CONTINUOUS
 62
    7
 10
672.66667
 20
2247.4032
 11
672.66667
 21
2403.0631
  0
LINE
  8
1-8
  6
CONTINUOUS
 62
    7
 10
1427.3344
 20
2247.4024
 11
1427.3344
 21
2403.0621
  0
LINE
  8
1-8
  6
CONTINUOUS
 62
    7
 10
636.28869
 20
2300.0428
 11
583.33365
 21
2300.0428
  0
LINE
  8
1-8
  6
CONTINUOUS
 62
    7
 10
636.95653
 20
1876.7108
 11
583.33365
 21
1876.7108
  0
LINE
  8
1-8
  6
CONTINUOUS
 62
    7
 10
1452.8202
 20
2300.0428
 11
1516.6663
 21
2300.0428
  0
LINE
  8
1-8
  6
CONTINUOUS
 62
    7
 10
1452.8202
 20
2213.3765
 11
1516.6663
 21
2213.3765
  0
LINE
  8
1-8
  6
CONTINUOUS
 62
    7
 10
1452.8202
 20
2030.0436
 11
1516.6663
 21
2030.0436
  0
LINE
  8
1-8
  6
CONTINUOUS
 62
    7
 10
1452.8202
 20
1876.7108
 11
1516.6663
 21
1876.7108
  0
LINE
  8
1-8
  6
CONTINUOUS
 62
    7
 10
1304.9999
 20
1858.7133
 11
1304.9999
 21
1808.2089
  0
LINE
  8
1-8
  6
CONTINUOUS
 62
    7
 10
795
 20
1858.7133
 11
795
 21
1808.2089
  0
LINE
  8
1-8
  6
CONTINUOUS
 62
    7
 10
1333.5195
 20
2131.3772
 11
1385.6051
 21
2131.3772
  0
LINE
  8
1-8
  6
CONTINUOUS
 62
    7
 10
1333.5195
 20
1876.7108
 11
1385.6051
 21
1876.7108
  0
LINE
  8
1-2
  6
CONTINUOUS
 62
    3
 10
1221.6225
 20
2260.4895
 11
1050
 21
2161.4032
  0
LINE
  8
1-2
  6
CONTINUOUS
 62
    3
 10
1427.3344
 20
2213.3758
 11
1140.0203
 21
2213.3765
  0
LINE
  8
ADD_LINE
  6
DOT
 62
    4
 10
795
 20
1753.1532
 11
795
 21
2363.9642
  0
LINE
  8
ADD_LINE
  6
DOT
 62
    4
 10
1305.0001
 20
1753.1532
 11
1305.0001
 21
2363.9642
  0
LINE
  8
ADD_LINE
  6
DOT
 62
    4
 10
1427.3334
 20
2466.6668
 11
1427.3334
 21
1796.3966
  0
LINE
  8
ADD_LINE
  6
DOT
 62
    4
 10
672.66667
 20
2466.6668
 11
672.66667
 21
1812.6128
  0
LINE
  8
ADD_LINE
  6
DOT
 62
    4
 10
508.55857
 20
2300.0428
 11
1656.3063
 21
2300.0428
  0
LINE
  8
ADD_LINE
  6
DOT
 62
    4
 10
508.55857
 20
2213.3762
 11
1656.3063
 21
2213.3762
  0
LINE
  8
ADD_LINE
  6
DOT
 62
    4
 10
508.55857
 20
2030.0429
 11
1656.3063
 21
2030.0429
  0
LINE
  8
ADD_LINE
  6
DOT
 62
    4
 10
508.55857
 20
1876.7096
 11
1656.3063
 21
1876.7096
  0
LINE
  8
1-2
  6
CONTINUOUS
 62
    3
 10
1050
 20
2300.0428
 11
657.56678
 21
2209.9081
  0
LINE
  8
1-2
  6
CONTINUOUS
 62
    3
 10
1050
 20
2300.0428
 11
1442.4334
 21
2209.9081
  0
LINE
  8
1-2
  6
CONTINUOUS
 62
    3
 10
1221.6225
 20
2260.4895
 11
1050
 21
2260.4895
  0
LINE
  8
1-2
  6
CONTINUOUS
 62
    3
 10
1423.9999
 20
2053.376
 11
1423.9999
 21
2033.3761
  0
LINE
  8
1-2
  6
CONTINUOUS
 62
    3
 10
1427.3334
 20
2053.376
 11
1427.3334
 21
2030.0429
  0
LINE
  8
1-2
  6
CONTINUOUS
 62
    3
 10
672.66667
 20
2213.3765
 11
672.66667
 21
2103.3769
  0
LINE
  8
1-4
  6
CONTINUOUS
 62
    2
 10
1050
 20
2131.3772
 11
1276.7932
 21
2247.9525
  0
LINE
  8
1-1
  6
CENTER2
 62
    7
 10
1050
 20
2363.9642
 11
1050
 21
1763.9641
  0
LINE
  8
1-2
  6
CONTINUOUS
 62
    3
 10
1427.3334
 20
2030.0429
 11
1308.3334
 21
2030.0436
  0
LINE
  8
1-2
  6
CONTINUOUS
 62
    3
 10
1308.3334
 20
2030.0436
 11
1308.3334
 21
1950.0441
  0
LINE
  8
1-2
  6
CONTINUOUS
 62
    3
 10
1423.9999
 20
2033.3761
 11
1305
 21
2033.3769
  0
ARC
  8
1-2
  6
CONTINUOUS
 62
    3
 10
1089.0136
 20
1987.4219
 40
7.5333357
 50
0
 51
90
  0
ARC
  8
1-2
  6
CONTINUOUS
 62
    3
 10
1057.9589
 20
2012.4073
 40
4.9833
 50
270
 51
0
  0
ARC
  8
1-2
  6
CONTINUOUS
 62
    3
 10
1057.9589
 20
2079.0083
 40
4.9833
 50
0
 51
90
  0
ARC
  8
1-2
  6
CONTINUOUS
 62
    3
 10
795
 20
1945.0441
 40
5.0000167
 50
90
 51
270
  0
ARC
  8
1-2
  6
CONTINUOUS
 62
    3
 10
795
 20
1905.0439
 40
5.0000167
 50
90
 51
270
  0
ARC
  8
1-2
  6
CONTINUOUS
 62
    3
 10
1305.0001
 20
1905.0439
 40
5.0000167
 50
270
 51
90
  0
ARC
  8
1-2
  6
CONTINUOUS
 62
    3
 10
1305.0001
 20
1945.0441
 40
5.0000167
 50
270
 51
90.000946
  0
ARC
  8
1-2
  6
CONTINUOUS
 62
    3
 10
672.66667
 20
2098.3769
 40
5.0000167
 50
90
 51
270
  0
ARC
  8
1-2
  6
CONTINUOUS
 62
    3
 10
672.66667
 20
2058.3767
 40
5.0000167
 50
90
 51
270
  0
ARC
  8
1-2
  6
CONTINUOUS
 62
    3
 10
1427.3334
 20
2098.3761
 40
5.0000167
 50
270
 51
90
  0
ARC
  8
1-2
  6
CONTINUOUS
 62
    3
 10
1427.3334
 20
2058.376
 40
5.0000167
 50
270
 51
90
  0
ARC
  8
1-2
  6
CONTINUOUS
 62
    3
 10
1304.9999
 20
2126.3774
 40
5.0000167
 50
270
 51
90
  0
ARC
  8
1-2
  6
CONTINUOUS
 62
    3
 10
1089.8816
 20
1945.4254
 40
6.6666666
 50
270
 51
0
  0
ARC
  8
1-2
  6
CONTINUOUS
 62
    3
 10
1086.5484
 20
1936.0979
 40
3.3333333
 50
270
 51
0
  0
ARC
  8
1-4
  6
DASHED1
 62
    2
 10
1050
 20
2131.3772
 40
254.99995
 50
0
 51
27.203887
  0
TEXT
  8
1-d
 10
254.9998
 20
157.4999
 40
25
 41
1
 50
0
  1
図
  0
TEXT
  8
1-d
 10
254.9998
 20
97.49997
 40
25
 41
1
 50
0
  1
番
  0
TEXT
  8
1-d
 10
655.00046
 20
157.4999
 40
25
 41
1
 50
0
  1
承
  0
TEXT
  8
1-d
 10
655.00046
 20
97.49997
 40
25
 41
1
 50
0
  1
認
  0
TEXT
  8
1-d
 10
1020.0003
 20
237.49996
 40
25
 41
1
 50
0
  1
尺
  0
TEXT
  8
1-d
 10
1020.0003
 20
197.49979
 40
25
 41
1
 50
0.0000762
  1
度
  0
TEXT
  8
1-d
 10
855.00014
 20
157.4999
 40
25
 41
1
 50
0
  1
製
  0
TEXT
  8
1-d
 10
855.00014
 20
97.49997
 40
25
 41
1
 50
0
  1
図
  0
TEXT
  8
1-d
 10
1555.0001
 20
237.49996
 40
25
 41
1
 50
0
  1
日
  0
TEXT
  8
1-d
 10
1555.0001
 20
197.49979
 40
25
 41
1
 50
0.0000762
  1
付
  0
TEXT
  8
1-d
 10
1111.4263
 20
163.48226
 40
20
 41
1
 50
0
  1
株式
  0
TEXT
  8
1-d
 10
1111.4263
 20
141.85181
 40
20
 41
1
 50
0.0000152
  1
会社
  0
TEXT
  8
1-d
 10
1237.9182
 20
94.024183
 40
20
 41
1
 50
0
  1
TEL(054)296-7000  FAX(054)296-7001
  0
TEXT
  8
1-8
 10
563.33359
 20
2065.8759
 40
30
 41
1
 50
90
  1
635
  0
TEXT
  8
1-8
 10
1011.6667
 20
2423.0637
 40
30
 41
1
 50
0
  1
1,130
  0
TEXT
  8
1-8
 10
1027.4999
 20
1821.5422
 40
30
 41
1
 50
0
  1
765
  0
TEXT
  8
1-8
 10
1509.9998
 20
2099.21
 40
30
 41
1
 50
90
  1
275
  0
TEXT
  8
1-8
 10
1509.9998
 20
2234.2097
 40
30
 41
1
 50
90
  1
130
  0
TEXT
  8
1-8
 10
1509.9998
 20
1930.8772
 40
30
 41
1
 50
90
  1
230
  0
TEXT
  8
1-8
 10
1381.3102
 20
1966.3691
 40
30
 41
1
 50
90
  1
382
  0
TEXT
  8
1-d
 10
308.45927
 20
140.30214
 40
30
 41
1
 50
0
  1
75-E03a
  0
TEXT
  8
1-d
 10
1084.349
 20
210.10066
 40
40
 41
1
 50
0
  1
１／１５
  0
TEXT
  8
1-d
 10
255.00006
 20
2792.7014
 40
50
 41
1
 50
0
  1
ＳＴ－７５　直付型（ダンパー付）断面
  0
TEXT
  8
1-d
 10
280.6757
 20
215.81083
 40
30
 41
1
 50
0
  1
ＳＴ－７５　直付型（ダンパー付）断面
  0
TEXT
  8
1-d
 10
1174.2247
 20
143.24712
 40
40
 41
1
 50
0
  1
スズキベンチレーター
  0
TEXT
  8
1-d
 10
1235.6794
 20
118.64593
 40
20
 41
1
 50
0
  1
〒421-2114　静岡市葵区安倍口新田１５２番地
  0
POINT
  8
1-8
 62
    2
 10
583.33365
 20
1876.7108
  0
POINT
  8
1-8
 62
    2
 10
583.33365
 20
2300.0428
  0
POINT
  8
1-8
 62
    2
 10
672.66667
 20
2403.0631
  0
POINT
  8
1-8
 62
    2
 10
1427.3344
 20
2403.0621
  0
POINT
  8
1-8
 62
    2
 10
795
 20
1808.2089
  0
POINT
  8
1-8
 62
    2
 10
1304.9999
 20
1808.2089
  0
POINT
  8
1-8
 62
    2
 10
1516.6663
 20
2030.0436
  0
POINT
  8
1-8
 62
    2
 10
1516.6663
 20
2213.3765
  0
POINT
  8
1-8
 62
    2
 10
1516.6663
 20
2300.0428
  0
POINT
  8
1-8
 62
    2
 10
1516.6663
 20
1876.7108
  0
POINT
  8
1-8
 62
    2
 10
1385.6051
 20
1876.7108
  0
POINT
  8
1-8
 62
    2
 10
1385.6051
 20
2131.3772
  0
ENDSEC
  0
EOF
