  0
SECTION
  2
HEADER
  9
$EXTMIN
 10
0
 20
0
  9
$EXTMAX
 10
8400
 20
5940
  0
ENDSEC
  0
SECTION
  2
TABLES
  0
TABLE
  2
LTYPE
 70
     9
  0
LTYPE
  2
CONTINUOUS
 70
    64
  3
実線
 72
    65
 73
     0
 40
0.0
  0
LTYPE
  2
DASHED1
 70
    64
  3
--  --  --  --  --  --  --  --  
 72
    65
 73
     2
 40
2.5
 49
1.25
 49
-1.25
  0
LTYPE
  2
DASHED2
 70
    64
  3
----    ----    ----    ----    
 72
    65
 73
     2
 40
5.0
 49
2.5
 49
-2.5
  0
LTYPE
  2
DASHED3
 70
    64
  3
------  ------  ------  ------  
 72
    65
 73
     2
 40
5.0
 49
3.75
 49
-1.25
  0
LTYPE
  2
CENTER1
 70
    64
  3
----- - ----- - ----- - ----- - 
 72
    65
 73
     4
 40
10.0
 49
6.25
 49
-1.25
 49
1.25
 49
-1.25
  0
LTYPE
  2
CENTER2
 70
    64
  3
----------  --  ----------  --  
 72
    65
 73
     4
 40
20.0
 49
12.5
 49
-2.5
 49
2.5
 49
-2.5
  0
LTYPE
  2
PHANTOM1
 70
    64
  3
--- - - --- - - --- - - --- - - 
 72
    65
 73
     6
 40
10.0
 49
3.25
 49
-1.25
 49
1.25
 49
-1.25
 49
1.25
 49
-1.25
  0
LTYPE
  2
PHANTOM2
 70
    64
  3
--------  -  -  --------  -  -  
 72
    65
 73
     6
 40
20.0
 49
10.0
 49
-2.5
 49
1.25
 49
-2.5
 49
1.25
 49
-2.5
  0
LTYPE
  2
DOT
 70
    64
  3
-   -   -   -   -   -   -   -   
 72
    65
 73
     2
 40
2.5
 49
0.625
 49
-1.875
  0
ENDTAB
  0
TABLE
  2
STYLE
 70
    1
  0
STYLE
  2
STANDARD
 70
    64
 40
0.0
 41
1.0
 42
0.0
 50
0.0
 71
     0
  3
TXT
  4
BIGFONT
  0
ENDTAB
  0
TABLE
  2
LAYER
 70
    4
  0
LAYER
  2
0-2
 70
   64
 62
    7
  6
CONTINUOUS
  0
LAYER
  2
0-8
 70
   64
 62
    7
  6
CONTINUOUS
  0
LAYER
  2
0-d
 70
   64
 62
    7
  6
CONTINUOUS
  0
LAYER
  2
ADD_LINE
 70
   64
 62
    7
  6
CONTINUOUS
  0
ENDTAB
  0
ENDSEC
  0
SECTION
  2
ENTITIES
  0
LINE
  8
0-d
  6
CONTINUOUS
 62
    7
 10
500.00006
 20
5515.4027
 11
3700.0002
 21
5515.4027
  0
LINE
  8
0-d
  6
CONTINUOUS
 62
    7
 10
500.00006
 20
5535.4028
 11
3700.0002
 21
5535.4028
  0
LINE
  8
0-d
  6
CONTINUOUS
 62
    7
 10
499.99981
 20
375.13524
 11
3700
 21
375.13524
  0
LINE
  8
0-d
  6
CONTINUOUS
 62
    7
 10
499.99981
 20
175.13519
 11
499.99981
 21
535.13516
  0
LINE
  8
0-d
  6
CONTINUOUS
 62
    7
 10
499.99981
 20
175.13519
 11
3700
 21
175.13519
  0
LINE
  8
0-d
  6
CONTINUOUS
 62
    7
 10
2100.0001
 20
535.13516
 11
2100.0001
 21
175.13519
  0
LINE
  8
0-d
  6
CONTINUOUS
 62
    7
 10
1300
 20
175.13519
 11
1300
 21
375.13524
  0
LINE
  8
0-d
  6
CONTINUOUS
 62
    7
 10
2100.0001
 20
375.13524
 11
2100.0001
 21
535.13516
  0
LINE
  8
0-d
  6
CONTINUOUS
 62
    7
 10
1700
 20
175.13519
 11
1700
 21
375.13524
  0
LINE
  8
0-d
  6
CONTINUOUS
 62
    7
 10
569.99968
 20
175.13519
 11
569.99968
 21
375.13524
  0
LINE
  8
0-d
  6
CONTINUOUS
 62
    7
 10
1369.9996
 20
175.13519
 11
1369.9996
 21
375.13524
  0
LINE
  8
0-d
  6
CONTINUOUS
 62
    7
 10
1769.9996
 20
175.13519
 11
1769.9996
 21
375.13524
  0
LINE
  8
0-d
  6
CONTINUOUS
 62
    7
 10
2029.9999
 20
375.13524
 11
2029.9999
 21
535.13516
  0
LINE
  8
0-d
  6
CONTINUOUS
 62
    7
 10
3099.9999
 20
375.13524
 11
3099.9999
 21
535.13516
  0
LINE
  8
0-d
  6
CONTINUOUS
 62
    7
 10
3169.9997
 20
375.13524
 11
3169.9997
 21
535.13516
  0
LINE
  8
0-d
  6
CONTINUOUS
 62
    7
 10
499.99981
 20
535.13516
 11
3700
 21
535.13516
  0
LINE
  8
0-d
  6
CONTINUOUS
 62
    7
 10
3700
 20
535.13516
 11
3700
 21
175.13519
  0
LINE
  8
0-8
  6
CONTINUOUS
 62
    7
 10
1100.0002
 20
5112.1426
 11
3100.0004
 21
5112.1426
  0
LINE
  8
0-8
  6
CONTINUOUS
 62
    7
 10
1099.9997
 20
4787.2194
 11
1100.0002
 21
5112.1426
  0
LINE
  8
0-8
  6
CONTINUOUS
 62
    7
 10
1439.4055
 20
4986.4882
 11
651.0335
 21
4986.4882
  0
LINE
  8
0-8
  6
CONTINUOUS
 62
    7
 10
3100.0004
 20
4787.2194
 11
3100.0004
 21
5112.1426
  0
LINE
  8
0-2
  6
CONTINUOUS
 62
    3
 10
1100.0002
 20
3742.0647
 11
1100.0002
 21
3664.0645
  0
LINE
  8
0-2
  6
CONTINUOUS
 62
    3
 10
1100.0002
 20
3638.0645
 11
1100.0002
 21
3577.3972
  0
LINE
  8
0-2
  6
CONTINUOUS
 62
    3
 10
1100.0002
 20
3577.3972
 11
2100.0001
 21
3577.3972
  0
LINE
  8
0-2
  6
CONTINUOUS
 62
    3
 10
1100.0002
 20
3638.0645
 11
2100.0001
 21
3638.0645
  0
LINE
  8
0-2
  6
CONTINUOUS
 62
    3
 10
1100.0002
 20
3664.0645
 11
2100.0001
 21
3664.0645
  0
LINE
  8
0-2
  6
CONTINUOUS
 62
    3
 10
1100.0002
 20
3742.0647
 11
2100.0001
 21
3742.0647
  0
LINE
  8
0-2
  6
CONTINUOUS
 62
    3
 10
1100.0002
 20
3768.0637
 11
2100.0001
 21
3768.0637
  0
LINE
  8
0-8
  6
CONTINUOUS
 62
    7
 10
1051.8622
 20
3286.4882
 11
651.03301
 21
3286.4882
  0
LINE
  8
0-2
  6
CONTINUOUS
 62
    3
 10
1360.6058
 20
3544.4269
 11
2100.0001
 21
3544.4274
  0
LINE
  8
0-2
  6
CONTINUOUS
 62
    3
 10
1360.6058
 20
3518.4254
 11
2100.0001
 21
3518.4261
  0
LINE
  8
0-2
  6
CONTINUOUS
 62
    3
 10
1360.6063
 20
3577.3972
 11
1360.6058
 21
3544.4269
  0
LINE
  8
0-2
  6
CONTINUOUS
 62
    3
 10
1099.9997
 20
4543.0319
 11
1099.9997
 21
4621.0324
  0
LINE
  8
0-2
  6
CONTINUOUS
 62
    3
 10
1100.0002
 20
4517.0329
 11
1100.0002
 21
3768.0637
  0
LINE
  8
0-2
  6
CONTINUOUS
 62
    3
 10
1100.0002
 20
4707.7002
 11
1100.0002
 21
4647.0324
  0
LINE
  8
0-2
  6
CONTINUOUS
 62
    3
 10
1100.0002
 20
4707.7002
 11
2100.0001
 21
4707.7002
  0
LINE
  8
0-2
  6
CONTINUOUS
 62
    3
 10
1099.9997
 20
4647.0324
 11
2100.0001
 21
4647.0324
  0
LINE
  8
0-2
  6
CONTINUOUS
 62
    3
 10
1099.9997
 20
4621.0324
 11
2100.0001
 21
4621.0324
  0
LINE
  8
0-2
  6
CONTINUOUS
 62
    3
 10
1099.9997
 20
4543.0319
 11
2100.0001
 21
4543.0319
  0
LINE
  8
0-2
  6
CONTINUOUS
 62
    3
 10
1099.9997
 20
4517.0329
 11
2100.0001
 21
4517.0329
  0
LINE
  8
0-2
  6
CONTINUOUS
 62
    3
 10
2100.0001
 20
4986.4867
 11
1640.7131
 21
4707.7002
  0
LINE
  8
0-2
  6
CONTINUOUS
 62
    3
 10
1240.0001
 20
3286.4882
 11
2960.0002
 21
3286.4882
  0
LINE
  8
0-2
  6
CONTINUOUS
 62
    3
 10
1240.0001
 20
3286.4882
 11
1240.0001
 21
3356.4882
  0
LINE
  8
0-2
  6
CONTINUOUS
 62
    3
 10
3099.9999
 20
3742.0647
 11
3099.9999
 21
3664.0645
  0
LINE
  8
0-2
  6
CONTINUOUS
 62
    3
 10
3099.9999
 20
3638.0645
 11
3099.9999
 21
3577.3972
  0
LINE
  8
0-2
  6
CONTINUOUS
 62
    3
 10
3099.9999
 20
3577.3972
 11
2100.0001
 21
3577.3972
  0
LINE
  8
0-2
  6
CONTINUOUS
 62
    3
 10
3099.9999
 20
3638.0645
 11
2100.0001
 21
3638.0645
  0
LINE
  8
0-2
  6
CONTINUOUS
 62
    3
 10
3099.9999
 20
3664.0645
 11
2100.0001
 21
3664.0645
  0
LINE
  8
0-2
  6
CONTINUOUS
 62
    3
 10
3099.9999
 20
3742.0647
 11
2100.0001
 21
3742.0647
  0
LINE
  8
0-2
  6
CONTINUOUS
 62
    3
 10
3099.9999
 20
3768.0637
 11
2100.0001
 21
3768.0637
  0
LINE
  8
0-2
  6
CONTINUOUS
 62
    3
 10
2839.3943
 20
3544.4269
 11
2100.0001
 21
3544.4274
  0
LINE
  8
0-2
  6
CONTINUOUS
 62
    3
 10
2839.3943
 20
3518.4254
 11
2100.0001
 21
3518.4261
  0
LINE
  8
0-2
  6
CONTINUOUS
 62
    3
 10
2839.3943
 20
3577.3972
 11
2839.3943
 21
3544.4269
  0
LINE
  8
0-2
  6
CONTINUOUS
 62
    3
 10
3100.0004
 20
4543.0319
 11
3100.0004
 21
4621.0324
  0
LINE
  8
0-2
  6
CONTINUOUS
 62
    3
 10
3099.9999
 20
4517.0329
 11
3099.9999
 21
3768.0637
  0
LINE
  8
0-2
  6
CONTINUOUS
 62
    3
 10
3099.9999
 20
4707.7002
 11
3099.9999
 21
4647.0324
  0
LINE
  8
0-2
  6
CONTINUOUS
 62
    3
 10
3099.9999
 20
4707.7002
 11
2100.0001
 21
4707.7002
  0
LINE
  8
0-2
  6
CONTINUOUS
 62
    3
 10
3100.0004
 20
4647.0324
 11
2100.0001
 21
4647.0324
  0
LINE
  8
0-2
  6
CONTINUOUS
 62
    3
 10
3100.0004
 20
4621.0324
 11
2100.0001
 21
4621.0324
  0
LINE
  8
0-2
  6
CONTINUOUS
 62
    3
 10
3100.0004
 20
4543.0319
 11
2100.0001
 21
4543.0319
  0
LINE
  8
0-2
  6
CONTINUOUS
 62
    3
 10
3100.0004
 20
4517.0329
 11
2100.0001
 21
4517.0329
  0
LINE
  8
0-2
  6
CONTINUOUS
 62
    3
 10
2960.0002
 20
3286.4882
 11
2960.0002
 21
3356.4882
  0
LINE
  8
0-2
  6
CONTINUOUS
 62
    3
 10
2100.0001
 20
4986.4867
 11
2559.2875
 21
4707.7002
  0
LINE
  8
0-2
  6
CONTINUOUS
 62
    3
 10
1240.0001
 20
3356.4882
 11
2960.0002
 21
3356.4882
  0
LINE
  8
0-8
  6
CONTINUOUS
 62
    7
 10
651.03301
 20
3283.458
 11
651.0335
 21
4986.4882
  0
LINE
  8
0-8
  6
CONTINUOUS
 62
    7
 10
1240.0001
 20
3067.0776
 11
2960.0002
 21
3067.0776
  0
LINE
  8
0-8
  6
CONTINUOUS
 62
    7
 10
1240.0001
 20
3229.2397
 11
1240.0001
 21
3067.0776
  0
LINE
  8
0-8
  6
CONTINUOUS
 62
    7
 10
2960.0002
 20
3229.2397
 11
2960.0002
 21
3067.0776
  0
LINE
  8
0-2
  6
CONTINUOUS
 62
    3
 10
1240.0001
 20
3356.4882
 11
1519.8779
 21
3518.4257
  0
LINE
  8
0-2
  6
CONTINUOUS
 62
    3
 10
1577.1696
 20
3518.4257
 11
1577.1696
 21
3356.4882
  0
LINE
  8
0-2
  6
CONTINUOUS
 62
    3
 10
1360.6058
 20
3518.4254
 11
1360.6058
 21
3426.4698
  0
LINE
  8
0-2
  6
CONTINUOUS
 62
    3
 10
2622.8305
 20
3518.4257
 11
2622.8305
 21
3356.4882
  0
LINE
  8
0-2
  6
CONTINUOUS
 62
    3
 10
2960.0002
 20
3356.4882
 11
2680.1228
 21
3518.4257
  0
LINE
  8
0-2
  6
CONTINUOUS
 62
    3
 10
2839.3943
 20
3518.4254
 11
2839.3943
 21
3426.4698
  0
LINE
  8
0-8
  6
CONTINUOUS
 62
    7
 10
791.33387
 20
3286.4882
 11
791.33387
 21
3356.4882
  0
LINE
  8
0-8
  6
CONTINUOUS
 62
    7
 10
1051.8622
 20
3286.4882
 11
791.33387
 21
3286.4882
  0
LINE
  8
0-8
  6
CONTINUOUS
 62
    7
 10
1051.8622
 20
3356.4882
 11
791.33387
 21
3356.4882
  0
LINE
  8
0-d
  6
CENTER2
 62
    7
 10
2100.0001
 20
3171.3831
 11
2100.0001
 21
4986.4867
  0
LINE
  8
0-2
  6
CONTINUOUS
 62
    3
 10
1100.0002
 20
3768.0641
 11
1097.8489
 21
3767.8666
  0
LINE
  8
0-2
  6
CONTINUOUS
 62
    3
 10
1097.8489
 20
3767.8666
 11
1095.7629
 21
3767.2801
  0
LINE
  8
0-2
  6
CONTINUOUS
 62
    3
 10
1095.7629
 20
3767.2801
 11
1093.8057
 21
3766.3225
  0
LINE
  8
0-2
  6
CONTINUOUS
 62
    3
 10
1093.8057
 20
3766.3225
 11
1092.0368
 21
3765.0227
  0
LINE
  8
0-2
  6
CONTINUOUS
 62
    3
 10
1092.0368
 20
3765.0227
 11
1090.5097
 21
3763.4204
  0
LINE
  8
0-2
  6
CONTINUOUS
 62
    3
 10
1090.5097
 20
3763.4204
 11
1089.2711
 21
3761.5642
  0
LINE
  8
0-2
  6
CONTINUOUS
 62
    3
 10
1089.2711
 20
3761.5642
 11
1088.3584
 21
3759.5105
  0
LINE
  8
0-2
  6
CONTINUOUS
 62
    3
 10
1088.3584
 20
3759.5105
 11
1087.7995
 21
3757.3216
  0
LINE
  8
0-2
  6
CONTINUOUS
 62
    3
 10
1087.7995
 20
3757.3216
 11
1087.6113
 21
3755.0642
  0
LINE
  8
0-2
  6
CONTINUOUS
 62
    3
 10
1087.6113
 20
3755.0642
 11
1087.7995
 21
3752.8068
  0
LINE
  8
0-2
  6
CONTINUOUS
 62
    3
 10
1087.7995
 20
3752.8068
 11
1088.3584
 21
3750.618
  0
LINE
  8
0-2
  6
CONTINUOUS
 62
    3
 10
1088.3584
 20
3750.618
 11
1089.2711
 21
3748.5643
  0
LINE
  8
0-2
  6
CONTINUOUS
 62
    3
 10
1089.2711
 20
3748.5643
 11
1090.5097
 21
3746.7081
  0
LINE
  8
0-2
  6
CONTINUOUS
 62
    3
 10
1090.5097
 20
3746.7081
 11
1092.0368
 21
3745.1058
  0
LINE
  8
0-2
  6
CONTINUOUS
 62
    3
 10
1092.0368
 20
3745.1058
 11
1093.8057
 21
3743.806
  0
LINE
  8
0-2
  6
CONTINUOUS
 62
    3
 10
1093.8057
 20
3743.806
 11
1095.7629
 21
3742.8484
  0
LINE
  8
0-2
  6
CONTINUOUS
 62
    3
 10
1095.7629
 20
3742.8484
 11
1097.8489
 21
3742.2619
  0
LINE
  8
0-2
  6
CONTINUOUS
 62
    3
 10
1097.8489
 20
3742.2619
 11
1100.0002
 21
3742.0644
  0
LINE
  8
0-2
  6
CONTINUOUS
 62
    3
 10
1100.0002
 20
3664.0639
 11
1097.8489
 21
3663.8664
  0
LINE
  8
0-2
  6
CONTINUOUS
 62
    3
 10
1097.8489
 20
3663.8664
 11
1095.7629
 21
3663.2799
  0
LINE
  8
0-2
  6
CONTINUOUS
 62
    3
 10
1095.7629
 20
3663.2799
 11
1093.8057
 21
3662.3223
  0
LINE
  8
0-2
  6
CONTINUOUS
 62
    3
 10
1093.8057
 20
3662.3223
 11
1092.0368
 21
3661.0225
  0
LINE
  8
0-2
  6
CONTINUOUS
 62
    3
 10
1092.0368
 20
3661.0225
 11
1090.5097
 21
3659.4202
  0
LINE
  8
0-2
  6
CONTINUOUS
 62
    3
 10
1090.5097
 20
3659.4202
 11
1089.2711
 21
3657.564
  0
LINE
  8
0-2
  6
CONTINUOUS
 62
    3
 10
1089.2711
 20
3657.564
 11
1088.3584
 21
3655.5103
  0
LINE
  8
0-2
  6
CONTINUOUS
 62
    3
 10
1088.3584
 20
3655.5103
 11
1087.7995
 21
3653.3214
  0
LINE
  8
0-2
  6
CONTINUOUS
 62
    3
 10
1087.7995
 20
3653.3214
 11
1087.6113
 21
3651.064
  0
LINE
  8
0-2
  6
CONTINUOUS
 62
    3
 10
1087.6113
 20
3651.064
 11
1087.7995
 21
3648.8066
  0
LINE
  8
0-2
  6
CONTINUOUS
 62
    3
 10
1087.7995
 20
3648.8066
 11
1088.3584
 21
3646.6178
  0
LINE
  8
0-2
  6
CONTINUOUS
 62
    3
 10
1088.3584
 20
3646.6178
 11
1089.2711
 21
3644.5641
  0
LINE
  8
0-2
  6
CONTINUOUS
 62
    3
 10
1089.2711
 20
3644.5641
 11
1090.5097
 21
3642.7079
  0
LINE
  8
0-2
  6
CONTINUOUS
 62
    3
 10
1090.5097
 20
3642.7079
 11
1092.0368
 21
3641.1056
  0
LINE
  8
0-2
  6
CONTINUOUS
 62
    3
 10
1092.0368
 20
3641.1056
 11
1093.8057
 21
3639.8058
  0
LINE
  8
0-2
  6
CONTINUOUS
 62
    3
 10
1093.8057
 20
3639.8058
 11
1095.7629
 21
3638.8482
  0
LINE
  8
0-2
  6
CONTINUOUS
 62
    3
 10
1095.7629
 20
3638.8482
 11
1097.8489
 21
3638.2617
  0
LINE
  8
0-2
  6
CONTINUOUS
 62
    3
 10
1097.8489
 20
3638.2617
 11
1100.0002
 21
3638.0642
  0
LINE
  8
0-2
  6
CONTINUOUS
 62
    3
 10
1360.6058
 20
3544.4255
 11
1358.4545
 21
3544.228
  0
LINE
  8
0-2
  6
CONTINUOUS
 62
    3
 10
1358.4545
 20
3544.228
 11
1356.3685
 21
3543.6415
  0
LINE
  8
0-2
  6
CONTINUOUS
 62
    3
 10
1356.3685
 20
3543.6415
 11
1354.4113
 21
3542.6839
  0
LINE
  8
0-2
  6
CONTINUOUS
 62
    3
 10
1354.4113
 20
3542.6839
 11
1352.6424
 21
3541.3841
  0
LINE
  8
0-2
  6
CONTINUOUS
 62
    3
 10
1352.6424
 20
3541.3841
 11
1351.1154
 21
3539.7818
  0
LINE
  8
0-2
  6
CONTINUOUS
 62
    3
 10
1351.1154
 20
3539.7818
 11
1349.8767
 21
3537.9256
  0
LINE
  8
0-2
  6
CONTINUOUS
 62
    3
 10
1349.8767
 20
3537.9256
 11
1348.9641
 21
3535.8719
  0
LINE
  8
0-2
  6
CONTINUOUS
 62
    3
 10
1348.9641
 20
3535.8719
 11
1348.4051
 21
3533.6831
  0
LINE
  8
0-2
  6
CONTINUOUS
 62
    3
 10
1348.4051
 20
3533.6831
 11
1348.2169
 21
3531.4256
  0
LINE
  8
0-2
  6
CONTINUOUS
 62
    3
 10
1348.2169
 20
3531.4256
 11
1348.4051
 21
3529.1682
  0
LINE
  8
0-2
  6
CONTINUOUS
 62
    3
 10
1348.4051
 20
3529.1682
 11
1348.9641
 21
3526.9794
  0
LINE
  8
0-2
  6
CONTINUOUS
 62
    3
 10
1348.9641
 20
3526.9794
 11
1349.8767
 21
3524.9257
  0
LINE
  8
0-2
  6
CONTINUOUS
 62
    3
 10
1349.8767
 20
3524.9257
 11
1351.1154
 21
3523.0695
  0
LINE
  8
0-2
  6
CONTINUOUS
 62
    3
 10
1351.1154
 20
3523.0695
 11
1352.6424
 21
3521.4672
  0
LINE
  8
0-2
  6
CONTINUOUS
 62
    3
 10
1352.6424
 20
3521.4672
 11
1354.4113
 21
3520.1674
  0
LINE
  8
0-2
  6
CONTINUOUS
 62
    3
 10
1354.4113
 20
3520.1674
 11
1356.3685
 21
3519.2098
  0
LINE
  8
0-2
  6
CONTINUOUS
 62
    3
 10
1356.3685
 20
3519.2098
 11
1358.4545
 21
3518.6233
  0
LINE
  8
0-2
  6
CONTINUOUS
 62
    3
 10
1358.4545
 20
3518.6233
 11
1360.6058
 21
3518.4258
  0
LINE
  8
0-2
  6
CONTINUOUS
 62
    3
 10
1099.9997
 20
4543.0333
 11
1097.8484
 21
4542.8358
  0
LINE
  8
0-2
  6
CONTINUOUS
 62
    3
 10
1097.8484
 20
4542.8358
 11
1095.7624
 21
4542.2493
  0
LINE
  8
0-2
  6
CONTINUOUS
 62
    3
 10
1095.7624
 20
4542.2493
 11
1093.8052
 21
4541.2917
  0
LINE
  8
0-2
  6
CONTINUOUS
 62
    3
 10
1093.8052
 20
4541.2917
 11
1092.0363
 21
4539.9919
  0
LINE
  8
0-2
  6
CONTINUOUS
 62
    3
 10
1092.0363
 20
4539.9919
 11
1090.5092
 21
4538.3896
  0
LINE
  8
0-2
  6
CONTINUOUS
 62
    3
 10
1090.5092
 20
4538.3896
 11
1089.2706
 21
4536.5334
  0
LINE
  8
0-2
  6
CONTINUOUS
 62
    3
 10
1089.2706
 20
4536.5334
 11
1088.3579
 21
4534.4797
  0
LINE
  8
0-2
  6
CONTINUOUS
 62
    3
 10
1088.3579
 20
4534.4797
 11
1087.799
 21
4532.2908
  0
LINE
  8
0-2
  6
CONTINUOUS
 62
    3
 10
1087.799
 20
4532.2908
 11
1087.6108
 21
4530.0334
  0
LINE
  8
0-2
  6
CONTINUOUS
 62
    3
 10
1087.6108
 20
4530.0334
 11
1087.799
 21
4527.776
  0
LINE
  8
0-2
  6
CONTINUOUS
 62
    3
 10
1087.799
 20
4527.776
 11
1088.3579
 21
4525.5872
  0
LINE
  8
0-2
  6
CONTINUOUS
 62
    3
 10
1088.3579
 20
4525.5872
 11
1089.2706
 21
4523.5335
  0
LINE
  8
0-2
  6
CONTINUOUS
 62
    3
 10
1089.2706
 20
4523.5335
 11
1090.5092
 21
4521.6773
  0
LINE
  8
0-2
  6
CONTINUOUS
 62
    3
 10
1090.5092
 20
4521.6773
 11
1092.0363
 21
4520.075
  0
LINE
  8
0-2
  6
CONTINUOUS
 62
    3
 10
1092.0363
 20
4520.075
 11
1093.8052
 21
4518.7752
  0
LINE
  8
0-2
  6
CONTINUOUS
 62
    3
 10
1093.8052
 20
4518.7752
 11
1095.7624
 21
4517.8176
  0
LINE
  8
0-2
  6
CONTINUOUS
 62
    3
 10
1095.7624
 20
4517.8176
 11
1097.8484
 21
4517.2311
  0
LINE
  8
0-2
  6
CONTINUOUS
 62
    3
 10
1097.8484
 20
4517.2311
 11
1099.9997
 21
4517.0336
  0
LINE
  8
0-2
  6
CONTINUOUS
 62
    3
 10
1099.9997
 20
4647.0323
 11
1097.8484
 21
4646.8348
  0
LINE
  8
0-2
  6
CONTINUOUS
 62
    3
 10
1097.8484
 20
4646.8348
 11
1095.7624
 21
4646.2483
  0
LINE
  8
0-2
  6
CONTINUOUS
 62
    3
 10
1095.7624
 20
4646.2483
 11
1093.8052
 21
4645.2906
  0
LINE
  8
0-2
  6
CONTINUOUS
 62
    3
 10
1093.8052
 20
4645.2906
 11
1092.0363
 21
4643.9909
  0
LINE
  8
0-2
  6
CONTINUOUS
 62
    3
 10
1092.0363
 20
4643.9909
 11
1090.5092
 21
4642.3886
  0
LINE
  8
0-2
  6
CONTINUOUS
 62
    3
 10
1090.5092
 20
4642.3886
 11
1089.2706
 21
4640.5323
  0
LINE
  8
0-2
  6
CONTINUOUS
 62
    3
 10
1089.2706
 20
4640.5323
 11
1088.3579
 21
4638.4786
  0
LINE
  8
0-2
  6
CONTINUOUS
 62
    3
 10
1088.3579
 20
4638.4786
 11
1087.799
 21
4636.2898
  0
LINE
  8
0-2
  6
CONTINUOUS
 62
    3
 10
1087.799
 20
4636.2898
 11
1087.6108
 21
4634.0324
  0
LINE
  8
0-2
  6
CONTINUOUS
 62
    3
 10
1087.6108
 20
4634.0324
 11
1087.799
 21
4631.775
  0
LINE
  8
0-2
  6
CONTINUOUS
 62
    3
 10
1087.799
 20
4631.775
 11
1088.3579
 21
4629.5862
  0
LINE
  8
0-2
  6
CONTINUOUS
 62
    3
 10
1088.3579
 20
4629.5862
 11
1089.2706
 21
4627.5325
  0
LINE
  8
0-2
  6
CONTINUOUS
 62
    3
 10
1089.2706
 20
4627.5325
 11
1090.5092
 21
4625.6762
  0
LINE
  8
0-2
  6
CONTINUOUS
 62
    3
 10
1090.5092
 20
4625.6762
 11
1092.0363
 21
4624.0739
  0
LINE
  8
0-2
  6
CONTINUOUS
 62
    3
 10
1092.0363
 20
4624.0739
 11
1093.8052
 21
4622.7742
  0
LINE
  8
0-2
  6
CONTINUOUS
 62
    3
 10
1093.8052
 20
4622.7742
 11
1095.7624
 21
4621.8165
  0
LINE
  8
0-2
  6
CONTINUOUS
 62
    3
 10
1095.7624
 20
4621.8165
 11
1097.8484
 21
4621.23
  0
LINE
  8
0-2
  6
CONTINUOUS
 62
    3
 10
1097.8484
 20
4621.23
 11
1099.9997
 21
4621.0325
  0
LINE
  8
0-2
  6
CONTINUOUS
 62
    3
 10
3099.9999
 20
3742.0644
 11
3102.1512
 21
3742.2619
  0
LINE
  8
0-2
  6
CONTINUOUS
 62
    3
 10
3102.1512
 20
3742.2619
 11
3104.2372
 21
3742.8484
  0
LINE
  8
0-2
  6
CONTINUOUS
 62
    3
 10
3104.2372
 20
3742.8484
 11
3106.1944
 21
3743.806
  0
LINE
  8
0-2
  6
CONTINUOUS
 62
    3
 10
3106.1944
 20
3743.806
 11
3107.9634
 21
3745.1058
  0
LINE
  8
0-2
  6
CONTINUOUS
 62
    3
 10
3107.9634
 20
3745.1058
 11
3109.4904
 21
3746.7081
  0
LINE
  8
0-2
  6
CONTINUOUS
 62
    3
 10
3109.4904
 20
3746.7081
 11
3110.729
 21
3748.5643
  0
LINE
  8
0-2
  6
CONTINUOUS
 62
    3
 10
3110.729
 20
3748.5643
 11
3111.6417
 21
3750.618
  0
LINE
  8
0-2
  6
CONTINUOUS
 62
    3
 10
3111.6417
 20
3750.618
 11
3112.2006
 21
3752.8068
  0
LINE
  8
0-2
  6
CONTINUOUS
 62
    3
 10
3112.2006
 20
3752.8068
 11
3112.3888
 21
3755.0642
  0
LINE
  8
0-2
  6
CONTINUOUS
 62
    3
 10
3112.3888
 20
3755.0642
 11
3112.2006
 21
3757.3216
  0
LINE
  8
0-2
  6
CONTINUOUS
 62
    3
 10
3112.2006
 20
3757.3216
 11
3111.6417
 21
3759.5105
  0
LINE
  8
0-2
  6
CONTINUOUS
 62
    3
 10
3111.6417
 20
3759.5105
 11
3110.729
 21
3761.5642
  0
LINE
  8
0-2
  6
CONTINUOUS
 62
    3
 10
3110.729
 20
3761.5642
 11
3109.4904
 21
3763.4204
  0
LINE
  8
0-2
  6
CONTINUOUS
 62
    3
 10
3109.4904
 20
3763.4204
 11
3107.9634
 21
3765.0227
  0
LINE
  8
0-2
  6
CONTINUOUS
 62
    3
 10
3107.9634
 20
3765.0227
 11
3106.1944
 21
3766.3225
  0
LINE
  8
0-2
  6
CONTINUOUS
 62
    3
 10
3106.1944
 20
3766.3225
 11
3104.2372
 21
3767.2801
  0
LINE
  8
0-2
  6
CONTINUOUS
 62
    3
 10
3104.2372
 20
3767.2801
 11
3102.1512
 21
3767.8666
  0
LINE
  8
0-2
  6
CONTINUOUS
 62
    3
 10
3102.1512
 20
3767.8666
 11
3099.9999
 21
3768.0641
  0
LINE
  8
0-2
  6
CONTINUOUS
 62
    3
 10
3099.9999
 20
3638.0642
 11
3102.1512
 21
3638.2617
  0
LINE
  8
0-2
  6
CONTINUOUS
 62
    3
 10
3102.1512
 20
3638.2617
 11
3104.2372
 21
3638.8482
  0
LINE
  8
0-2
  6
CONTINUOUS
 62
    3
 10
3104.2372
 20
3638.8482
 11
3106.1944
 21
3639.8058
  0
LINE
  8
0-2
  6
CONTINUOUS
 62
    3
 10
3106.1944
 20
3639.8058
 11
3107.9634
 21
3641.1056
  0
LINE
  8
0-2
  6
CONTINUOUS
 62
    3
 10
3107.9634
 20
3641.1056
 11
3109.4904
 21
3642.7079
  0
LINE
  8
0-2
  6
CONTINUOUS
 62
    3
 10
3109.4904
 20
3642.7079
 11
3110.729
 21
3644.5641
  0
LINE
  8
0-2
  6
CONTINUOUS
 62
    3
 10
3110.729
 20
3644.5641
 11
3111.6417
 21
3646.6178
  0
LINE
  8
0-2
  6
CONTINUOUS
 62
    3
 10
3111.6417
 20
3646.6178
 11
3112.2006
 21
3648.8066
  0
LINE
  8
0-2
  6
CONTINUOUS
 62
    3
 10
3112.2006
 20
3648.8066
 11
3112.3888
 21
3651.064
  0
LINE
  8
0-2
  6
CONTINUOUS
 62
    3
 10
3112.3888
 20
3651.064
 11
3112.2006
 21
3653.3214
  0
LINE
  8
0-2
  6
CONTINUOUS
 62
    3
 10
3112.2006
 20
3653.3214
 11
3111.6417
 21
3655.5103
  0
LINE
  8
0-2
  6
CONTINUOUS
 62
    3
 10
3111.6417
 20
3655.5103
 11
3110.729
 21
3657.564
  0
LINE
  8
0-2
  6
CONTINUOUS
 62
    3
 10
3110.729
 20
3657.564
 11
3109.4904
 21
3659.4202
  0
LINE
  8
0-2
  6
CONTINUOUS
 62
    3
 10
3109.4904
 20
3659.4202
 11
3107.9634
 21
3661.0225
  0
LINE
  8
0-2
  6
CONTINUOUS
 62
    3
 10
3107.9634
 20
3661.0225
 11
3106.1944
 21
3662.3223
  0
LINE
  8
0-2
  6
CONTINUOUS
 62
    3
 10
3106.1944
 20
3662.3223
 11
3104.2372
 21
3663.2799
  0
LINE
  8
0-2
  6
CONTINUOUS
 62
    3
 10
3104.2372
 20
3663.2799
 11
3102.1512
 21
3663.8664
  0
LINE
  8
0-2
  6
CONTINUOUS
 62
    3
 10
3102.1512
 20
3663.8664
 11
3099.9999
 21
3664.0639
  0
LINE
  8
0-2
  6
CONTINUOUS
 62
    3
 10
2839.3943
 20
3518.4258
 11
2841.5456
 21
3518.6233
  0
LINE
  8
0-2
  6
CONTINUOUS
 62
    3
 10
2841.5456
 20
3518.6233
 11
2843.6316
 21
3519.2098
  0
LINE
  8
0-2
  6
CONTINUOUS
 62
    3
 10
2843.6316
 20
3519.2098
 11
2845.5888
 21
3520.1674
  0
LINE
  8
0-2
  6
CONTINUOUS
 62
    3
 10
2845.5888
 20
3520.1674
 11
2847.3577
 21
3521.4672
  0
LINE
  8
0-2
  6
CONTINUOUS
 62
    3
 10
2847.3577
 20
3521.4672
 11
2848.8848
 21
3523.0695
  0
LINE
  8
0-2
  6
CONTINUOUS
 62
    3
 10
2848.8848
 20
3523.0695
 11
2850.1234
 21
3524.9257
  0
LINE
  8
0-2
  6
CONTINUOUS
 62
    3
 10
2850.1234
 20
3524.9257
 11
2851.0361
 21
3526.9794
  0
LINE
  8
0-2
  6
CONTINUOUS
 62
    3
 10
2851.0361
 20
3526.9794
 11
2851.595
 21
3529.1682
  0
LINE
  8
0-2
  6
CONTINUOUS
 62
    3
 10
2851.595
 20
3529.1682
 11
2851.7832
 21
3531.4256
  0
LINE
  8
0-2
  6
CONTINUOUS
 62
    3
 10
2851.7832
 20
3531.4256
 11
2851.595
 21
3533.6831
  0
LINE
  8
0-2
  6
CONTINUOUS
 62
    3
 10
2851.595
 20
3533.6831
 11
2851.0361
 21
3535.8719
  0
LINE
  8
0-2
  6
CONTINUOUS
 62
    3
 10
2851.0361
 20
3535.8719
 11
2850.1234
 21
3537.9256
  0
LINE
  8
0-2
  6
CONTINUOUS
 62
    3
 10
2850.1234
 20
3537.9256
 11
2848.8848
 21
3539.7818
  0
LINE
  8
0-2
  6
CONTINUOUS
 62
    3
 10
2848.8848
 20
3539.7818
 11
2847.3577
 21
3541.3841
  0
LINE
  8
0-2
  6
CONTINUOUS
 62
    3
 10
2847.3577
 20
3541.3841
 11
2845.5888
 21
3542.6839
  0
LINE
  8
0-2
  6
CONTINUOUS
 62
    3
 10
2845.5888
 20
3542.6839
 11
2843.6316
 21
3543.6415
  0
LINE
  8
0-2
  6
CONTINUOUS
 62
    3
 10
2843.6316
 20
3543.6415
 11
2841.5456
 21
3544.228
  0
LINE
  8
0-2
  6
CONTINUOUS
 62
    3
 10
2841.5456
 20
3544.228
 11
2839.3943
 21
3544.4255
  0
LINE
  8
0-2
  6
CONTINUOUS
 62
    3
 10
3100.0004
 20
4517.0336
 11
3102.1517
 21
4517.2311
  0
LINE
  8
0-2
  6
CONTINUOUS
 62
    3
 10
3102.1517
 20
4517.2311
 11
3104.2377
 21
4517.8176
  0
LINE
  8
0-2
  6
CONTINUOUS
 62
    3
 10
3104.2377
 20
4517.8176
 11
3106.1949
 21
4518.7752
  0
LINE
  8
0-2
  6
CONTINUOUS
 62
    3
 10
3106.1949
 20
4518.7752
 11
3107.9639
 21
4520.075
  0
LINE
  8
0-2
  6
CONTINUOUS
 62
    3
 10
3107.9639
 20
4520.075
 11
3109.4909
 21
4521.6773
  0
LINE
  8
0-2
  6
CONTINUOUS
 62
    3
 10
3109.4909
 20
4521.6773
 11
3110.7295
 21
4523.5335
  0
LINE
  8
0-2
  6
CONTINUOUS
 62
    3
 10
3110.7295
 20
4523.5335
 11
3111.6422
 21
4525.5872
  0
LINE
  8
0-2
  6
CONTINUOUS
 62
    3
 10
3111.6422
 20
4525.5872
 11
3112.2011
 21
4527.776
  0
LINE
  8
0-2
  6
CONTINUOUS
 62
    3
 10
3112.2011
 20
4527.776
 11
3112.3893
 21
4530.0334
  0
LINE
  8
0-2
  6
CONTINUOUS
 62
    3
 10
3112.3893
 20
4530.0334
 11
3112.2011
 21
4532.2908
  0
LINE
  8
0-2
  6
CONTINUOUS
 62
    3
 10
3112.2011
 20
4532.2908
 11
3111.6422
 21
4534.4797
  0
LINE
  8
0-2
  6
CONTINUOUS
 62
    3
 10
3111.6422
 20
4534.4797
 11
3110.7295
 21
4536.5334
  0
LINE
  8
0-2
  6
CONTINUOUS
 62
    3
 10
3110.7295
 20
4536.5334
 11
3109.4909
 21
4538.3896
  0
LINE
  8
0-2
  6
CONTINUOUS
 62
    3
 10
3109.4909
 20
4538.3896
 11
3107.9639
 21
4539.9919
  0
LINE
  8
0-2
  6
CONTINUOUS
 62
    3
 10
3107.9639
 20
4539.9919
 11
3106.1949
 21
4541.2917
  0
LINE
  8
0-2
  6
CONTINUOUS
 62
    3
 10
3106.1949
 20
4541.2917
 11
3104.2377
 21
4542.2493
  0
LINE
  8
0-2
  6
CONTINUOUS
 62
    3
 10
3104.2377
 20
4542.2493
 11
3102.1517
 21
4542.8358
  0
LINE
  8
0-2
  6
CONTINUOUS
 62
    3
 10
3102.1517
 20
4542.8358
 11
3100.0004
 21
4543.0333
  0
LINE
  8
0-2
  6
CONTINUOUS
 62
    3
 10
3100.0004
 20
4621.0325
 11
3102.1517
 21
4621.23
  0
LINE
  8
0-2
  6
CONTINUOUS
 62
    3
 10
3102.1517
 20
4621.23
 11
3104.2377
 21
4621.8165
  0
LINE
  8
0-2
  6
CONTINUOUS
 62
    3
 10
3104.2377
 20
4621.8165
 11
3106.1949
 21
4622.7742
  0
LINE
  8
0-2
  6
CONTINUOUS
 62
    3
 10
3106.1949
 20
4622.7742
 11
3107.9639
 21
4624.0739
  0
LINE
  8
0-2
  6
CONTINUOUS
 62
    3
 10
3107.9639
 20
4624.0739
 11
3109.4909
 21
4625.6762
  0
LINE
  8
0-2
  6
CONTINUOUS
 62
    3
 10
3109.4909
 20
4625.6762
 11
3110.7295
 21
4627.5325
  0
LINE
  8
0-2
  6
CONTINUOUS
 62
    3
 10
3110.7295
 20
4627.5325
 11
3111.6422
 21
4629.5862
  0
LINE
  8
0-2
  6
CONTINUOUS
 62
    3
 10
3111.6422
 20
4629.5862
 11
3112.2011
 21
4631.775
  0
LINE
  8
0-2
  6
CONTINUOUS
 62
    3
 10
3112.2011
 20
4631.775
 11
3112.3893
 21
4634.0324
  0
LINE
  8
0-2
  6
CONTINUOUS
 62
    3
 10
3112.3893
 20
4634.0324
 11
3112.2011
 21
4636.2898
  0
LINE
  8
0-2
  6
CONTINUOUS
 62
    3
 10
3112.2011
 20
4636.2898
 11
3111.6422
 21
4638.4786
  0
LINE
  8
0-2
  6
CONTINUOUS
 62
    3
 10
3111.6422
 20
4638.4786
 11
3110.7295
 21
4640.5323
  0
LINE
  8
0-2
  6
CONTINUOUS
 62
    3
 10
3110.7295
 20
4640.5323
 11
3109.4909
 21
4642.3886
  0
LINE
  8
0-2
  6
CONTINUOUS
 62
    3
 10
3109.4909
 20
4642.3886
 11
3107.9639
 21
4643.9909
  0
LINE
  8
0-2
  6
CONTINUOUS
 62
    3
 10
3107.9639
 20
4643.9909
 11
3106.1949
 21
4645.2906
  0
LINE
  8
0-2
  6
CONTINUOUS
 62
    3
 10
3106.1949
 20
4645.2906
 11
3104.2377
 21
4646.2483
  0
LINE
  8
0-2
  6
CONTINUOUS
 62
    3
 10
3104.2377
 20
4646.2483
 11
3102.1517
 21
4646.8348
  0
LINE
  8
0-2
  6
CONTINUOUS
 62
    3
 10
3102.1517
 20
4646.8348
 11
3100.0004
 21
4647.0323
  0
TEXT
  8
0-d
 10
509.99972
 20
310.13515
 40
50
 41
1
 50
0
  1
図
  0
TEXT
  8
0-d
 10
509.99972
 20
190.13521
 40
50
 41
1
 50
0
  1
番
  0
TEXT
  8
0-d
 10
1309.9998
 20
310.13515
 40
50
 41
1
 50
0
  1
承
  0
TEXT
  8
0-d
 10
1309.9998
 20
190.13521
 40
50
 41
1
 50
0
  1
認
  0
TEXT
  8
0-d
 10
2039.9997
 20
470.13525
 40
50
 41
1
 50
0
  1
尺
  0
TEXT
  8
0-d
 10
2039.9997
 20
390.13529
 40
50
 41
1
 50
359.99986
  1
度
  0
TEXT
  8
0-d
 10
1709.9997
 20
310.13515
 40
50
 41
1
 50
0
  1
製
  0
TEXT
  8
0-d
 10
1709.9997
 20
190.13521
 40
50
 41
1
 50
0
  1
図
  0
TEXT
  8
0-d
 10
3110
 20
470.13525
 40
50
 41
1
 50
0
  1
日
  0
TEXT
  8
0-d
 10
3110
 20
390.13529
 40
50
 41
1
 50
359.99986
  1
付
  0
TEXT
  8
0-d
 10
2222.852
 20
322.09976
 40
40
 41
1
 50
0
  1
株式
  0
TEXT
  8
0-d
 10
2222.852
 20
278.83889
 40
40
 41
1
 50
0.0000152
  1
会社
  0
TEXT
  8
0-d
 10
2348.4485
 20
281.62989
 40
80
 41
1
 50
0
  1
スズキベンチレーター
  0
TEXT
  8
0-d
 10
2475.8354
 20
183.18397
 40
40
 41
1
 50
0
  1
TEL(054)296-7000  FAX(054)296-7001
  0
TEXT
  8
0-d
 10
2168.6978
 20
415.33667
 40
80
 41
1
 50
0
  1
１／２０
  0
TEXT
  8
0-8
 10
2012.1213
 20
5136.3852
 40
60
 41
1
 50
0
  1
2,000
  0
TEXT
  8
0-8
 10
626.79083
 20
4080.4273
 40
60
 41
1
 50
90
  1
1,700
  0
TEXT
  8
0-8
 10
771.3338
 20
3293.9881
 40
60
 41
1
 50
90
  1
70
  0
TEXT
  8
0-8
 10
1921.5938
 20
3074.0232
 40
60
 41
1
 50
0
  1
1,720x1,720
  0
TEXT
  8
0-d
 10
596.6753
 20
287.90676
 40
60
 41
1
 50
0
  1
150-i01
  0
TEXT
  8
0-d
 10
510.00006
 20
5545.4028
 40
100
 41
1
 50
0
  1
ＤＳ－１５００  自然換気  架台型立面
  0
TEXT
  8
0-d
 10
562.32181
 20
415.28022
 40
60
 41
1
 50
0
  1
ＤＳ－１５００  自然換気  架台型立面
  0
TEXT
  8
0-d
 10
2471.3583
 20
232.42738
 40
40
 41
1
 50
0
  1
〒421-2114　静岡市葵区安倍口新田１５２番地
  0
POINT
  8
0-8
 62
    2
 10
651.03301
 20
3286.4882
  0
POINT
  8
0-8
 62
    2
 10
651.0335
 20
4986.4882
  0
POINT
  8
0-8
 62
    2
 10
1100.0002
 20
5112.1426
  0
POINT
  8
0-8
 62
    2
 10
3100.0004
 20
5112.1426
  0
POINT
  8
0-8
 62
    2
 10
1240.0001
 20
3067.0776
  0
POINT
  8
0-8
 62
    2
 10
2960.0002
 20
3067.0776
  0
POINT
  8
0-8
 62
    2
 10
791.33387
 20
3286.4882
  0
POINT
  8
0-8
 62
    2
 10
791.33387
 20
3356.4882
  0
ENDSEC
  0
EOF
