  0
SECTION
  2
HEADER
  9
$EXTMIN
 10
0
 20
0
  9
$EXTMAX
 10
8400
 20
5940
  0
ENDSEC
  0
SECTION
  2
TABLES
  0
TABLE
  2
LTYPE
 70
     9
  0
LTYPE
  2
CONTINUOUS
 70
    64
  3
実線
 72
    65
 73
     0
 40
0.0
  0
LTYPE
  2
DASHED1
 70
    64
  3
--  --  --  --  --  --  --  --  
 72
    65
 73
     2
 40
2.5
 49
1.25
 49
-1.25
  0
LTYPE
  2
DASHED2
 70
    64
  3
----    ----    ----    ----    
 72
    65
 73
     2
 40
5.0
 49
2.5
 49
-2.5
  0
LTYPE
  2
DASHED3
 70
    64
  3
------  ------  ------  ------  
 72
    65
 73
     2
 40
5.0
 49
3.75
 49
-1.25
  0
LTYPE
  2
CENTER1
 70
    64
  3
----- - ----- - ----- - ----- - 
 72
    65
 73
     4
 40
10.0
 49
6.25
 49
-1.25
 49
1.25
 49
-1.25
  0
LTYPE
  2
CENTER2
 70
    64
  3
----------  --  ----------  --  
 72
    65
 73
     4
 40
20.0
 49
12.5
 49
-2.5
 49
2.5
 49
-2.5
  0
LTYPE
  2
PHANTOM1
 70
    64
  3
--- - - --- - - --- - - --- - - 
 72
    65
 73
     6
 40
10.0
 49
3.25
 49
-1.25
 49
1.25
 49
-1.25
 49
1.25
 49
-1.25
  0
LTYPE
  2
PHANTOM2
 70
    64
  3
--------  -  -  --------  -  -  
 72
    65
 73
     6
 40
20.0
 49
10.0
 49
-2.5
 49
1.25
 49
-2.5
 49
1.25
 49
-2.5
  0
LTYPE
  2
DOT
 70
    64
  3
-   -   -   -   -   -   -   -   
 72
    65
 73
     2
 40
2.5
 49
0.625
 49
-1.875
  0
ENDTAB
  0
TABLE
  2
STYLE
 70
    1
  0
STYLE
  2
STANDARD
 70
    64
 40
0.0
 41
1.0
 42
0.0
 50
0.0
 71
     0
  3
TXT
  4
BIGFONT
  0
ENDTAB
  0
TABLE
  2
LAYER
 70
    5
  0
LAYER
  2
0-2
 70
   64
 62
    7
  6
CONTINUOUS
  0
LAYER
  2
0-3
 70
   64
 62
    7
  6
CONTINUOUS
  0
LAYER
  2
0-8
 70
   64
 62
    7
  6
CONTINUOUS
  0
LAYER
  2
0-d
 70
   64
 62
    7
  6
CONTINUOUS
  0
LAYER
  2
ADD_LINE
 70
   64
 62
    7
  6
CONTINUOUS
  0
ENDTAB
  0
ENDSEC
  0
SECTION
  2
ENTITIES
  0
LINE
  8
0-d
  6
CONTINUOUS
 62
    7
 10
500.00006
 20
5515.4027
 11
3700.0002
 21
5515.4027
  0
LINE
  8
0-d
  6
CONTINUOUS
 62
    7
 10
500.00006
 20
5535.4028
 11
3700.0002
 21
5535.4028
  0
LINE
  8
0-d
  6
CONTINUOUS
 62
    7
 10
499.99981
 20
375.13524
 11
3700
 21
375.13524
  0
LINE
  8
0-d
  6
CONTINUOUS
 62
    7
 10
499.99981
 20
175.13519
 11
499.99981
 21
535.13516
  0
LINE
  8
0-d
  6
CONTINUOUS
 62
    7
 10
499.99981
 20
175.13519
 11
3700
 21
175.13519
  0
LINE
  8
0-d
  6
CONTINUOUS
 62
    7
 10
2100.0001
 20
535.13516
 11
2100.0001
 21
175.13519
  0
LINE
  8
0-d
  6
CONTINUOUS
 62
    7
 10
1300
 20
175.13519
 11
1300
 21
375.13524
  0
LINE
  8
0-d
  6
CONTINUOUS
 62
    7
 10
2100.0001
 20
375.13524
 11
2100.0001
 21
535.13516
  0
LINE
  8
0-d
  6
CONTINUOUS
 62
    7
 10
1700
 20
175.13519
 11
1700
 21
375.13524
  0
LINE
  8
0-d
  6
CONTINUOUS
 62
    7
 10
569.99968
 20
175.13519
 11
569.99968
 21
375.13524
  0
LINE
  8
0-d
  6
CONTINUOUS
 62
    7
 10
1369.9996
 20
175.13519
 11
1369.9996
 21
375.13524
  0
LINE
  8
0-d
  6
CONTINUOUS
 62
    7
 10
1769.9996
 20
175.13519
 11
1769.9996
 21
375.13524
  0
LINE
  8
0-d
  6
CONTINUOUS
 62
    7
 10
2029.9999
 20
375.13524
 11
2029.9999
 21
535.13516
  0
LINE
  8
0-d
  6
CONTINUOUS
 62
    7
 10
3099.9999
 20
375.13524
 11
3099.9999
 21
535.13516
  0
LINE
  8
0-d
  6
CONTINUOUS
 62
    7
 10
3169.9997
 20
375.13524
 11
3169.9997
 21
535.13516
  0
LINE
  8
0-d
  6
CONTINUOUS
 62
    7
 10
499.99981
 20
535.13516
 11
3700
 21
535.13516
  0
LINE
  8
0-d
  6
CONTINUOUS
 62
    7
 10
3700
 20
535.13516
 11
3700
 21
175.13519
  0
LINE
  8
0-8
  6
CONTINUOUS
 62
    7
 10
1350
 20
5080.7281
 11
2850.0001
 21
5080.7281
  0
LINE
  8
0-8
  6
CONTINUOUS
 62
    7
 10
1350
 20
4837.0355
 11
1350
 21
5080.7281
  0
LINE
  8
0-8
  6
CONTINUOUS
 62
    7
 10
1604.5542
 20
4986.4867
 11
1013.275
 21
4986.4867
  0
LINE
  8
0-8
  6
CONTINUOUS
 62
    7
 10
2850.0001
 20
4837.0355
 11
2850.0001
 21
5080.7281
  0
LINE
  8
0-8
  6
CONTINUOUS
 62
    7
 10
1313.8966
 20
3736.4865
 11
1013.2745
 21
3736.4865
  0
LINE
  8
0-2
  6
CONTINUOUS
 62
    3
 10
1567.4996
 20
3904.4862
 11
2100.0001
 21
3904.4862
  0
LINE
  8
0-2
  6
CONTINUOUS
 62
    3
 10
1567.4996
 20
3884.9855
 11
2100.0001
 21
3884.9855
  0
LINE
  8
0-2
  6
CONTINUOUS
 62
    3
 10
1567.4996
 20
3946.4872
 11
1567.4996
 21
3904.4862
  0
LINE
  8
0-2
  6
CONTINUOUS
 62
    3
 10
2632.5005
 20
3904.4862
 11
2100.0001
 21
3904.4862
  0
LINE
  8
0-2
  6
CONTINUOUS
 62
    3
 10
2632.5005
 20
3884.9855
 11
2100.0001
 21
3884.9855
  0
LINE
  8
0-2
  6
CONTINUOUS
 62
    3
 10
1350
 20
4655.9867
 11
1350
 21
4706.9881
  0
LINE
  8
0-2
  6
CONTINUOUS
 62
    3
 10
2850.0001
 20
4655.9867
 11
2850.0001
 21
4706.9881
  0
LINE
  8
0-2
  6
CONTINUOUS
 62
    3
 10
2850.0001
 20
4756.4874
 11
2850.0001
 21
4726.4873
  0
LINE
  8
0-2
  6
CONTINUOUS
 62
    3
 10
1350
 20
4756.4874
 11
1350
 21
4726.4873
  0
LINE
  8
0-2
  6
CONTINUOUS
 62
    3
 10
2100.0001
 20
4986.4867
 11
1701.6289
 21
4756.4874
  0
LINE
  8
0-2
  6
CONTINUOUS
 62
    3
 10
1350
 20
4756.4874
 11
2100.0001
 21
4756.4874
  0
LINE
  8
0-2
  6
CONTINUOUS
 62
    3
 10
1350
 20
3946.4864
 11
2100.0001
 21
3946.4864
  0
LINE
  8
0-2
  6
CONTINUOUS
 62
    3
 10
1350
 20
4726.4873
 11
2100.0001
 21
4726.4873
  0
LINE
  8
0-2
  6
CONTINUOUS
 62
    3
 10
1350
 20
4706.9881
 11
2100.0001
 21
4706.9881
  0
LINE
  8
0-2
  6
CONTINUOUS
 62
    3
 10
1350
 20
4655.9867
 11
2100.0001
 21
4655.9867
  0
LINE
  8
0-2
  6
CONTINUOUS
 62
    3
 10
1350
 20
4636.4875
 11
2100.0001
 21
4636.4875
  0
LINE
  8
0-2
  6
CONTINUOUS
 62
    3
 10
2850.0001
 20
3946.4864
 11
2632.5005
 21
3946.4864
  0
LINE
  8
0-2
  6
CONTINUOUS
 62
    3
 10
2850.0001
 20
4756.4874
 11
2498.3708
 21
4756.4874
  0
LINE
  8
0-2
  6
CONTINUOUS
 62
    3
 10
1465.0002
 20
3736.4865
 11
1465.0002
 21
3806.4867
  0
LINE
  8
0-2
  6
CONTINUOUS
 62
    3
 10
1465.0002
 20
3736.4865
 11
2735.0005
 21
3736.4865
  0
LINE
  8
0-2
  6
CONTINUOUS
 62
    3
 10
2735.0005
 20
3736.4865
 11
2735.0005
 21
3806.4867
  0
LINE
  8
0-2
  6
CONTINUOUS
 62
    3
 10
1465.0002
 20
3806.4867
 11
2735.0005
 21
3806.4867
  0
LINE
  8
0-8
  6
CONTINUOUS
 62
    7
 10
1465.0002
 20
3614.6699
 11
2735.0005
 21
3614.6699
  0
LINE
  8
0-8
  6
CONTINUOUS
 62
    7
 10
1465.0002
 20
3702.608
 11
1465.0002
 21
3614.6699
  0
LINE
  8
0-8
  6
CONTINUOUS
 62
    7
 10
2735.0005
 20
3707.1629
 11
2735.0005
 21
3614.6699
  0
LINE
  8
0-2
  6
CONTINUOUS
 62
    3
 10
2735.0005
 20
3806.4867
 11
2632.5005
 21
3845.6648
  0
LINE
  8
0-2
  6
CONTINUOUS
 62
    3
 10
2632.5005
 20
3884.9855
 11
2632.5005
 21
3806.4867
  0
LINE
  8
0-8
  6
CONTINUOUS
 62
    3
 10
1723.4654
 20
3884.9855
 11
1723.4654
 21
3806.4867
  0
LINE
  8
0-2
  6
CONTINUOUS
 62
    3
 10
1465.0002
 20
3806.4867
 11
1635.6055
 21
3884.9855
  0
LINE
  8
0-8
  6
CONTINUOUS
 62
    7
 10
1013.2745
 20
3736.4865
 11
1013.275
 21
4986.4867
  0
LINE
  8
0-2
  6
CONTINUOUS
 62
    3
 10
1350
 20
4046.9858
 11
1350
 21
3995.9845
  0
LINE
  8
0-2
  6
CONTINUOUS
 62
    3
 10
2850.0001
 20
3946.4852
 11
2850.0001
 21
3976.4853
  0
LINE
  8
0-2
  6
CONTINUOUS
 62
    3
 10
1350
 20
3946.4852
 11
2100.0001
 21
3946.4852
  0
LINE
  8
0-2
  6
CONTINUOUS
 62
    3
 10
1350
 20
3995.9845
 11
2100.0001
 21
3995.9845
  0
LINE
  8
0-2
  6
CONTINUOUS
 62
    3
 10
1350
 20
4046.9858
 11
2100.0001
 21
4046.9858
  0
LINE
  8
0-2
  6
CONTINUOUS
 62
    3
 10
1350
 20
4066.4851
 11
2100.0001
 21
4066.4851
  0
LINE
  8
0-2
  6
CONTINUOUS
 62
    3
 10
1350
 20
4636.4875
 11
1350
 21
4066.4851
  0
LINE
  8
0-2
  6
CONTINUOUS
 62
    3
 10
1350
 20
3946.4852
 11
1350
 21
3976.4853
  0
LINE
  8
0-2
  6
CONTINUOUS
 62
    3
 10
1350
 20
3976.4853
 11
1350
 21
3946.4864
  0
LINE
  8
0-2
  6
CONTINUOUS
 62
    3
 10
1350
 20
3976.4853
 11
2100.0001
 21
3976.4853
  0
LINE
  8
0-2
  6
CONTINUOUS
 62
    3
 10
2850.0001
 20
3976.4853
 11
2850.0001
 21
3946.4864
  0
LINE
  8
0-2
  6
CONTINUOUS
 62
    3
 10
2850.0001
 20
4046.9858
 11
2850.0001
 21
3995.9845
  0
LINE
  8
0-2
  6
CONTINUOUS
 62
    3
 10
2850.0001
 20
4636.4875
 11
2850.0001
 21
4066.4851
  0
LINE
  8
0-2
  6
CONTINUOUS
 62
    3
 10
2850.0001
 20
3976.4853
 11
2632.5005
 21
3976.4853
  0
LINE
  8
0-2
  6
CONTINUOUS
 62
    3
 10
2850.0001
 20
3995.9845
 11
2632.5005
 21
3995.9845
  0
LINE
  8
0-2
  6
CONTINUOUS
 62
    3
 10
2850.0001
 20
4046.9858
 11
2632.5005
 21
4046.9858
  0
LINE
  8
0-2
  6
CONTINUOUS
 62
    3
 10
2850.0001
 20
4066.4851
 11
2632.5005
 21
4066.4851
  0
LINE
  8
0-2
  6
CONTINUOUS
 62
    3
 10
2850.0001
 20
3946.4852
 11
2632.5005
 21
3946.4852
  0
LINE
  8
0-2
  6
CONTINUOUS
 62
    3
 10
2100.0001
 20
4616.4869
 11
2740.8593
 21
4616.4869
  0
LINE
  8
0-2
  6
CONTINUOUS
 62
    3
 10
2100.0001
 20
4986.4867
 11
2740.8593
 21
4616.4869
  0
LINE
  8
0-2
  6
CONTINUOUS
 62
    3
 10
2850.0001
 20
4726.4873
 11
2550.3329
 21
4726.4873
  0
LINE
  8
0-2
  6
CONTINUOUS
 62
    3
 10
2850.0001
 20
4706.9881
 11
2584.1067
 21
4706.9881
  0
LINE
  8
0-2
  6
CONTINUOUS
 62
    3
 10
2850.0001
 20
4655.9867
 11
2672.4435
 21
4655.9867
  0
LINE
  8
0-2
  6
CONTINUOUS
 62
    3
 10
2850.0001
 20
4636.4875
 11
2706.2173
 21
4636.4875
  0
LINE
  8
0-2
  6
CONTINUOUS
 62
    3
 10
2411.7688
 20
4616.4869
 11
2740.8593
 21
4426.4868
  0
LINE
  8
0-2
  6
CONTINUOUS
 62
    3
 10
2632.5005
 20
4295.986
 11
2632.5005
 21
4346.9873
  0
LINE
  8
0-2
  6
CONTINUOUS
 62
    3
 10
2632.5005
 20
4276.4868
 11
2632.5005
 21
3904.4862
  0
LINE
  8
0-2
  6
CONTINUOUS
 62
    3
 10
2632.5005
 20
4295.986
 11
2100.0001
 21
4295.986
  0
LINE
  8
0-2
  6
CONTINUOUS
 62
    3
 10
2632.5005
 20
4346.9873
 11
2100.0001
 21
4346.9873
  0
LINE
  8
0-2
  6
CONTINUOUS
 62
    3
 10
2632.5005
 20
4366.4866
 11
2100.0001
 21
4366.4866
  0
LINE
  8
0-2
  6
CONTINUOUS
 62
    3
 10
2632.5005
 20
4276.4868
 11
2100.0001
 21
4276.4868
  0
LINE
  8
0-2
  6
CONTINUOUS
 62
    3
 10
2411.7688
 20
4616.4869
 11
2411.7688
 21
4646.487
  0
LINE
  8
0-2
  6
CONTINUOUS
 62
    3
 10
1567.4996
 20
3884.9855
 11
1567.4996
 21
3853.6487
  0
LINE
  8
0-3
  6
CONTINUOUS
 62
    3
 10
2411.7688
 20
4806.4871
 11
2100.0001
 21
4806.4871
  0
LINE
  8
0-3
  6
CONTINUOUS
 62
    3
 10
2411.7688
 20
4616.4869
 11
2411.7688
 21
4806.4871
  0
LINE
  8
0-3
  6
CONTINUOUS
 62
    3
 10
2632.5005
 20
4489.0475
 11
2100.0001
 21
4489.0475
  0
LINE
  8
0-2
  6
CONTINUOUS
 62
    3
 10
2632.5005
 20
4426.4868
 11
2740.8593
 21
4426.4868
  0
LINE
  8
0-3
  6
CONTINUOUS
 62
    4
 10
2411.7688
 20
4798.9872
 11
2100.0001
 21
4798.9872
  0
LINE
  8
0-3
  6
CONTINUOUS
 62
    4
 10
2411.7688
 20
4791.4873
 11
2100.0001
 21
4791.4873
  0
LINE
  8
0-3
  6
CONTINUOUS
 62
    4
 10
2411.7688
 20
4783.9869
 11
2100.0001
 21
4783.9869
  0
LINE
  8
0-3
  6
CONTINUOUS
 62
    4
 10
2411.7688
 20
4776.487
 11
2100.0001
 21
4776.487
  0
LINE
  8
0-3
  6
CONTINUOUS
 62
    4
 10
2411.7688
 20
4768.9871
 11
2100.0001
 21
4768.9871
  0
LINE
  8
0-3
  6
CONTINUOUS
 62
    4
 10
2411.7688
 20
4761.4872
 11
2100.0001
 21
4761.4872
  0
LINE
  8
0-3
  6
CONTINUOUS
 62
    4
 10
2411.7688
 20
4753.9873
 11
2100.0001
 21
4753.9873
  0
LINE
  8
0-3
  6
CONTINUOUS
 62
    4
 10
2411.7688
 20
4746.4869
 11
2100.0001
 21
4746.4869
  0
LINE
  8
0-3
  6
CONTINUOUS
 62
    4
 10
2411.7688
 20
4738.987
 11
2100.0001
 21
4738.987
  0
LINE
  8
0-3
  6
CONTINUOUS
 62
    4
 10
2411.7688
 20
4731.4871
 11
2100.0001
 21
4731.4871
  0
LINE
  8
0-3
  6
CONTINUOUS
 62
    4
 10
2411.7688
 20
4723.9872
 11
2100.0001
 21
4723.9872
  0
LINE
  8
0-3
  6
CONTINUOUS
 62
    4
 10
2411.7688
 20
4716.4873
 11
2100.0001
 21
4716.4873
  0
LINE
  8
0-3
  6
CONTINUOUS
 62
    4
 10
2411.7688
 20
4708.9869
 11
2100.0001
 21
4708.9869
  0
LINE
  8
0-3
  6
CONTINUOUS
 62
    4
 10
2411.7688
 20
4701.487
 11
2100.0001
 21
4701.487
  0
LINE
  8
0-3
  6
CONTINUOUS
 62
    4
 10
2411.7688
 20
4693.9871
 11
2100.0001
 21
4693.9871
  0
LINE
  8
0-3
  6
CONTINUOUS
 62
    4
 10
2411.7688
 20
4686.4872
 11
2100.0001
 21
4686.4872
  0
LINE
  8
0-3
  6
CONTINUOUS
 62
    4
 10
2411.7688
 20
4678.9873
 11
2100.0001
 21
4678.9873
  0
LINE
  8
0-3
  6
CONTINUOUS
 62
    4
 10
2411.7688
 20
4671.4869
 11
2100.0001
 21
4671.4869
  0
LINE
  8
0-3
  6
CONTINUOUS
 62
    4
 10
2411.7688
 20
4663.987
 11
2100.0001
 21
4663.987
  0
LINE
  8
0-3
  6
CONTINUOUS
 62
    4
 10
2411.7688
 20
4656.4871
 11
2100.0001
 21
4656.4871
  0
LINE
  8
0-3
  6
CONTINUOUS
 62
    4
 10
2411.7688
 20
4648.9872
 11
2100.0001
 21
4648.9872
  0
LINE
  8
0-3
  6
CONTINUOUS
 62
    4
 10
2411.7688
 20
4641.4873
 11
2100.0001
 21
4641.4873
  0
LINE
  8
0-3
  6
CONTINUOUS
 62
    4
 10
2411.7688
 20
4633.9869
 11
2100.0001
 21
4633.9869
  0
LINE
  8
0-3
  6
CONTINUOUS
 62
    4
 10
2411.7688
 20
4626.487
 11
2100.0001
 21
4626.487
  0
LINE
  8
0-3
  6
CONTINUOUS
 62
    4
 10
2404.2689
 20
4616.4869
 11
2404.2689
 21
4806.4871
  0
LINE
  8
0-3
  6
CONTINUOUS
 62
    4
 10
2396.7688
 20
4616.4869
 11
2396.7688
 21
4806.4871
  0
LINE
  8
0-3
  6
CONTINUOUS
 62
    4
 10
2389.2689
 20
4616.4869
 11
2389.2689
 21
4806.4871
  0
LINE
  8
0-3
  6
CONTINUOUS
 62
    4
 10
2381.7687
 20
4616.4869
 11
2381.7687
 21
4806.4871
  0
LINE
  8
0-3
  6
CONTINUOUS
 62
    4
 10
2374.2688
 20
4616.4869
 11
2374.2688
 21
4806.4871
  0
LINE
  8
0-3
  6
CONTINUOUS
 62
    4
 10
2366.7689
 20
4616.4869
 11
2366.7689
 21
4806.4871
  0
LINE
  8
0-3
  6
CONTINUOUS
 62
    4
 10
2359.2688
 20
4616.4869
 11
2359.2688
 21
4806.4871
  0
LINE
  8
0-3
  6
CONTINUOUS
 62
    4
 10
2351.7689
 20
4616.4869
 11
2351.7689
 21
4806.4871
  0
LINE
  8
0-3
  6
CONTINUOUS
 62
    4
 10
2344.2687
 20
4616.4869
 11
2344.2687
 21
4806.4871
  0
LINE
  8
0-3
  6
CONTINUOUS
 62
    4
 10
2336.7688
 20
4616.4869
 11
2336.7688
 21
4806.4871
  0
LINE
  8
0-3
  6
CONTINUOUS
 62
    4
 10
2329.2687
 20
4616.4869
 11
2329.2687
 21
4806.4871
  0
LINE
  8
0-3
  6
CONTINUOUS
 62
    4
 10
2321.7688
 20
4616.4869
 11
2321.7688
 21
4806.4871
  0
LINE
  8
0-3
  6
CONTINUOUS
 62
    4
 10
2314.2689
 20
4616.4869
 11
2314.2689
 21
4806.4871
  0
LINE
  8
0-3
  6
CONTINUOUS
 62
    4
 10
2306.7687
 20
4616.4869
 11
2306.7687
 21
4806.4871
  0
LINE
  8
0-3
  6
CONTINUOUS
 62
    4
 10
2299.2688
 20
4616.4869
 11
2299.2688
 21
4806.4871
  0
LINE
  8
0-3
  6
CONTINUOUS
 62
    4
 10
2291.7687
 20
4616.4869
 11
2291.7687
 21
4806.4871
  0
LINE
  8
0-3
  6
CONTINUOUS
 62
    4
 10
2284.2687
 20
4616.4869
 11
2284.2687
 21
4806.4871
  0
LINE
  8
0-3
  6
CONTINUOUS
 62
    4
 10
2276.7686
 20
4616.4869
 11
2276.7686
 21
4806.4871
  0
LINE
  8
0-3
  6
CONTINUOUS
 62
    4
 10
2269.2687
 20
4616.4869
 11
2269.2687
 21
4806.4871
  0
LINE
  8
0-3
  6
CONTINUOUS
 62
    4
 10
2261.7688
 20
4616.4869
 11
2261.7688
 21
4806.4871
  0
LINE
  8
0-3
  6
CONTINUOUS
 62
    4
 10
2254.2686
 20
4616.4869
 11
2254.2686
 21
4806.4871
  0
LINE
  8
0-3
  6
CONTINUOUS
 62
    4
 10
2246.7687
 20
4616.4869
 11
2246.7687
 21
4806.4871
  0
LINE
  8
0-3
  6
CONTINUOUS
 62
    4
 10
2239.2686
 20
4616.4869
 11
2239.2686
 21
4806.4871
  0
LINE
  8
0-3
  6
CONTINUOUS
 62
    4
 10
2231.7687
 20
4616.4869
 11
2231.7687
 21
4806.4871
  0
LINE
  8
0-3
  6
CONTINUOUS
 62
    4
 10
2224.2685
 20
4616.4869
 11
2224.2685
 21
4806.4871
  0
LINE
  8
0-3
  6
CONTINUOUS
 62
    4
 10
2216.7686
 20
4616.4869
 11
2216.7686
 21
4806.4871
  0
LINE
  8
0-3
  6
CONTINUOUS
 62
    4
 10
2209.2687
 20
4616.4869
 11
2209.2687
 21
4806.4871
  0
LINE
  8
0-3
  6
CONTINUOUS
 62
    4
 10
2201.7686
 20
4616.4869
 11
2201.7686
 21
4806.4871
  0
LINE
  8
0-3
  6
CONTINUOUS
 62
    4
 10
2194.2687
 20
4616.4869
 11
2194.2687
 21
4806.4871
  0
LINE
  8
0-3
  6
CONTINUOUS
 62
    4
 10
2186.7685
 20
4616.4869
 11
2186.7685
 21
4806.4871
  0
LINE
  8
0-3
  6
CONTINUOUS
 62
    4
 10
2179.2686
 20
4616.4869
 11
2179.2686
 21
4806.4871
  0
LINE
  8
0-3
  6
CONTINUOUS
 62
    4
 10
2171.7685
 20
4616.4869
 11
2171.7685
 21
4806.4871
  0
LINE
  8
0-3
  6
CONTINUOUS
 62
    4
 10
2164.2686
 20
4616.4869
 11
2164.2686
 21
4806.4871
  0
LINE
  8
0-3
  6
CONTINUOUS
 62
    4
 10
2156.7687
 20
4616.4869
 11
2156.7687
 21
4806.4871
  0
LINE
  8
0-3
  6
CONTINUOUS
 62
    4
 10
2149.2685
 20
4616.4869
 11
2149.2685
 21
4806.4871
  0
LINE
  8
0-3
  6
CONTINUOUS
 62
    4
 10
2141.7686
 20
4616.4869
 11
2141.7686
 21
4806.4871
  0
LINE
  8
0-3
  6
CONTINUOUS
 62
    4
 10
2134.2685
 20
4616.4869
 11
2134.2685
 21
4806.4871
  0
LINE
  8
0-3
  6
CONTINUOUS
 62
    4
 10
2126.7686
 20
4616.4869
 11
2126.7686
 21
4806.4871
  0
LINE
  8
0-3
  6
CONTINUOUS
 62
    4
 10
2119.2684
 20
4616.4869
 11
2119.2684
 21
4806.4871
  0
LINE
  8
0-3
  6
CONTINUOUS
 62
    4
 10
2111.7685
 20
4616.4869
 11
2111.7685
 21
4806.4871
  0
LINE
  8
0-3
  6
CONTINUOUS
 62
    4
 10
2104.2686
 20
4616.4869
 11
2104.2686
 21
4806.4871
  0
LINE
  8
0-3
  6
CONTINUOUS
 62
    4
 10
2632.5005
 20
4481.5476
 11
2100.0001
 21
4481.5476
  0
LINE
  8
0-3
  6
CONTINUOUS
 62
    4
 10
2632.5005
 20
4474.0477
 11
2100.0001
 21
4474.0477
  0
LINE
  8
0-3
  6
CONTINUOUS
 62
    4
 10
2632.5005
 20
4466.5473
 11
2100.0001
 21
4466.5473
  0
LINE
  8
0-3
  6
CONTINUOUS
 62
    4
 10
2632.5005
 20
4459.0474
 11
2100.0001
 21
4459.0474
  0
LINE
  8
0-3
  6
CONTINUOUS
 62
    4
 10
2632.5005
 20
4451.5475
 11
2100.0001
 21
4451.5475
  0
LINE
  8
0-3
  6
CONTINUOUS
 62
    4
 10
2632.5005
 20
4444.0476
 11
2100.0001
 21
4444.0476
  0
LINE
  8
0-3
  6
CONTINUOUS
 62
    4
 10
2632.5005
 20
4436.5477
 11
2100.0001
 21
4436.5477
  0
LINE
  8
0-3
  6
CONTINUOUS
 62
    4
 10
2632.5005
 20
4429.0473
 11
2100.0001
 21
4429.0473
  0
LINE
  8
0-3
  6
CONTINUOUS
 62
    4
 10
2632.5005
 20
4421.5474
 11
2100.0001
 21
4421.5474
  0
LINE
  8
0-3
  6
CONTINUOUS
 62
    4
 10
2632.5005
 20
4414.0475
 11
2100.0001
 21
4414.0475
  0
LINE
  8
0-3
  6
CONTINUOUS
 62
    4
 10
2632.5005
 20
4406.5476
 11
2100.0001
 21
4406.5476
  0
LINE
  8
0-3
  6
CONTINUOUS
 62
    4
 10
2632.5005
 20
4399.0477
 11
2100.0001
 21
4399.0477
  0
LINE
  8
0-3
  6
CONTINUOUS
 62
    4
 10
2632.5005
 20
4391.5473
 11
2100.0001
 21
4391.5473
  0
LINE
  8
0-3
  6
CONTINUOUS
 62
    4
 10
2632.5005
 20
4384.0474
 11
2100.0001
 21
4384.0474
  0
LINE
  8
0-3
  6
CONTINUOUS
 62
    4
 10
2632.5005
 20
4376.5475
 11
2100.0001
 21
4376.5475
  0
LINE
  8
0-3
  6
CONTINUOUS
 62
    3
 10
2632.5005
 20
4366.4876
 11
2632.5005
 21
4489.0475
  0
LINE
  8
0-3
  6
CONTINUOUS
 62
    4
 10
2625.0006
 20
4366.4876
 11
2625.0006
 21
4489.0475
  0
LINE
  8
0-3
  6
CONTINUOUS
 62
    4
 10
2617.5004
 20
4366.4876
 11
2617.5004
 21
4489.0475
  0
LINE
  8
0-3
  6
CONTINUOUS
 62
    4
 10
2610.0005
 20
4366.4876
 11
2610.0005
 21
4489.0475
  0
LINE
  8
0-3
  6
CONTINUOUS
 62
    4
 10
2602.5004
 20
4366.4876
 11
2602.5004
 21
4489.0475
  0
LINE
  8
0-3
  6
CONTINUOUS
 62
    4
 10
2595.0005
 20
4366.4876
 11
2595.0005
 21
4489.0475
  0
LINE
  8
0-3
  6
CONTINUOUS
 62
    4
 10
2587.5003
 20
4366.4876
 11
2587.5003
 21
4489.0475
  0
LINE
  8
0-3
  6
CONTINUOUS
 62
    4
 10
2580.0004
 20
4366.4876
 11
2580.0004
 21
4489.0475
  0
LINE
  8
0-3
  6
CONTINUOUS
 62
    4
 10
2572.5003
 20
4366.4876
 11
2572.5003
 21
4489.0475
  0
LINE
  8
0-3
  6
CONTINUOUS
 62
    4
 10
2565.0004
 20
4366.4876
 11
2565.0004
 21
4489.0475
  0
LINE
  8
0-3
  6
CONTINUOUS
 62
    4
 10
2557.5002
 20
4366.4876
 11
2557.5002
 21
4489.0475
  0
LINE
  8
0-3
  6
CONTINUOUS
 62
    4
 10
2550.0003
 20
4366.4876
 11
2550.0003
 21
4489.0475
  0
LINE
  8
0-3
  6
CONTINUOUS
 62
    4
 10
2542.5002
 20
4366.4876
 11
2542.5002
 21
4489.0475
  0
LINE
  8
0-3
  6
CONTINUOUS
 62
    4
 10
2535.0003
 20
4366.4876
 11
2535.0003
 21
4489.0475
  0
LINE
  8
0-3
  6
CONTINUOUS
 62
    4
 10
2527.5001
 20
4366.4876
 11
2527.5001
 21
4489.0475
  0
LINE
  8
0-3
  6
CONTINUOUS
 62
    4
 10
2520.0002
 20
4366.4876
 11
2520.0002
 21
4489.0475
  0
LINE
  8
0-3
  6
CONTINUOUS
 62
    4
 10
2512.5001
 20
4366.4876
 11
2512.5001
 21
4489.0475
  0
LINE
  8
0-3
  6
CONTINUOUS
 62
    4
 10
2505.0002
 20
4366.4876
 11
2505.0002
 21
4489.0475
  0
LINE
  8
0-3
  6
CONTINUOUS
 62
    4
 10
2497.5
 20
4366.4876
 11
2497.5
 21
4489.0475
  0
LINE
  8
0-3
  6
CONTINUOUS
 62
    4
 10
2490.0001
 20
4366.4876
 11
2490.0001
 21
4489.0475
  0
LINE
  8
0-3
  6
CONTINUOUS
 62
    4
 10
2482.5
 20
4366.4876
 11
2482.5
 21
4489.0475
  0
LINE
  8
0-3
  6
CONTINUOUS
 62
    4
 10
2475.0001
 20
4366.4876
 11
2475.0001
 21
4489.0475
  0
LINE
  8
0-3
  6
CONTINUOUS
 62
    4
 10
2467.4999
 20
4366.4876
 11
2467.4999
 21
4489.0475
  0
LINE
  8
0-3
  6
CONTINUOUS
 62
    4
 10
2460
 20
4366.4876
 11
2460
 21
4489.0475
  0
LINE
  8
0-3
  6
CONTINUOUS
 62
    4
 10
2452.4999
 20
4366.4876
 11
2452.4999
 21
4489.0475
  0
LINE
  8
0-3
  6
CONTINUOUS
 62
    4
 10
2445
 20
4366.4876
 11
2445
 21
4489.0475
  0
LINE
  8
0-3
  6
CONTINUOUS
 62
    4
 10
2437.4998
 20
4366.4876
 11
2437.4998
 21
4489.0475
  0
LINE
  8
0-3
  6
CONTINUOUS
 62
    4
 10
2429.9999
 20
4366.4876
 11
2429.9999
 21
4489.0475
  0
LINE
  8
0-3
  6
CONTINUOUS
 62
    4
 10
2422.4998
 20
4366.4876
 11
2422.4998
 21
4489.0475
  0
LINE
  8
0-3
  6
CONTINUOUS
 62
    4
 10
2414.9999
 20
4366.4876
 11
2414.9999
 21
4489.0475
  0
LINE
  8
0-3
  6
CONTINUOUS
 62
    4
 10
2407.4997
 20
4366.4876
 11
2407.4997
 21
4489.0475
  0
LINE
  8
0-3
  6
CONTINUOUS
 62
    4
 10
2399.9998
 20
4366.4876
 11
2399.9998
 21
4489.0475
  0
LINE
  8
0-3
  6
CONTINUOUS
 62
    4
 10
2392.4997
 20
4366.4876
 11
2392.4997
 21
4489.0475
  0
LINE
  8
0-3
  6
CONTINUOUS
 62
    4
 10
2384.9998
 20
4366.4876
 11
2384.9998
 21
4489.0475
  0
LINE
  8
0-3
  6
CONTINUOUS
 62
    4
 10
2377.4996
 20
4366.4876
 11
2377.4996
 21
4489.0475
  0
LINE
  8
0-3
  6
CONTINUOUS
 62
    4
 10
2369.9997
 20
4366.4876
 11
2369.9997
 21
4489.0475
  0
LINE
  8
0-3
  6
CONTINUOUS
 62
    4
 10
2362.4996
 20
4366.4876
 11
2362.4996
 21
4489.0475
  0
LINE
  8
0-3
  6
CONTINUOUS
 62
    4
 10
2354.9997
 20
4366.4876
 11
2354.9997
 21
4489.0475
  0
LINE
  8
0-3
  6
CONTINUOUS
 62
    4
 10
2347.4995
 20
4366.4876
 11
2347.4995
 21
4489.0475
  0
LINE
  8
0-3
  6
CONTINUOUS
 62
    4
 10
2339.9996
 20
4366.4876
 11
2339.9996
 21
4489.0475
  0
LINE
  8
0-3
  6
CONTINUOUS
 62
    4
 10
2332.4995
 20
4366.4876
 11
2332.4995
 21
4489.0475
  0
LINE
  8
0-3
  6
CONTINUOUS
 62
    4
 10
2324.9996
 20
4366.4876
 11
2324.9996
 21
4489.0475
  0
LINE
  8
0-3
  6
CONTINUOUS
 62
    4
 10
2317.4994
 20
4366.4876
 11
2317.4994
 21
4489.0475
  0
LINE
  8
0-3
  6
CONTINUOUS
 62
    4
 10
2309.9995
 20
4366.4876
 11
2309.9995
 21
4489.0475
  0
LINE
  8
0-3
  6
CONTINUOUS
 62
    4
 10
2302.4994
 20
4366.4876
 11
2302.4994
 21
4489.0475
  0
LINE
  8
0-3
  6
CONTINUOUS
 62
    4
 10
2294.9995
 20
4366.4876
 11
2294.9995
 21
4489.0475
  0
LINE
  8
0-3
  6
CONTINUOUS
 62
    4
 10
2287.4993
 20
4366.4876
 11
2287.4993
 21
4489.0475
  0
LINE
  8
0-3
  6
CONTINUOUS
 62
    4
 10
2279.9994
 20
4366.4876
 11
2279.9994
 21
4489.0475
  0
LINE
  8
0-3
  6
CONTINUOUS
 62
    4
 10
2272.4993
 20
4366.4876
 11
2272.4993
 21
4489.0475
  0
LINE
  8
0-3
  6
CONTINUOUS
 62
    4
 10
2264.9994
 20
4366.4876
 11
2264.9994
 21
4489.0475
  0
LINE
  8
0-3
  6
CONTINUOUS
 62
    4
 10
2257.4992
 20
4366.4876
 11
2257.4992
 21
4489.0475
  0
LINE
  8
0-3
  6
CONTINUOUS
 62
    4
 10
2249.9993
 20
4366.4876
 11
2249.9993
 21
4489.0475
  0
LINE
  8
0-3
  6
CONTINUOUS
 62
    4
 10
2242.4992
 20
4366.4876
 11
2242.4992
 21
4489.0475
  0
LINE
  8
0-3
  6
CONTINUOUS
 62
    4
 10
2234.9993
 20
4366.4876
 11
2234.9993
 21
4489.0475
  0
LINE
  8
0-3
  6
CONTINUOUS
 62
    4
 10
2227.4991
 20
4366.4876
 11
2227.4991
 21
4489.0475
  0
LINE
  8
0-3
  6
CONTINUOUS
 62
    4
 10
2219.9992
 20
4366.4876
 11
2219.9992
 21
4489.0475
  0
LINE
  8
0-3
  6
CONTINUOUS
 62
    4
 10
2212.4991
 20
4366.4876
 11
2212.4991
 21
4489.0475
  0
LINE
  8
0-3
  6
CONTINUOUS
 62
    4
 10
2204.9992
 20
4366.4876
 11
2204.9992
 21
4489.0475
  0
LINE
  8
0-3
  6
CONTINUOUS
 62
    4
 10
2197.499
 20
4366.4876
 11
2197.499
 21
4489.0475
  0
LINE
  8
0-3
  6
CONTINUOUS
 62
    4
 10
2189.9991
 20
4366.4876
 11
2189.9991
 21
4489.0475
  0
LINE
  8
0-3
  6
CONTINUOUS
 62
    4
 10
2182.499
 20
4366.4876
 11
2182.499
 21
4489.0475
  0
LINE
  8
0-3
  6
CONTINUOUS
 62
    4
 10
2174.9991
 20
4366.4876
 11
2174.9991
 21
4489.0475
  0
LINE
  8
0-3
  6
CONTINUOUS
 62
    4
 10
2167.4989
 20
4366.4876
 11
2167.4989
 21
4489.0475
  0
LINE
  8
0-3
  6
CONTINUOUS
 62
    4
 10
2159.999
 20
4366.4876
 11
2159.999
 21
4489.0475
  0
LINE
  8
0-3
  6
CONTINUOUS
 62
    4
 10
2152.4989
 20
4366.4876
 11
2152.4989
 21
4489.0475
  0
LINE
  8
0-3
  6
CONTINUOUS
 62
    4
 10
2144.999
 20
4366.4876
 11
2144.999
 21
4489.0475
  0
LINE
  8
0-3
  6
CONTINUOUS
 62
    4
 10
2137.4988
 20
4366.4876
 11
2137.4988
 21
4489.0475
  0
LINE
  8
0-3
  6
CONTINUOUS
 62
    4
 10
2129.9989
 20
4366.4876
 11
2129.9989
 21
4489.0475
  0
LINE
  8
0-3
  6
CONTINUOUS
 62
    4
 10
2122.4988
 20
4366.4876
 11
2122.4988
 21
4489.0475
  0
LINE
  8
0-3
  6
CONTINUOUS
 62
    4
 10
2114.9989
 20
4366.4876
 11
2114.9989
 21
4489.0475
  0
LINE
  8
0-3
  6
CONTINUOUS
 62
    4
 10
2107.4987
 20
4366.4876
 11
2107.4987
 21
4489.0475
  0
LINE
  8
0-d
  6
CENTER2
 62
    7
 10
2100.0001
 20
3736.4865
 11
2100.0001
 21
4986.4867
  0
LINE
  8
0-2
  6
CONTINUOUS
 62
    3
 10
1567.4996
 20
3904.485
 11
1565.8862
 21
3904.3369
  0
LINE
  8
0-2
  6
CONTINUOUS
 62
    3
 10
1565.8862
 20
3904.3369
 11
1564.3217
 21
3903.897
  0
LINE
  8
0-2
  6
CONTINUOUS
 62
    3
 10
1564.3217
 20
3903.897
 11
1562.8538
 21
3903.1788
  0
LINE
  8
0-2
  6
CONTINUOUS
 62
    3
 10
1562.8538
 20
3903.1788
 11
1561.5271
 21
3902.204
  0
LINE
  8
0-2
  6
CONTINUOUS
 62
    3
 10
1561.5271
 20
3902.204
 11
1560.3818
 21
3901.0022
  0
LINE
  8
0-2
  6
CONTINUOUS
 62
    3
 10
1560.3818
 20
3901.0022
 11
1559.4528
 21
3899.6101
  0
LINE
  8
0-2
  6
CONTINUOUS
 62
    3
 10
1559.4528
 20
3899.6101
 11
1558.7683
 21
3898.0698
  0
LINE
  8
0-2
  6
CONTINUOUS
 62
    3
 10
1558.7683
 20
3898.0698
 11
1558.3491
 21
3896.4282
  0
LINE
  8
0-2
  6
CONTINUOUS
 62
    3
 10
1558.3491
 20
3896.4282
 11
1558.208
 21
3894.7351
  0
LINE
  8
0-2
  6
CONTINUOUS
 62
    3
 10
1558.208
 20
3894.7351
 11
1558.3491
 21
3893.0421
  0
LINE
  8
0-2
  6
CONTINUOUS
 62
    3
 10
1558.3491
 20
3893.0421
 11
1558.7683
 21
3891.4005
  0
LINE
  8
0-2
  6
CONTINUOUS
 62
    3
 10
1558.7683
 20
3891.4005
 11
1559.4528
 21
3889.8602
  0
LINE
  8
0-2
  6
CONTINUOUS
 62
    3
 10
1559.4528
 20
3889.8602
 11
1560.3818
 21
3888.468
  0
LINE
  8
0-2
  6
CONTINUOUS
 62
    3
 10
1560.3818
 20
3888.468
 11
1561.5271
 21
3887.2663
  0
LINE
  8
0-2
  6
CONTINUOUS
 62
    3
 10
1561.5271
 20
3887.2663
 11
1562.8538
 21
3886.2915
  0
LINE
  8
0-2
  6
CONTINUOUS
 62
    3
 10
1562.8538
 20
3886.2915
 11
1564.3217
 21
3885.5732
  0
LINE
  8
0-2
  6
CONTINUOUS
 62
    3
 10
1564.3217
 20
3885.5732
 11
1565.8862
 21
3885.1333
  0
LINE
  8
0-2
  6
CONTINUOUS
 62
    3
 10
1565.8862
 20
3885.1333
 11
1567.4996
 21
3884.9852
  0
LINE
  8
0-2
  6
CONTINUOUS
 62
    3
 10
2632.5005
 20
3884.9852
 11
2634.114
 21
3885.1333
  0
LINE
  8
0-2
  6
CONTINUOUS
 62
    3
 10
2634.114
 20
3885.1333
 11
2635.6784
 21
3885.5732
  0
LINE
  8
0-2
  6
CONTINUOUS
 62
    3
 10
2635.6784
 20
3885.5732
 11
2637.1463
 21
3886.2915
  0
LINE
  8
0-2
  6
CONTINUOUS
 62
    3
 10
2637.1463
 20
3886.2915
 11
2638.473
 21
3887.2663
  0
LINE
  8
0-2
  6
CONTINUOUS
 62
    3
 10
2638.473
 20
3887.2663
 11
2639.6183
 21
3888.468
  0
LINE
  8
0-2
  6
CONTINUOUS
 62
    3
 10
2639.6183
 20
3888.468
 11
2640.5473
 21
3889.8602
  0
LINE
  8
0-2
  6
CONTINUOUS
 62
    3
 10
2640.5473
 20
3889.8602
 11
2641.2318
 21
3891.4005
  0
LINE
  8
0-2
  6
CONTINUOUS
 62
    3
 10
2641.2318
 20
3891.4005
 11
2641.651
 21
3893.0421
  0
LINE
  8
0-2
  6
CONTINUOUS
 62
    3
 10
2641.651
 20
3893.0421
 11
2641.7921
 21
3894.7351
  0
LINE
  8
0-2
  6
CONTINUOUS
 62
    3
 10
2641.7921
 20
3894.7351
 11
2641.651
 21
3896.4282
  0
LINE
  8
0-2
  6
CONTINUOUS
 62
    3
 10
2641.651
 20
3896.4282
 11
2641.2318
 21
3898.0698
  0
LINE
  8
0-2
  6
CONTINUOUS
 62
    3
 10
2641.2318
 20
3898.0698
 11
2640.5473
 21
3899.6101
  0
LINE
  8
0-2
  6
CONTINUOUS
 62
    3
 10
2640.5473
 20
3899.6101
 11
2639.6183
 21
3901.0022
  0
LINE
  8
0-2
  6
CONTINUOUS
 62
    3
 10
2639.6183
 20
3901.0022
 11
2638.473
 21
3902.204
  0
LINE
  8
0-2
  6
CONTINUOUS
 62
    3
 10
2638.473
 20
3902.204
 11
2637.1463
 21
3903.1788
  0
LINE
  8
0-2
  6
CONTINUOUS
 62
    3
 10
2637.1463
 20
3903.1788
 11
2635.6784
 21
3903.897
  0
LINE
  8
0-2
  6
CONTINUOUS
 62
    3
 10
2635.6784
 20
3903.897
 11
2634.114
 21
3904.3369
  0
LINE
  8
0-2
  6
CONTINUOUS
 62
    3
 10
2634.114
 20
3904.3369
 11
2632.5005
 21
3904.485
  0
LINE
  8
0-2
  6
CONTINUOUS
 62
    3
 10
1350
 20
4655.9875
 11
1348.3865
 21
4655.8394
  0
LINE
  8
0-2
  6
CONTINUOUS
 62
    3
 10
1348.3865
 20
4655.8394
 11
1346.8221
 21
4655.3995
  0
LINE
  8
0-2
  6
CONTINUOUS
 62
    3
 10
1346.8221
 20
4655.3995
 11
1345.3542
 21
4654.6813
  0
LINE
  8
0-2
  6
CONTINUOUS
 62
    3
 10
1345.3542
 20
4654.6813
 11
1344.0275
 21
4653.7065
  0
LINE
  8
0-2
  6
CONTINUOUS
 62
    3
 10
1344.0275
 20
4653.7065
 11
1342.8822
 21
4652.5047
  0
LINE
  8
0-2
  6
CONTINUOUS
 62
    3
 10
1342.8822
 20
4652.5047
 11
1341.9532
 21
4651.1126
  0
LINE
  8
0-2
  6
CONTINUOUS
 62
    3
 10
1341.9532
 20
4651.1126
 11
1341.2687
 21
4649.5723
  0
LINE
  8
0-2
  6
CONTINUOUS
 62
    3
 10
1341.2687
 20
4649.5723
 11
1340.8495
 21
4647.9307
  0
LINE
  8
0-2
  6
CONTINUOUS
 62
    3
 10
1340.8495
 20
4647.9307
 11
1340.7084
 21
4646.2376
  0
LINE
  8
0-2
  6
CONTINUOUS
 62
    3
 10
1340.7084
 20
4646.2376
 11
1340.8495
 21
4644.5446
  0
LINE
  8
0-2
  6
CONTINUOUS
 62
    3
 10
1340.8495
 20
4644.5446
 11
1341.2687
 21
4642.903
  0
LINE
  8
0-2
  6
CONTINUOUS
 62
    3
 10
1341.2687
 20
4642.903
 11
1341.9532
 21
4641.3627
  0
LINE
  8
0-2
  6
CONTINUOUS
 62
    3
 10
1341.9532
 20
4641.3627
 11
1342.8822
 21
4639.9705
  0
LINE
  8
0-2
  6
CONTINUOUS
 62
    3
 10
1342.8822
 20
4639.9705
 11
1344.0275
 21
4638.7688
  0
LINE
  8
0-2
  6
CONTINUOUS
 62
    3
 10
1344.0275
 20
4638.7688
 11
1345.3542
 21
4637.794
  0
LINE
  8
0-2
  6
CONTINUOUS
 62
    3
 10
1345.3542
 20
4637.794
 11
1346.8221
 21
4637.0757
  0
LINE
  8
0-2
  6
CONTINUOUS
 62
    3
 10
1346.8221
 20
4637.0757
 11
1348.3865
 21
4636.6358
  0
LINE
  8
0-2
  6
CONTINUOUS
 62
    3
 10
1348.3865
 20
4636.6358
 11
1350
 21
4636.4877
  0
LINE
  8
0-2
  6
CONTINUOUS
 62
    3
 10
1350
 20
4726.4881
 11
1348.3865
 21
4726.34
  0
LINE
  8
0-2
  6
CONTINUOUS
 62
    3
 10
1348.3865
 20
4726.34
 11
1346.8221
 21
4725.9001
  0
LINE
  8
0-2
  6
CONTINUOUS
 62
    3
 10
1346.8221
 20
4725.9001
 11
1345.3542
 21
4725.1818
  0
LINE
  8
0-2
  6
CONTINUOUS
 62
    3
 10
1345.3542
 20
4725.1818
 11
1344.0275
 21
4724.207
  0
LINE
  8
0-2
  6
CONTINUOUS
 62
    3
 10
1344.0275
 20
4724.207
 11
1342.8822
 21
4723.0053
  0
LINE
  8
0-2
  6
CONTINUOUS
 62
    3
 10
1342.8822
 20
4723.0053
 11
1341.9532
 21
4721.6131
  0
LINE
  8
0-2
  6
CONTINUOUS
 62
    3
 10
1341.9532
 20
4721.6131
 11
1341.2687
 21
4720.0728
  0
LINE
  8
0-2
  6
CONTINUOUS
 62
    3
 10
1341.2687
 20
4720.0728
 11
1340.8495
 21
4718.4312
  0
LINE
  8
0-2
  6
CONTINUOUS
 62
    3
 10
1340.8495
 20
4718.4312
 11
1340.7084
 21
4716.7382
  0
LINE
  8
0-2
  6
CONTINUOUS
 62
    3
 10
1340.7084
 20
4716.7382
 11
1340.8495
 21
4715.0451
  0
LINE
  8
0-2
  6
CONTINUOUS
 62
    3
 10
1340.8495
 20
4715.0451
 11
1341.2687
 21
4713.4035
  0
LINE
  8
0-2
  6
CONTINUOUS
 62
    3
 10
1341.2687
 20
4713.4035
 11
1341.9532
 21
4711.8632
  0
LINE
  8
0-2
  6
CONTINUOUS
 62
    3
 10
1341.9532
 20
4711.8632
 11
1342.8822
 21
4710.4711
  0
LINE
  8
0-2
  6
CONTINUOUS
 62
    3
 10
1342.8822
 20
4710.4711
 11
1344.0275
 21
4709.2693
  0
LINE
  8
0-2
  6
CONTINUOUS
 62
    3
 10
1344.0275
 20
4709.2693
 11
1345.3542
 21
4708.2945
  0
LINE
  8
0-2
  6
CONTINUOUS
 62
    3
 10
1345.3542
 20
4708.2945
 11
1346.8221
 21
4707.5763
  0
LINE
  8
0-2
  6
CONTINUOUS
 62
    3
 10
1346.8221
 20
4707.5763
 11
1348.3865
 21
4707.1364
  0
LINE
  8
0-2
  6
CONTINUOUS
 62
    3
 10
1348.3865
 20
4707.1364
 11
1350
 21
4706.9883
  0
LINE
  8
0-2
  6
CONTINUOUS
 62
    3
 10
2850.0001
 20
4636.4877
 11
2851.6136
 21
4636.6358
  0
LINE
  8
0-2
  6
CONTINUOUS
 62
    3
 10
2851.6136
 20
4636.6358
 11
2853.178
 21
4637.0757
  0
LINE
  8
0-2
  6
CONTINUOUS
 62
    3
 10
2853.178
 20
4637.0757
 11
2854.6459
 21
4637.794
  0
LINE
  8
0-2
  6
CONTINUOUS
 62
    3
 10
2854.6459
 20
4637.794
 11
2855.9727
 21
4638.7688
  0
LINE
  8
0-2
  6
CONTINUOUS
 62
    3
 10
2855.9727
 20
4638.7688
 11
2857.1179
 21
4639.9705
  0
LINE
  8
0-2
  6
CONTINUOUS
 62
    3
 10
2857.1179
 20
4639.9705
 11
2858.0469
 21
4641.3627
  0
LINE
  8
0-2
  6
CONTINUOUS
 62
    3
 10
2858.0469
 20
4641.3627
 11
2858.7314
 21
4642.903
  0
LINE
  8
0-2
  6
CONTINUOUS
 62
    3
 10
2858.7314
 20
4642.903
 11
2859.1506
 21
4644.5446
  0
LINE
  8
0-2
  6
CONTINUOUS
 62
    3
 10
2859.1506
 20
4644.5446
 11
2859.2918
 21
4646.2376
  0
LINE
  8
0-2
  6
CONTINUOUS
 62
    3
 10
2859.2918
 20
4646.2376
 11
2859.1506
 21
4647.9307
  0
LINE
  8
0-2
  6
CONTINUOUS
 62
    3
 10
2859.1506
 20
4647.9307
 11
2858.7314
 21
4649.5723
  0
LINE
  8
0-2
  6
CONTINUOUS
 62
    3
 10
2858.7314
 20
4649.5723
 11
2858.0469
 21
4651.1126
  0
LINE
  8
0-2
  6
CONTINUOUS
 62
    3
 10
2858.0469
 20
4651.1126
 11
2857.1179
 21
4652.5047
  0
LINE
  8
0-2
  6
CONTINUOUS
 62
    3
 10
2857.1179
 20
4652.5047
 11
2855.9727
 21
4653.7065
  0
LINE
  8
0-2
  6
CONTINUOUS
 62
    3
 10
2855.9727
 20
4653.7065
 11
2854.6459
 21
4654.6813
  0
LINE
  8
0-2
  6
CONTINUOUS
 62
    3
 10
2854.6459
 20
4654.6813
 11
2853.178
 21
4655.3995
  0
LINE
  8
0-2
  6
CONTINUOUS
 62
    3
 10
2853.178
 20
4655.3995
 11
2851.6136
 21
4655.8394
  0
LINE
  8
0-2
  6
CONTINUOUS
 62
    3
 10
2851.6136
 20
4655.8394
 11
2850.0001
 21
4655.9875
  0
LINE
  8
0-2
  6
CONTINUOUS
 62
    3
 10
2850.0001
 20
4706.9883
 11
2851.6136
 21
4707.1364
  0
LINE
  8
0-2
  6
CONTINUOUS
 62
    3
 10
2851.6136
 20
4707.1364
 11
2853.178
 21
4707.5763
  0
LINE
  8
0-2
  6
CONTINUOUS
 62
    3
 10
2853.178
 20
4707.5763
 11
2854.6459
 21
4708.2945
  0
LINE
  8
0-2
  6
CONTINUOUS
 62
    3
 10
2854.6459
 20
4708.2945
 11
2855.9727
 21
4709.2693
  0
LINE
  8
0-2
  6
CONTINUOUS
 62
    3
 10
2855.9727
 20
4709.2693
 11
2857.1179
 21
4710.4711
  0
LINE
  8
0-2
  6
CONTINUOUS
 62
    3
 10
2857.1179
 20
4710.4711
 11
2858.0469
 21
4711.8632
  0
LINE
  8
0-2
  6
CONTINUOUS
 62
    3
 10
2858.0469
 20
4711.8632
 11
2858.7314
 21
4713.4035
  0
LINE
  8
0-2
  6
CONTINUOUS
 62
    3
 10
2858.7314
 20
4713.4035
 11
2859.1506
 21
4715.0451
  0
LINE
  8
0-2
  6
CONTINUOUS
 62
    3
 10
2859.1506
 20
4715.0451
 11
2859.2918
 21
4716.7382
  0
LINE
  8
0-2
  6
CONTINUOUS
 62
    3
 10
2859.2918
 20
4716.7382
 11
2859.1506
 21
4718.4312
  0
LINE
  8
0-2
  6
CONTINUOUS
 62
    3
 10
2859.1506
 20
4718.4312
 11
2858.7314
 21
4720.0728
  0
LINE
  8
0-2
  6
CONTINUOUS
 62
    3
 10
2858.7314
 20
4720.0728
 11
2858.0469
 21
4721.6131
  0
LINE
  8
0-2
  6
CONTINUOUS
 62
    3
 10
2858.0469
 20
4721.6131
 11
2857.1179
 21
4723.0053
  0
LINE
  8
0-2
  6
CONTINUOUS
 62
    3
 10
2857.1179
 20
4723.0053
 11
2855.9727
 21
4724.207
  0
LINE
  8
0-2
  6
CONTINUOUS
 62
    3
 10
2855.9727
 20
4724.207
 11
2854.6459
 21
4725.1818
  0
LINE
  8
0-2
  6
CONTINUOUS
 62
    3
 10
2854.6459
 20
4725.1818
 11
2853.178
 21
4725.9001
  0
LINE
  8
0-2
  6
CONTINUOUS
 62
    3
 10
2853.178
 20
4725.9001
 11
2851.6136
 21
4726.34
  0
LINE
  8
0-2
  6
CONTINUOUS
 62
    3
 10
2851.6136
 20
4726.34
 11
2850.0001
 21
4726.4881
  0
LINE
  8
0-2
  6
CONTINUOUS
 62
    3
 10
1350
 20
4066.4849
 11
1348.3865
 21
4066.3368
  0
LINE
  8
0-2
  6
CONTINUOUS
 62
    3
 10
1348.3865
 20
4066.3368
 11
1346.8221
 21
4065.8969
  0
LINE
  8
0-2
  6
CONTINUOUS
 62
    3
 10
1346.8221
 20
4065.8969
 11
1345.3542
 21
4065.1786
  0
LINE
  8
0-2
  6
CONTINUOUS
 62
    3
 10
1345.3542
 20
4065.1786
 11
1344.0275
 21
4064.2038
  0
LINE
  8
0-2
  6
CONTINUOUS
 62
    3
 10
1344.0275
 20
4064.2038
 11
1342.8822
 21
4063.0021
  0
LINE
  8
0-2
  6
CONTINUOUS
 62
    3
 10
1342.8822
 20
4063.0021
 11
1341.9532
 21
4061.6099
  0
LINE
  8
0-2
  6
CONTINUOUS
 62
    3
 10
1341.9532
 20
4061.6099
 11
1341.2687
 21
4060.0696
  0
LINE
  8
0-2
  6
CONTINUOUS
 62
    3
 10
1341.2687
 20
4060.0696
 11
1340.8495
 21
4058.428
  0
LINE
  8
0-2
  6
CONTINUOUS
 62
    3
 10
1340.8495
 20
4058.428
 11
1340.7084
 21
4056.735
  0
LINE
  8
0-2
  6
CONTINUOUS
 62
    3
 10
1340.7084
 20
4056.735
 11
1340.8495
 21
4055.0419
  0
LINE
  8
0-2
  6
CONTINUOUS
 62
    3
 10
1340.8495
 20
4055.0419
 11
1341.2687
 21
4053.4003
  0
LINE
  8
0-2
  6
CONTINUOUS
 62
    3
 10
1341.2687
 20
4053.4003
 11
1341.9532
 21
4051.86
  0
LINE
  8
0-2
  6
CONTINUOUS
 62
    3
 10
1341.9532
 20
4051.86
 11
1342.8822
 21
4050.4679
  0
LINE
  8
0-2
  6
CONTINUOUS
 62
    3
 10
1342.8822
 20
4050.4679
 11
1344.0275
 21
4049.2661
  0
LINE
  8
0-2
  6
CONTINUOUS
 62
    3
 10
1344.0275
 20
4049.2661
 11
1345.3542
 21
4048.2913
  0
LINE
  8
0-2
  6
CONTINUOUS
 62
    3
 10
1345.3542
 20
4048.2913
 11
1346.8221
 21
4047.5731
  0
LINE
  8
0-2
  6
CONTINUOUS
 62
    3
 10
1346.8221
 20
4047.5731
 11
1348.3865
 21
4047.1332
  0
LINE
  8
0-2
  6
CONTINUOUS
 62
    3
 10
1348.3865
 20
4047.1332
 11
1350
 21
4046.9851
  0
LINE
  8
0-2
  6
CONTINUOUS
 62
    3
 10
1350
 20
3995.9843
 11
1348.3865
 21
3995.8362
  0
LINE
  8
0-2
  6
CONTINUOUS
 62
    3
 10
1348.3865
 20
3995.8362
 11
1346.8221
 21
3995.3963
  0
LINE
  8
0-2
  6
CONTINUOUS
 62
    3
 10
1346.8221
 20
3995.3963
 11
1345.3542
 21
3994.6781
  0
LINE
  8
0-2
  6
CONTINUOUS
 62
    3
 10
1345.3542
 20
3994.6781
 11
1344.0275
 21
3993.7033
  0
LINE
  8
0-2
  6
CONTINUOUS
 62
    3
 10
1344.0275
 20
3993.7033
 11
1342.8822
 21
3992.5015
  0
LINE
  8
0-2
  6
CONTINUOUS
 62
    3
 10
1342.8822
 20
3992.5015
 11
1341.9532
 21
3991.1094
  0
LINE
  8
0-2
  6
CONTINUOUS
 62
    3
 10
1341.9532
 20
3991.1094
 11
1341.2687
 21
3989.5691
  0
LINE
  8
0-2
  6
CONTINUOUS
 62
    3
 10
1341.2687
 20
3989.5691
 11
1340.8495
 21
3987.9275
  0
LINE
  8
0-2
  6
CONTINUOUS
 62
    3
 10
1340.8495
 20
3987.9275
 11
1340.7084
 21
3986.2344
  0
LINE
  8
0-2
  6
CONTINUOUS
 62
    3
 10
1340.7084
 20
3986.2344
 11
1340.8495
 21
3984.5414
  0
LINE
  8
0-2
  6
CONTINUOUS
 62
    3
 10
1340.8495
 20
3984.5414
 11
1341.2687
 21
3982.8998
  0
LINE
  8
0-2
  6
CONTINUOUS
 62
    3
 10
1341.2687
 20
3982.8998
 11
1341.9532
 21
3981.3595
  0
LINE
  8
0-2
  6
CONTINUOUS
 62
    3
 10
1341.9532
 20
3981.3595
 11
1342.8822
 21
3979.9673
  0
LINE
  8
0-2
  6
CONTINUOUS
 62
    3
 10
1342.8822
 20
3979.9673
 11
1344.0275
 21
3978.7656
  0
LINE
  8
0-2
  6
CONTINUOUS
 62
    3
 10
1344.0275
 20
3978.7656
 11
1345.3542
 21
3977.7908
  0
LINE
  8
0-2
  6
CONTINUOUS
 62
    3
 10
1345.3542
 20
3977.7908
 11
1346.8221
 21
3977.0725
  0
LINE
  8
0-2
  6
CONTINUOUS
 62
    3
 10
1346.8221
 20
3977.0725
 11
1348.3865
 21
3976.6326
  0
LINE
  8
0-2
  6
CONTINUOUS
 62
    3
 10
1348.3865
 20
3976.6326
 11
1350
 21
3976.4845
  0
LINE
  8
0-2
  6
CONTINUOUS
 62
    3
 10
2850.0001
 20
4046.9851
 11
2851.6136
 21
4047.1332
  0
LINE
  8
0-2
  6
CONTINUOUS
 62
    3
 10
2851.6136
 20
4047.1332
 11
2853.178
 21
4047.5731
  0
LINE
  8
0-2
  6
CONTINUOUS
 62
    3
 10
2853.178
 20
4047.5731
 11
2854.6459
 21
4048.2913
  0
LINE
  8
0-2
  6
CONTINUOUS
 62
    3
 10
2854.6459
 20
4048.2913
 11
2855.9727
 21
4049.2661
  0
LINE
  8
0-2
  6
CONTINUOUS
 62
    3
 10
2855.9727
 20
4049.2661
 11
2857.1179
 21
4050.4679
  0
LINE
  8
0-2
  6
CONTINUOUS
 62
    3
 10
2857.1179
 20
4050.4679
 11
2858.0469
 21
4051.86
  0
LINE
  8
0-2
  6
CONTINUOUS
 62
    3
 10
2858.0469
 20
4051.86
 11
2858.7314
 21
4053.4003
  0
LINE
  8
0-2
  6
CONTINUOUS
 62
    3
 10
2858.7314
 20
4053.4003
 11
2859.1506
 21
4055.0419
  0
LINE
  8
0-2
  6
CONTINUOUS
 62
    3
 10
2859.1506
 20
4055.0419
 11
2859.2918
 21
4056.735
  0
LINE
  8
0-2
  6
CONTINUOUS
 62
    3
 10
2859.2918
 20
4056.735
 11
2859.1506
 21
4058.428
  0
LINE
  8
0-2
  6
CONTINUOUS
 62
    3
 10
2859.1506
 20
4058.428
 11
2858.7314
 21
4060.0696
  0
LINE
  8
0-2
  6
CONTINUOUS
 62
    3
 10
2858.7314
 20
4060.0696
 11
2858.0469
 21
4061.6099
  0
LINE
  8
0-2
  6
CONTINUOUS
 62
    3
 10
2858.0469
 20
4061.6099
 11
2857.1179
 21
4063.0021
  0
LINE
  8
0-2
  6
CONTINUOUS
 62
    3
 10
2857.1179
 20
4063.0021
 11
2855.9727
 21
4064.2038
  0
LINE
  8
0-2
  6
CONTINUOUS
 62
    3
 10
2855.9727
 20
4064.2038
 11
2854.6459
 21
4065.1786
  0
LINE
  8
0-2
  6
CONTINUOUS
 62
    3
 10
2854.6459
 20
4065.1786
 11
2853.178
 21
4065.8969
  0
LINE
  8
0-2
  6
CONTINUOUS
 62
    3
 10
2853.178
 20
4065.8969
 11
2851.6136
 21
4066.3368
  0
LINE
  8
0-2
  6
CONTINUOUS
 62
    3
 10
2851.6136
 20
4066.3368
 11
2850.0001
 21
4066.4849
  0
LINE
  8
0-2
  6
CONTINUOUS
 62
    3
 10
2850.0001
 20
3976.4845
 11
2851.6136
 21
3976.6326
  0
LINE
  8
0-2
  6
CONTINUOUS
 62
    3
 10
2851.6136
 20
3976.6326
 11
2853.178
 21
3977.0725
  0
LINE
  8
0-2
  6
CONTINUOUS
 62
    3
 10
2853.178
 20
3977.0725
 11
2854.6459
 21
3977.7908
  0
LINE
  8
0-2
  6
CONTINUOUS
 62
    3
 10
2854.6459
 20
3977.7908
 11
2855.9727
 21
3978.7656
  0
LINE
  8
0-2
  6
CONTINUOUS
 62
    3
 10
2855.9727
 20
3978.7656
 11
2857.1179
 21
3979.9673
  0
LINE
  8
0-2
  6
CONTINUOUS
 62
    3
 10
2857.1179
 20
3979.9673
 11
2858.0469
 21
3981.3595
  0
LINE
  8
0-2
  6
CONTINUOUS
 62
    3
 10
2858.0469
 20
3981.3595
 11
2858.7314
 21
3982.8998
  0
LINE
  8
0-2
  6
CONTINUOUS
 62
    3
 10
2858.7314
 20
3982.8998
 11
2859.1506
 21
3984.5414
  0
LINE
  8
0-2
  6
CONTINUOUS
 62
    3
 10
2859.1506
 20
3984.5414
 11
2859.2918
 21
3986.2344
  0
LINE
  8
0-2
  6
CONTINUOUS
 62
    3
 10
2859.2918
 20
3986.2344
 11
2859.1506
 21
3987.9275
  0
LINE
  8
0-2
  6
CONTINUOUS
 62
    3
 10
2859.1506
 20
3987.9275
 11
2858.7314
 21
3989.5691
  0
LINE
  8
0-2
  6
CONTINUOUS
 62
    3
 10
2858.7314
 20
3989.5691
 11
2858.0469
 21
3991.1094
  0
LINE
  8
0-2
  6
CONTINUOUS
 62
    3
 10
2858.0469
 20
3991.1094
 11
2857.1179
 21
3992.5015
  0
LINE
  8
0-2
  6
CONTINUOUS
 62
    3
 10
2857.1179
 20
3992.5015
 11
2855.9727
 21
3993.7033
  0
LINE
  8
0-2
  6
CONTINUOUS
 62
    3
 10
2855.9727
 20
3993.7033
 11
2854.6459
 21
3994.6781
  0
LINE
  8
0-2
  6
CONTINUOUS
 62
    3
 10
2854.6459
 20
3994.6781
 11
2853.178
 21
3995.3963
  0
LINE
  8
0-2
  6
CONTINUOUS
 62
    3
 10
2853.178
 20
3995.3963
 11
2851.6136
 21
3995.8362
  0
LINE
  8
0-2
  6
CONTINUOUS
 62
    3
 10
2851.6136
 20
3995.8362
 11
2850.0001
 21
3995.9843
  0
LINE
  8
0-2
  6
CONTINUOUS
 62
    3
 10
2632.5005
 20
4276.487
 11
2634.114
 21
4276.6351
  0
LINE
  8
0-2
  6
CONTINUOUS
 62
    3
 10
2634.114
 20
4276.6351
 11
2635.6784
 21
4277.075
  0
LINE
  8
0-2
  6
CONTINUOUS
 62
    3
 10
2635.6784
 20
4277.075
 11
2637.1463
 21
4277.7932
  0
LINE
  8
0-2
  6
CONTINUOUS
 62
    3
 10
2637.1463
 20
4277.7932
 11
2638.473
 21
4278.768
  0
LINE
  8
0-2
  6
CONTINUOUS
 62
    3
 10
2638.473
 20
4278.768
 11
2639.6183
 21
4279.9698
  0
LINE
  8
0-2
  6
CONTINUOUS
 62
    3
 10
2639.6183
 20
4279.9698
 11
2640.5473
 21
4281.362
  0
LINE
  8
0-2
  6
CONTINUOUS
 62
    3
 10
2640.5473
 20
4281.362
 11
2641.2318
 21
4282.9022
  0
LINE
  8
0-2
  6
CONTINUOUS
 62
    3
 10
2641.2318
 20
4282.9022
 11
2641.651
 21
4284.5439
  0
LINE
  8
0-2
  6
CONTINUOUS
 62
    3
 10
2641.651
 20
4284.5439
 11
2641.7921
 21
4286.2369
  0
LINE
  8
0-2
  6
CONTINUOUS
 62
    3
 10
2641.7921
 20
4286.2369
 11
2641.651
 21
4287.93
  0
LINE
  8
0-2
  6
CONTINUOUS
 62
    3
 10
2641.651
 20
4287.93
 11
2641.2318
 21
4289.5716
  0
LINE
  8
0-2
  6
CONTINUOUS
 62
    3
 10
2641.2318
 20
4289.5716
 11
2640.5473
 21
4291.1119
  0
LINE
  8
0-2
  6
CONTINUOUS
 62
    3
 10
2640.5473
 20
4291.1119
 11
2639.6183
 21
4292.504
  0
LINE
  8
0-2
  6
CONTINUOUS
 62
    3
 10
2639.6183
 20
4292.504
 11
2638.473
 21
4293.7058
  0
LINE
  8
0-2
  6
CONTINUOUS
 62
    3
 10
2638.473
 20
4293.7058
 11
2637.1463
 21
4294.6806
  0
LINE
  8
0-2
  6
CONTINUOUS
 62
    3
 10
2637.1463
 20
4294.6806
 11
2635.6784
 21
4295.3988
  0
LINE
  8
0-2
  6
CONTINUOUS
 62
    3
 10
2635.6784
 20
4295.3988
 11
2634.114
 21
4295.8387
  0
LINE
  8
0-2
  6
CONTINUOUS
 62
    3
 10
2634.114
 20
4295.8387
 11
2632.5005
 21
4295.9868
  0
LINE
  8
0-2
  6
CONTINUOUS
 62
    3
 10
2632.5005
 20
4346.9876
 11
2634.114
 21
4347.1357
  0
LINE
  8
0-2
  6
CONTINUOUS
 62
    3
 10
2634.114
 20
4347.1357
 11
2635.6784
 21
4347.5756
  0
LINE
  8
0-2
  6
CONTINUOUS
 62
    3
 10
2635.6784
 20
4347.5756
 11
2637.1463
 21
4348.2938
  0
LINE
  8
0-2
  6
CONTINUOUS
 62
    3
 10
2637.1463
 20
4348.2938
 11
2638.473
 21
4349.2686
  0
LINE
  8
0-2
  6
CONTINUOUS
 62
    3
 10
2638.473
 20
4349.2686
 11
2639.6183
 21
4350.4703
  0
LINE
  8
0-2
  6
CONTINUOUS
 62
    3
 10
2639.6183
 20
4350.4703
 11
2640.5473
 21
4351.8625
  0
LINE
  8
0-2
  6
CONTINUOUS
 62
    3
 10
2640.5473
 20
4351.8625
 11
2641.2318
 21
4353.4028
  0
LINE
  8
0-2
  6
CONTINUOUS
 62
    3
 10
2641.2318
 20
4353.4028
 11
2641.651
 21
4355.0444
  0
LINE
  8
0-2
  6
CONTINUOUS
 62
    3
 10
2641.651
 20
4355.0444
 11
2641.7921
 21
4356.7375
  0
LINE
  8
0-2
  6
CONTINUOUS
 62
    3
 10
2641.7921
 20
4356.7375
 11
2641.651
 21
4358.4305
  0
LINE
  8
0-2
  6
CONTINUOUS
 62
    3
 10
2641.651
 20
4358.4305
 11
2641.2318
 21
4360.0721
  0
LINE
  8
0-2
  6
CONTINUOUS
 62
    3
 10
2641.2318
 20
4360.0721
 11
2640.5473
 21
4361.6124
  0
LINE
  8
0-2
  6
CONTINUOUS
 62
    3
 10
2640.5473
 20
4361.6124
 11
2639.6183
 21
4363.0046
  0
LINE
  8
0-2
  6
CONTINUOUS
 62
    3
 10
2639.6183
 20
4363.0046
 11
2638.473
 21
4364.2063
  0
LINE
  8
0-2
  6
CONTINUOUS
 62
    3
 10
2638.473
 20
4364.2063
 11
2637.1463
 21
4365.1811
  0
LINE
  8
0-2
  6
CONTINUOUS
 62
    3
 10
2637.1463
 20
4365.1811
 11
2635.6784
 21
4365.8994
  0
LINE
  8
0-2
  6
CONTINUOUS
 62
    3
 10
2635.6784
 20
4365.8994
 11
2634.114
 21
4366.3392
  0
LINE
  8
0-2
  6
CONTINUOUS
 62
    3
 10
2634.114
 20
4366.3392
 11
2632.5005
 21
4366.4874
  0
TEXT
  8
0-d
 10
509.99972
 20
310.13515
 40
50
 41
1
 50
0
  1
図
  0
TEXT
  8
0-d
 10
509.99972
 20
190.13521
 40
50
 41
1
 50
0
  1
番
  0
TEXT
  8
0-d
 10
1309.9998
 20
310.13515
 40
50
 41
1
 50
0
  1
承
  0
TEXT
  8
0-d
 10
1309.9998
 20
190.13521
 40
50
 41
1
 50
0
  1
認
  0
TEXT
  8
0-d
 10
2039.9997
 20
470.13525
 40
50
 41
1
 50
0
  1
尺
  0
TEXT
  8
0-d
 10
2039.9997
 20
390.13529
 40
50
 41
1
 50
359.99986
  1
度
  0
TEXT
  8
0-d
 10
1709.9997
 20
310.13515
 40
50
 41
1
 50
0
  1
製
  0
TEXT
  8
0-d
 10
1709.9997
 20
190.13521
 40
50
 41
1
 50
0
  1
図
  0
TEXT
  8
0-d
 10
3110
 20
470.13525
 40
50
 41
1
 50
0
  1
日
  0
TEXT
  8
0-d
 10
3110
 20
390.13529
 40
50
 41
1
 50
359.99986
  1
付
  0
TEXT
  8
0-d
 10
2222.852
 20
322.09976
 40
40
 41
1
 50
0
  1
株式
  0
TEXT
  8
0-d
 10
2222.852
 20
278.83889
 40
40
 41
1
 50
0.0000152
  1
会社
  0
TEXT
  8
0-d
 10
2348.4485
 20
281.62989
 40
80
 41
1
 50
0
  1
スズキベンチレーター
  0
TEXT
  8
0-d
 10
2475.8354
 20
183.18397
 40
40
 41
1
 50
0
  1
TEL(054)296-7000  FAX(054)296-7001
  0
TEXT
  8
0-d
 10
2168.6978
 20
415.33667
 40
80
 41
1
 50
0
  1
１／２０
  0
TEXT
  8
0-8
 10
2045.6247
 20
5095.7279
 40
60
 41
1
 50
0
  1
1,500
  0
TEXT
  8
0-8
 10
1000.3438
 20
4297.586
 40
60
 41
1
 50
90
  1
1,250
  0
TEXT
  8
0-d
 10
596.6753
 20
287.90676
 40
60
 41
1
 50
0
  1
105-G08b
  0
TEXT
  8
0-8
 10
1917.2563
 20
3626.0843
 40
60
 41
1
 50
0
  1
1,270x1,270
  0
TEXT
  8
0-d
 10
510.00006
 20
5545.4028
 40
100
 41
1
 50
0
  1
ＤＳ－１０５０　自然換気  架台型（網付）断面
  0
TEXT
  8
0-2
 10
519.27686
 20
424.29625
 40
60
 41
1
 50
0
  1
ＤＳ－１０５０ 自然換気 架台型（網付）断面
  0
TEXT
  8
0-d
 10
2471.3583
 20
232.42738
 40
40
 41
1
 50
0
  1
〒421-2114　静岡市葵区安倍口新田１５２番地
  0
POINT
  8
0-8
 62
    2
 10
1013.2745
 20
3736.4865
  0
POINT
  8
0-8
 62
    2
 10
1013.275
 20
4986.4867
  0
POINT
  8
0-8
 62
    2
 10
1350
 20
5080.7281
  0
POINT
  8
0-8
 62
    2
 10
2850.0001
 20
5080.7281
  0
POINT
  8
0-8
 62
    2
 10
1465.0002
 20
3614.6699
  0
POINT
  8
0-8
 62
    2
 10
2735.0005
 20
3614.6699
  0
ENDSEC
  0
EOF
