  0
SECTION
  2
HEADER
  9
$EXTMIN
 10
0
 20
0
  9
$EXTMAX
 10
8400
 20
5940
  0
ENDSEC
  0
SECTION
  2
TABLES
  0
TABLE
  2
LTYPE
 70
     9
  0
LTYPE
  2
CONTINUOUS
 70
    64
  3
実線
 72
    65
 73
     0
 40
0.0
  0
LTYPE
  2
DASHED1
 70
    64
  3
--  --  --  --  --  --  --  --  
 72
    65
 73
     2
 40
2.5
 49
1.25
 49
-1.25
  0
LTYPE
  2
DASHED2
 70
    64
  3
----    ----    ----    ----    
 72
    65
 73
     2
 40
5.0
 49
2.5
 49
-2.5
  0
LTYPE
  2
DASHED3
 70
    64
  3
------  ------  ------  ------  
 72
    65
 73
     2
 40
5.0
 49
3.75
 49
-1.25
  0
LTYPE
  2
CENTER1
 70
    64
  3
----- - ----- - ----- - ----- - 
 72
    65
 73
     4
 40
10.0
 49
6.25
 49
-1.25
 49
1.25
 49
-1.25
  0
LTYPE
  2
CENTER2
 70
    64
  3
----------  --  ----------  --  
 72
    65
 73
     4
 40
20.0
 49
12.5
 49
-2.5
 49
2.5
 49
-2.5
  0
LTYPE
  2
PHANTOM1
 70
    64
  3
--- - - --- - - --- - - --- - - 
 72
    65
 73
     6
 40
10.0
 49
3.25
 49
-1.25
 49
1.25
 49
-1.25
 49
1.25
 49
-1.25
  0
LTYPE
  2
PHANTOM2
 70
    64
  3
--------  -  -  --------  -  -  
 72
    65
 73
     6
 40
20.0
 49
10.0
 49
-2.5
 49
1.25
 49
-2.5
 49
1.25
 49
-2.5
  0
LTYPE
  2
DOT
 70
    64
  3
-   -   -   -   -   -   -   -   
 72
    65
 73
     2
 40
2.5
 49
0.625
 49
-1.875
  0
ENDTAB
  0
TABLE
  2
STYLE
 70
    1
  0
STYLE
  2
STANDARD
 70
    64
 40
0.0
 41
1.0
 42
0.0
 50
0.0
 71
     0
  3
TXT
  4
BIGFONT
  0
ENDTAB
  0
TABLE
  2
LAYER
 70
    5
  0
LAYER
  2
0-1
 70
   64
 62
    7
  6
CONTINUOUS
  0
LAYER
  2
0-2
 70
   64
 62
    7
  6
CONTINUOUS
  0
LAYER
  2
0-8
 70
   64
 62
    7
  6
CONTINUOUS
  0
LAYER
  2
0-d
 70
   64
 62
    7
  6
CONTINUOUS
  0
LAYER
  2
ADD_LINE
 70
   64
 62
    7
  6
CONTINUOUS
  0
ENDTAB
  0
ENDSEC
  0
SECTION
  2
ENTITIES
  0
LINE
  8
0-d
  6
CONTINUOUS
 62
    7
 10
500.00006
 20
5515.4027
 11
3700.0002
 21
5515.4027
  0
LINE
  8
0-d
  6
CONTINUOUS
 62
    7
 10
500.00006
 20
5535.4028
 11
3700.0002
 21
5535.4028
  0
LINE
  8
0-8
  6
CONTINUOUS
 62
    7
 10
3249.5716
 20
2920.3712
 11
3249.5716
 21
3520.3713
  0
LINE
  8
0-8
  6
CONTINUOUS
 62
    7
 10
2923.7545
 20
3402.6914
 11
3249.5716
 21
3402.6914
  0
LINE
  8
0-8
  6
CONTINUOUS
 62
    7
 10
2923.7545
 20
3520.3713
 11
3249.5716
 21
3520.3713
  0
LINE
  8
0-8
  6
CONTINUOUS
 62
    7
 10
1597.4374
 20
1517.842
 11
2602.5627
 21
1869.9059
  0
LINE
  8
0-8
  6
CONTINUOUS
 62
    7
 10
1475.0001
 20
2868.8087
 11
1475.0001
 21
2683.7418
  0
LINE
  8
0-d
  6
CONTINUOUS
 62
    7
 10
1037.6055
 20
2987.9599
 11
1201.8872
 21
2987.9599
  0
LINE
  8
0-d
  6
CONTINUOUS
 62
    7
 10
1037.6055
 20
2987.9599
 11
1201.8872
 21
3037.242
  0
LINE
  8
0-d
  6
CONTINUOUS
 62
    7
 10
1201.8872
 20
2987.9599
 11
1201.8872
 21
3037.242
  0
LINE
  8
0-2
  6
CONTINUOUS
 62
    3
 10
2949.9999
 20
2543.8752
 11
1250.0002
 21
2543.8752
  0
LINE
  8
0-2
  6
CONTINUOUS
 62
    3
 10
2949.9999
 20
2543.8752
 11
2949.9999
 21
843.87493
  0
LINE
  8
0-2
  6
CONTINUOUS
 62
    3
 10
1250.0002
 20
2543.8752
 11
1250.0002
 21
843.87493
  0
LINE
  8
0-2
  6
CONTINUOUS
 62
    3
 10
2724.9999
 20
2318.8752
 11
2579.2099
 21
2173.0846
  0
LINE
  8
0-2
  6
CONTINUOUS
 62
    3
 10
1475.0001
 20
2318.8752
 11
1620.7901
 21
2173.0846
  0
LINE
  8
0-8
  6
CONTINUOUS
 62
    7
 10
950.42853
 20
843.87493
 11
950.42853
 21
2543.8752
  0
LINE
  8
0-1
  6
CENTER2
 62
    7
 10
2949.9999
 20
1693.8747
 11
1250.0002
 21
1693.8747
  0
LINE
  8
0-2
  6
CONTINUOUS
 62
    3
 10
2627.5002
 20
3520.3713
 11
2627.5002
 21
3495.3709
  0
LINE
  8
0-2
  6
CONTINUOUS
 62
    3
 10
2627.5002
 20
3483.3711
 11
2627.5002
 21
3400.3709
  0
LINE
  8
0-8
  6
CONTINUOUS
 62
    3
 10
2627.5002
 20
3400.3709
 11
2724.9999
 21
2920.3712
  0
LINE
  8
0-2
  6
CONTINUOUS
 62
    3
 10
1572.5
 20
3520.3713
 11
1572.5
 21
3495.3709
  0
LINE
  8
0-2
  6
CONTINUOUS
 62
    3
 10
1572.5
 20
3483.3711
 11
1572.5
 21
3400.3709
  0
LINE
  8
0-8
  6
CONTINUOUS
 62
    3
 10
2627.5002
 20
3495.3709
 11
1572.5
 21
3495.3709
  0
LINE
  8
0-8
  6
CONTINUOUS
 62
    3
 10
2627.5002
 20
3483.3711
 11
1572.5
 21
3483.3711
  0
LINE
  8
0-8
  6
CONTINUOUS
 62
    7
 10
2627.5002
 20
3669.7554
 11
1572.5
 21
3669.7554
  0
LINE
  8
0-2
  6
CONTINUOUS
 62
    3
 10
2627.5002
 20
3520.3713
 11
1572.5
 21
3520.3713
  0
LINE
  8
0-2
  6
CONTINUOUS
 62
    3
 10
2627.5002
 20
3400.3709
 11
1572.5
 21
3400.3709
  0
LINE
  8
0-8
  6
CONTINUOUS
 62
    3
 10
1572.5
 20
3400.3709
 11
1475.0001
 21
2920.3712
  0
LINE
  8
0-2
  6
CONTINUOUS
 62
    3
 10
2724.9999
 20
1068.8748
 11
2579.2099
 21
1214.6652
  0
LINE
  8
0-2
  6
CONTINUOUS
 62
    3
 10
1475.0001
 20
1068.8748
 11
1620.7901
 21
1214.6652
  0
LINE
  8
0-8
  6
CONTINUOUS
 62
    7
 10
3249.5716
 20
843.87493
 11
3249.5716
 21
1068.8748
  0
LINE
  8
0-8
  6
CONTINUOUS
 62
    7
 10
3006.0812
 20
843.87493
 11
3249.5716
 21
843.87493
  0
LINE
  8
0-8
  6
CONTINUOUS
 62
    7
 10
3006.0812
 20
1068.8748
 11
3249.5716
 21
1068.8748
  0
LINE
  8
0-8
  6
CONTINUOUS
 62
    7
 10
3249.5716
 20
1068.8748
 11
3249.5716
 21
2318.8752
  0
LINE
  8
0-8
  6
CONTINUOUS
 62
    7
 10
3006.0812
 20
2318.8752
 11
3249.5716
 21
2318.8752
  0
LINE
  8
0-8
  6
CONTINUOUS
 62
    7
 10
3249.5716
 20
2318.8752
 11
3249.5716
 21
2543.8752
  0
LINE
  8
0-8
  6
CONTINUOUS
 62
    7
 10
3006.0812
 20
2543.8752
 11
3249.5716
 21
2543.8752
  0
LINE
  8
0-d
  6
CONTINUOUS
 62
    7
 10
499.99981
 20
375.13524
 11
3700
 21
375.13524
  0
LINE
  8
0-d
  6
CONTINUOUS
 62
    7
 10
499.99981
 20
175.13519
 11
499.99981
 21
535.13516
  0
LINE
  8
0-d
  6
CONTINUOUS
 62
    7
 10
499.99981
 20
175.13519
 11
3700
 21
175.13519
  0
LINE
  8
0-d
  6
CONTINUOUS
 62
    7
 10
2100.0001
 20
535.13516
 11
2100.0001
 21
175.13519
  0
LINE
  8
0-d
  6
CONTINUOUS
 62
    7
 10
1300
 20
175.13519
 11
1300
 21
375.13524
  0
LINE
  8
0-d
  6
CONTINUOUS
 62
    7
 10
2100.0001
 20
375.13524
 11
2100.0001
 21
535.13516
  0
LINE
  8
0-d
  6
CONTINUOUS
 62
    7
 10
1700
 20
175.13519
 11
1700
 21
375.13524
  0
LINE
  8
0-d
  6
CONTINUOUS
 62
    7
 10
569.99968
 20
175.13519
 11
569.99968
 21
375.13524
  0
LINE
  8
0-d
  6
CONTINUOUS
 62
    7
 10
1369.9996
 20
175.13519
 11
1369.9996
 21
375.13524
  0
LINE
  8
0-d
  6
CONTINUOUS
 62
    7
 10
1769.9996
 20
175.13519
 11
1769.9996
 21
375.13524
  0
LINE
  8
0-d
  6
CONTINUOUS
 62
    7
 10
2029.9999
 20
375.13524
 11
2029.9999
 21
535.13516
  0
LINE
  8
0-d
  6
CONTINUOUS
 62
    7
 10
3099.9999
 20
375.13524
 11
3099.9999
 21
535.13516
  0
LINE
  8
0-d
  6
CONTINUOUS
 62
    7
 10
3169.9997
 20
375.13524
 11
3169.9997
 21
535.13516
  0
LINE
  8
0-8
  6
CONTINUOUS
 62
    7
 10
2724.9999
 20
2683.7418
 11
1475.0001
 21
2683.7418
  0
LINE
  8
0-d
  6
CONTINUOUS
 62
    7
 10
499.99981
 20
535.13516
 11
3700
 21
535.13516
  0
LINE
  8
0-d
  6
CONTINUOUS
 62
    7
 10
3700
 20
535.13516
 11
3700
 21
175.13519
  0
LINE
  8
0-2
  6
CONTINUOUS
 62
    3
 10
2100.0001
 20
3109.5271
 11
2949.9999
 21
2852.2748
  0
LINE
  8
0-8
  6
CONTINUOUS
 62
    7
 10
1572.5
 20
3553.6015
 11
1572.5
 21
3669.7554
  0
LINE
  8
0-8
  6
CONTINUOUS
 62
    7
 10
2627.5002
 20
3553.6015
 11
2627.5002
 21
3669.7554
  0
LINE
  8
0-8
  6
CONTINUOUS
 62
    7
 10
1145.2703
 20
2543.8752
 11
950.42853
 21
2543.8752
  0
LINE
  8
0-2
  6
CONTINUOUS
 62
    3
 10
2949.9999
 20
843.87493
 11
1250.0002
 21
843.87493
  0
LINE
  8
0-8
  6
CONTINUOUS
 62
    7
 10
1108.7838
 20
843.87493
 11
950.42853
 21
843.87493
  0
LINE
  8
0-8
  6
CONTINUOUS
 62
    7
 10
2724.9999
 20
2845.1218
 11
2724.9999
 21
2683.7418
  0
LINE
  8
0-2
  6
CONTINUOUS
 62
    3
 10
2100.0001
 20
3109.5271
 11
1250.0001
 21
2852.2748
  0
LINE
  8
0-2
  6
CONTINUOUS
 62
    3
 10
1475.0001
 20
1068.8748
 11
2724.9999
 21
1068.8748
  0
LINE
  8
0-2
  6
CONTINUOUS
 62
    3
 10
2724.9999
 20
2318.8752
 11
2724.9999
 21
1068.8748
  0
LINE
  8
0-2
  6
CONTINUOUS
 62
    3
 10
1475.0001
 20
2318.8752
 11
2724.9999
 21
2318.8752
  0
LINE
  8
0-2
  6
CONTINUOUS
 62
    3
 10
1475.0001
 20
2318.8752
 11
1475.0001
 21
1068.8748
  0
LINE
  8
0-d
  6
CENTER2
 62
    7
 10
2100.0001
 20
664.86489
 11
2100.0001
 21
5186.4869
  0
LINE
  8
0-8
  6
CONTINUOUS
 62
    7
 10
1350.0001
 20
5280.7283
 11
2850.0001
 21
5280.7283
  0
LINE
  8
0-8
  6
CONTINUOUS
 62
    7
 10
1567.4998
 20
3930.1287
 11
1567.4998
 21
3814.67
  0
LINE
  8
0-8
  6
CONTINUOUS
 62
    7
 10
2632.4997
 20
3930.1287
 11
2632.4997
 21
3814.67
  0
LINE
  8
0-8
  6
CONTINUOUS
 62
    7
 10
1350
 20
5037.0357
 11
1350.0001
 21
5280.7283
  0
LINE
  8
0-8
  6
CONTINUOUS
 62
    7
 10
1604.5541
 20
5186.4874
 11
1013.275
 21
5186.4874
  0
LINE
  8
0-8
  6
CONTINUOUS
 62
    7
 10
2850.0001
 20
5037.0357
 11
2850.0001
 21
5280.7283
  0
LINE
  8
0-8
  6
CONTINUOUS
 62
    7
 10
1567.4998
 20
3814.67
 11
2632.4997
 21
3814.67
  0
LINE
  8
0-8
  6
CONTINUOUS
 62
    7
 10
1313.8967
 20
3986.4866
 11
1013.2747
 21
3986.4866
  0
LINE
  8
0-2
  6
CONTINUOUS
 62
    3
 10
1567.4998
 20
3986.4866
 11
2632.4997
 21
3986.4866
  0
LINE
  8
0-2
  6
CONTINUOUS
 62
    3
 10
1567.4998
 20
4104.4862
 11
2100.0001
 21
4104.4862
  0
LINE
  8
0-2
  6
CONTINUOUS
 62
    3
 10
1567.4998
 20
4084.9857
 11
2100.0001
 21
4084.9857
  0
LINE
  8
0-2
  6
CONTINUOUS
 62
    3
 10
1567.4998
 20
4016.4859
 11
2632.4997
 21
4016.4859
  0
LINE
  8
0-2
  6
CONTINUOUS
 62
    3
 10
1567.4998
 20
4016.4864
 11
2100.0001
 21
4016.4864
  0
LINE
  8
0-8
  6
CONTINUOUS
 62
    7
 10
1013.2747
 20
3986.4866
 11
1013.275
 21
5186.4874
  0
LINE
  8
0-2
  6
CONTINUOUS
 62
    3
 10
1567.4996
 20
4104.4864
 11
2100.0001
 21
4104.4864
  0
LINE
  8
0-2
  6
CONTINUOUS
 62
    3
 10
1567.4996
 20
4084.9857
 11
2100.0001
 21
4084.9857
  0
LINE
  8
0-2
  6
CONTINUOUS
 62
    3
 10
1567.4996
 20
4146.4873
 11
1567.4996
 21
4104.4864
  0
LINE
  8
0-2
  6
CONTINUOUS
 62
    3
 10
1350
 20
4855.9869
 11
1350
 21
4906.9882
  0
LINE
  8
0-2
  6
CONTINUOUS
 62
    3
 10
2850.0001
 20
4855.9869
 11
2850.0001
 21
4906.9882
  0
LINE
  8
0-2
  6
CONTINUOUS
 62
    3
 10
2850.0001
 20
4956.4876
 11
2850.0001
 21
4926.4875
  0
LINE
  8
0-2
  6
CONTINUOUS
 62
    3
 10
1350
 20
4956.4876
 11
1350
 21
4926.4875
  0
LINE
  8
0-2
  6
CONTINUOUS
 62
    3
 10
2100.0001
 20
5186.4869
 11
1701.6289
 21
4956.4876
  0
LINE
  8
0-2
  6
CONTINUOUS
 62
    3
 10
1350
 20
4956.4876
 11
2100.0001
 21
4956.4876
  0
LINE
  8
0-2
  6
CONTINUOUS
 62
    3
 10
1350
 20
4146.4866
 11
2100.0001
 21
4146.4866
  0
LINE
  8
0-2
  6
CONTINUOUS
 62
    3
 10
1350
 20
4926.4875
 11
2100.0001
 21
4926.4875
  0
LINE
  8
0-2
  6
CONTINUOUS
 62
    3
 10
1350
 20
4906.9882
 11
2100.0001
 21
4906.9882
  0
LINE
  8
0-2
  6
CONTINUOUS
 62
    3
 10
1350
 20
4855.9869
 11
2100.0001
 21
4855.9869
  0
LINE
  8
0-2
  6
CONTINUOUS
 62
    3
 10
1350
 20
4836.4877
 11
2100.0001
 21
4836.4877
  0
LINE
  8
0-2
  6
CONTINUOUS
 62
    3
 10
2850.0001
 20
4146.4866
 11
2632.5005
 21
4146.4866
  0
LINE
  8
0-2
  6
CONTINUOUS
 62
    3
 10
2850.0001
 20
4956.4876
 11
2498.3708
 21
4956.4876
  0
LINE
  8
0-2
  6
CONTINUOUS
 62
    3
 10
1350
 20
4246.986
 11
1350
 21
4195.9847
  0
LINE
  8
0-2
  6
CONTINUOUS
 62
    3
 10
2850.0001
 20
4146.4854
 11
2850.0001
 21
4176.4855
  0
LINE
  8
0-2
  6
CONTINUOUS
 62
    3
 10
1350
 20
4146.4854
 11
2100.0001
 21
4146.4854
  0
LINE
  8
0-2
  6
CONTINUOUS
 62
    3
 10
1350
 20
4195.9847
 11
2100.0001
 21
4195.9847
  0
LINE
  8
0-2
  6
CONTINUOUS
 62
    3
 10
1350
 20
4246.986
 11
2100.0001
 21
4246.986
  0
LINE
  8
0-2
  6
CONTINUOUS
 62
    3
 10
1350
 20
4266.4853
 11
2100.0001
 21
4266.4853
  0
LINE
  8
0-2
  6
CONTINUOUS
 62
    3
 10
1350
 20
4836.4877
 11
1350
 21
4266.4853
  0
LINE
  8
0-2
  6
CONTINUOUS
 62
    3
 10
1350
 20
4146.4854
 11
1350
 21
4176.4855
  0
LINE
  8
0-2
  6
CONTINUOUS
 62
    3
 10
1350
 20
4176.4855
 11
1350
 21
4146.4866
  0
LINE
  8
0-2
  6
CONTINUOUS
 62
    3
 10
1350
 20
4176.4855
 11
2100.0001
 21
4176.4855
  0
LINE
  8
0-2
  6
CONTINUOUS
 62
    3
 10
2850.0001
 20
4176.4855
 11
2850.0001
 21
4146.4866
  0
LINE
  8
0-2
  6
CONTINUOUS
 62
    3
 10
2850.0001
 20
4246.986
 11
2850.0001
 21
4195.9847
  0
LINE
  8
0-2
  6
CONTINUOUS
 62
    3
 10
2850.0001
 20
4836.4877
 11
2850.0001
 21
4266.4853
  0
LINE
  8
0-2
  6
CONTINUOUS
 62
    3
 10
2850.0001
 20
4176.4855
 11
2632.5005
 21
4176.4855
  0
LINE
  8
0-2
  6
CONTINUOUS
 62
    3
 10
2850.0001
 20
4195.9847
 11
2632.5005
 21
4195.9847
  0
LINE
  8
0-2
  6
CONTINUOUS
 62
    3
 10
2850.0001
 20
4246.986
 11
2632.5005
 21
4246.986
  0
LINE
  8
0-2
  6
CONTINUOUS
 62
    3
 10
2850.0001
 20
4266.4853
 11
2632.5005
 21
4266.4853
  0
LINE
  8
0-2
  6
CONTINUOUS
 62
    3
 10
2850.0001
 20
4146.4854
 11
2632.5005
 21
4146.4854
  0
LINE
  8
0-2
  6
CONTINUOUS
 62
    3
 10
2850.0001
 20
4926.4875
 11
2550.3329
 21
4926.4875
  0
LINE
  8
0-2
  6
CONTINUOUS
 62
    3
 10
2850.0001
 20
4906.9882
 11
2584.1067
 21
4906.9882
  0
LINE
  8
0-2
  6
CONTINUOUS
 62
    3
 10
2850.0001
 20
4855.9869
 11
2672.4435
 21
4855.9869
  0
LINE
  8
0-2
  6
CONTINUOUS
 62
    3
 10
2850.0001
 20
4836.4877
 11
2706.2173
 21
4836.4877
  0
LINE
  8
0-2
  6
CONTINUOUS
 62
    3
 10
1567.4998
 20
4016.4864
 11
1567.4998
 21
3986.4866
  0
LINE
  8
0-2
  6
CONTINUOUS
 62
    3
 10
1567.4996
 20
4035.9862
 11
2632.4997
 21
4035.9862
  0
LINE
  8
0-2
  6
CONTINUOUS
 62
    3
 10
1567.4996
 20
4084.9857
 11
1567.4996
 21
4035.9862
  0
LINE
  8
0-d
  6
CENTER2
 62
    7
 10
2100.0001
 20
3897.2976
 11
2100.0001
 21
5186.4869
  0
LINE
  8
0-2
  6
CONTINUOUS
 62
    3
 10
2632.5005
 20
4104.4862
 11
2100.0001
 21
4104.4862
  0
LINE
  8
0-2
  6
CONTINUOUS
 62
    3
 10
2632.5005
 20
4084.9857
 11
2100.0001
 21
4084.9857
  0
LINE
  8
0-2
  6
CONTINUOUS
 62
    3
 10
2632.5005
 20
4016.4864
 11
2100.0001
 21
4016.4864
  0
LINE
  8
0-2
  6
CONTINUOUS
 62
    3
 10
2632.5005
 20
4104.4864
 11
2100.0001
 21
4104.4864
  0
LINE
  8
0-2
  6
CONTINUOUS
 62
    3
 10
2632.5005
 20
4084.9857
 11
2100.0001
 21
4084.9857
  0
LINE
  8
0-2
  6
CONTINUOUS
 62
    3
 10
2632.5005
 20
4146.4873
 11
2632.5005
 21
4104.4864
  0
LINE
  8
0-2
  6
CONTINUOUS
 62
    3
 10
2850.0001
 20
4855.9869
 11
2850.0001
 21
4906.9882
  0
LINE
  8
0-2
  6
CONTINUOUS
 62
    3
 10
2850.0001
 20
4956.4876
 11
2850.0001
 21
4926.4875
  0
LINE
  8
0-2
  6
CONTINUOUS
 62
    3
 10
2100.0001
 20
5186.4869
 11
2498.3713
 21
4956.4876
  0
LINE
  8
0-2
  6
CONTINUOUS
 62
    3
 10
2850.0001
 20
4956.4876
 11
2100.0001
 21
4956.4876
  0
LINE
  8
0-2
  6
CONTINUOUS
 62
    3
 10
2850.0001
 20
4146.4866
 11
2100.0001
 21
4146.4866
  0
LINE
  8
0-2
  6
CONTINUOUS
 62
    3
 10
2850.0001
 20
4926.4875
 11
2100.0001
 21
4926.4875
  0
LINE
  8
0-2
  6
CONTINUOUS
 62
    3
 10
2850.0001
 20
4906.9882
 11
2100.0001
 21
4906.9882
  0
LINE
  8
0-2
  6
CONTINUOUS
 62
    3
 10
2850.0001
 20
4855.9869
 11
2100.0001
 21
4855.9869
  0
LINE
  8
0-2
  6
CONTINUOUS
 62
    3
 10
2850.0001
 20
4836.4877
 11
2100.0001
 21
4836.4877
  0
LINE
  8
0-2
  6
CONTINUOUS
 62
    3
 10
2850.0001
 20
4246.986
 11
2850.0001
 21
4195.9847
  0
LINE
  8
0-2
  6
CONTINUOUS
 62
    3
 10
2850.0001
 20
4146.4854
 11
2100.0001
 21
4146.4854
  0
LINE
  8
0-2
  6
CONTINUOUS
 62
    3
 10
2850.0001
 20
4195.9847
 11
2100.0001
 21
4195.9847
  0
LINE
  8
0-2
  6
CONTINUOUS
 62
    3
 10
2850.0001
 20
4246.986
 11
2100.0001
 21
4246.986
  0
LINE
  8
0-2
  6
CONTINUOUS
 62
    3
 10
2850.0001
 20
4266.4853
 11
2100.0001
 21
4266.4853
  0
LINE
  8
0-2
  6
CONTINUOUS
 62
    3
 10
2850.0001
 20
4836.4877
 11
2850.0001
 21
4266.4853
  0
LINE
  8
0-2
  6
CONTINUOUS
 62
    3
 10
2850.0001
 20
4146.4854
 11
2850.0001
 21
4176.4855
  0
LINE
  8
0-2
  6
CONTINUOUS
 62
    3
 10
2850.0001
 20
4176.4855
 11
2850.0001
 21
4146.4866
  0
LINE
  8
0-2
  6
CONTINUOUS
 62
    3
 10
2850.0001
 20
4176.4855
 11
2100.0001
 21
4176.4855
  0
LINE
  8
0-2
  6
CONTINUOUS
 62
    3
 10
2632.5005
 20
4016.4864
 11
2632.5005
 21
3986.4866
  0
LINE
  8
0-2
  6
CONTINUOUS
 62
    3
 10
2632.5005
 20
4084.9857
 11
2632.5005
 21
4035.9862
  0
LINE
  8
0-8
  6
CONTINUOUS
 62
    7
 10
2923.7545
 20
2920.3712
 11
3249.5716
 21
2920.3712
  0
CIRCLE
  8
0-2
  6
CONTINUOUS
 62
    3
 10
2100.0001
 20
1693.8742
 40
532.50005
  0
ARC
  8
0-2
  6
CONTINUOUS
 62
    3
 10
2627.5002
 20
3489.371
 40
5.9999829
 50
90
 51
270
  0
ARC
  8
0-2
  6
CONTINUOUS
 62
    3
 10
1572.5
 20
3489.371
 40
5.9999829
 50
270
 51
90
  0
LINE
  8
0-2
  6
CONTINUOUS
 62
    3
 10
1567.4998
 20
4104.4852
 11
1565.8863
 21
4104.3371
  0
LINE
  8
0-2
  6
CONTINUOUS
 62
    3
 10
1565.8863
 20
4104.3371
 11
1564.3218
 21
4103.8972
  0
LINE
  8
0-2
  6
CONTINUOUS
 62
    3
 10
1564.3218
 20
4103.8972
 11
1562.8539
 21
4103.179
  0
LINE
  8
0-2
  6
CONTINUOUS
 62
    3
 10
1562.8539
 20
4103.179
 11
1561.5272
 21
4102.2042
  0
LINE
  8
0-2
  6
CONTINUOUS
 62
    3
 10
1561.5272
 20
4102.2042
 11
1560.3819
 21
4101.0024
  0
LINE
  8
0-2
  6
CONTINUOUS
 62
    3
 10
1560.3819
 20
4101.0024
 11
1559.4529
 21
4099.6102
  0
LINE
  8
0-2
  6
CONTINUOUS
 62
    3
 10
1559.4529
 20
4099.6102
 11
1558.7685
 21
4098.07
  0
LINE
  8
0-2
  6
CONTINUOUS
 62
    3
 10
1558.7685
 20
4098.07
 11
1558.3493
 21
4096.4284
  0
LINE
  8
0-2
  6
CONTINUOUS
 62
    3
 10
1558.3493
 20
4096.4284
 11
1558.2081
 21
4094.7353
  0
LINE
  8
0-2
  6
CONTINUOUS
 62
    3
 10
1558.2081
 20
4094.7353
 11
1558.3493
 21
4093.0422
  0
LINE
  8
0-2
  6
CONTINUOUS
 62
    3
 10
1558.3493
 20
4093.0422
 11
1558.7685
 21
4091.4006
  0
LINE
  8
0-2
  6
CONTINUOUS
 62
    3
 10
1558.7685
 20
4091.4006
 11
1559.4529
 21
4089.8603
  0
LINE
  8
0-2
  6
CONTINUOUS
 62
    3
 10
1559.4529
 20
4089.8603
 11
1560.3819
 21
4088.4682
  0
LINE
  8
0-2
  6
CONTINUOUS
 62
    3
 10
1560.3819
 20
4088.4682
 11
1561.5272
 21
4087.2664
  0
LINE
  8
0-2
  6
CONTINUOUS
 62
    3
 10
1561.5272
 20
4087.2664
 11
1562.8539
 21
4086.2916
  0
LINE
  8
0-2
  6
CONTINUOUS
 62
    3
 10
1562.8539
 20
4086.2916
 11
1564.3218
 21
4085.5734
  0
LINE
  8
0-2
  6
CONTINUOUS
 62
    3
 10
1564.3218
 20
4085.5734
 11
1565.8863
 21
4085.1335
  0
LINE
  8
0-2
  6
CONTINUOUS
 62
    3
 10
1565.8863
 20
4085.1335
 11
1567.4998
 21
4084.9854
  0
LINE
  8
0-2
  6
CONTINUOUS
 62
    3
 10
1567.4998
 20
4035.9859
 11
1565.8863
 21
4035.8378
  0
LINE
  8
0-2
  6
CONTINUOUS
 62
    3
 10
1565.8863
 20
4035.8378
 11
1564.3218
 21
4035.3979
  0
LINE
  8
0-2
  6
CONTINUOUS
 62
    3
 10
1564.3218
 20
4035.3979
 11
1562.8539
 21
4034.6797
  0
LINE
  8
0-2
  6
CONTINUOUS
 62
    3
 10
1562.8539
 20
4034.6797
 11
1561.5272
 21
4033.7049
  0
LINE
  8
0-2
  6
CONTINUOUS
 62
    3
 10
1561.5272
 20
4033.7049
 11
1560.3819
 21
4032.5031
  0
LINE
  8
0-2
  6
CONTINUOUS
 62
    3
 10
1560.3819
 20
4032.5031
 11
1559.4529
 21
4031.111
  0
LINE
  8
0-2
  6
CONTINUOUS
 62
    3
 10
1559.4529
 20
4031.111
 11
1558.7685
 21
4029.5707
  0
LINE
  8
0-2
  6
CONTINUOUS
 62
    3
 10
1558.7685
 20
4029.5707
 11
1558.3493
 21
4027.9291
  0
LINE
  8
0-2
  6
CONTINUOUS
 62
    3
 10
1558.3493
 20
4027.9291
 11
1558.2081
 21
4026.236
  0
LINE
  8
0-2
  6
CONTINUOUS
 62
    3
 10
1558.2081
 20
4026.236
 11
1558.3493
 21
4024.543
  0
LINE
  8
0-2
  6
CONTINUOUS
 62
    3
 10
1558.3493
 20
4024.543
 11
1558.7685
 21
4022.9014
  0
LINE
  8
0-2
  6
CONTINUOUS
 62
    3
 10
1558.7685
 20
4022.9014
 11
1559.4529
 21
4021.3611
  0
LINE
  8
0-2
  6
CONTINUOUS
 62
    3
 10
1559.4529
 20
4021.3611
 11
1560.3819
 21
4019.9689
  0
LINE
  8
0-2
  6
CONTINUOUS
 62
    3
 10
1560.3819
 20
4019.9689
 11
1561.5272
 21
4018.7672
  0
LINE
  8
0-2
  6
CONTINUOUS
 62
    3
 10
1561.5272
 20
4018.7672
 11
1562.8539
 21
4017.7924
  0
LINE
  8
0-2
  6
CONTINUOUS
 62
    3
 10
1562.8539
 20
4017.7924
 11
1564.3218
 21
4017.0741
  0
LINE
  8
0-2
  6
CONTINUOUS
 62
    3
 10
1564.3218
 20
4017.0741
 11
1565.8863
 21
4016.6343
  0
LINE
  8
0-2
  6
CONTINUOUS
 62
    3
 10
1565.8863
 20
4016.6343
 11
1567.4998
 21
4016.4861
  0
LINE
  8
0-2
  6
CONTINUOUS
 62
    3
 10
1567.4996
 20
4104.4852
 11
1565.8862
 21
4104.3371
  0
LINE
  8
0-2
  6
CONTINUOUS
 62
    3
 10
1565.8862
 20
4104.3371
 11
1564.3217
 21
4103.8972
  0
LINE
  8
0-2
  6
CONTINUOUS
 62
    3
 10
1564.3217
 20
4103.8972
 11
1562.8538
 21
4103.179
  0
LINE
  8
0-2
  6
CONTINUOUS
 62
    3
 10
1562.8538
 20
4103.179
 11
1561.5271
 21
4102.2042
  0
LINE
  8
0-2
  6
CONTINUOUS
 62
    3
 10
1561.5271
 20
4102.2042
 11
1560.3818
 21
4101.0024
  0
LINE
  8
0-2
  6
CONTINUOUS
 62
    3
 10
1560.3818
 20
4101.0024
 11
1559.4528
 21
4099.6102
  0
LINE
  8
0-2
  6
CONTINUOUS
 62
    3
 10
1559.4528
 20
4099.6102
 11
1558.7683
 21
4098.07
  0
LINE
  8
0-2
  6
CONTINUOUS
 62
    3
 10
1558.7683
 20
4098.07
 11
1558.3491
 21
4096.4284
  0
LINE
  8
0-2
  6
CONTINUOUS
 62
    3
 10
1558.3491
 20
4096.4284
 11
1558.208
 21
4094.7353
  0
LINE
  8
0-2
  6
CONTINUOUS
 62
    3
 10
1558.208
 20
4094.7353
 11
1558.3491
 21
4093.0422
  0
LINE
  8
0-2
  6
CONTINUOUS
 62
    3
 10
1558.3491
 20
4093.0422
 11
1558.7683
 21
4091.4006
  0
LINE
  8
0-2
  6
CONTINUOUS
 62
    3
 10
1558.7683
 20
4091.4006
 11
1559.4528
 21
4089.8603
  0
LINE
  8
0-2
  6
CONTINUOUS
 62
    3
 10
1559.4528
 20
4089.8603
 11
1560.3818
 21
4088.4682
  0
LINE
  8
0-2
  6
CONTINUOUS
 62
    3
 10
1560.3818
 20
4088.4682
 11
1561.5271
 21
4087.2664
  0
LINE
  8
0-2
  6
CONTINUOUS
 62
    3
 10
1561.5271
 20
4087.2664
 11
1562.8538
 21
4086.2916
  0
LINE
  8
0-2
  6
CONTINUOUS
 62
    3
 10
1562.8538
 20
4086.2916
 11
1564.3217
 21
4085.5734
  0
LINE
  8
0-2
  6
CONTINUOUS
 62
    3
 10
1564.3217
 20
4085.5734
 11
1565.8862
 21
4085.1335
  0
LINE
  8
0-2
  6
CONTINUOUS
 62
    3
 10
1565.8862
 20
4085.1335
 11
1567.4996
 21
4084.9854
  0
LINE
  8
0-2
  6
CONTINUOUS
 62
    3
 10
1350
 20
4855.9877
 11
1348.3865
 21
4855.8396
  0
LINE
  8
0-2
  6
CONTINUOUS
 62
    3
 10
1348.3865
 20
4855.8396
 11
1346.8221
 21
4855.3997
  0
LINE
  8
0-2
  6
CONTINUOUS
 62
    3
 10
1346.8221
 20
4855.3997
 11
1345.3542
 21
4854.6815
  0
LINE
  8
0-2
  6
CONTINUOUS
 62
    3
 10
1345.3542
 20
4854.6815
 11
1344.0275
 21
4853.7066
  0
LINE
  8
0-2
  6
CONTINUOUS
 62
    3
 10
1344.0275
 20
4853.7066
 11
1342.8822
 21
4852.5049
  0
LINE
  8
0-2
  6
CONTINUOUS
 62
    3
 10
1342.8822
 20
4852.5049
 11
1341.9532
 21
4851.1127
  0
LINE
  8
0-2
  6
CONTINUOUS
 62
    3
 10
1341.9532
 20
4851.1127
 11
1341.2687
 21
4849.5725
  0
LINE
  8
0-2
  6
CONTINUOUS
 62
    3
 10
1341.2687
 20
4849.5725
 11
1340.8495
 21
4847.9308
  0
LINE
  8
0-2
  6
CONTINUOUS
 62
    3
 10
1340.8495
 20
4847.9308
 11
1340.7084
 21
4846.2378
  0
LINE
  8
0-2
  6
CONTINUOUS
 62
    3
 10
1340.7084
 20
4846.2378
 11
1340.8495
 21
4844.5447
  0
LINE
  8
0-2
  6
CONTINUOUS
 62
    3
 10
1340.8495
 20
4844.5447
 11
1341.2687
 21
4842.9031
  0
LINE
  8
0-2
  6
CONTINUOUS
 62
    3
 10
1341.2687
 20
4842.9031
 11
1341.9532
 21
4841.3628
  0
LINE
  8
0-2
  6
CONTINUOUS
 62
    3
 10
1341.9532
 20
4841.3628
 11
1342.8822
 21
4839.9707
  0
LINE
  8
0-2
  6
CONTINUOUS
 62
    3
 10
1342.8822
 20
4839.9707
 11
1344.0275
 21
4838.7689
  0
LINE
  8
0-2
  6
CONTINUOUS
 62
    3
 10
1344.0275
 20
4838.7689
 11
1345.3542
 21
4837.7941
  0
LINE
  8
0-2
  6
CONTINUOUS
 62
    3
 10
1345.3542
 20
4837.7941
 11
1346.8221
 21
4837.0759
  0
LINE
  8
0-2
  6
CONTINUOUS
 62
    3
 10
1346.8221
 20
4837.0759
 11
1348.3865
 21
4836.636
  0
LINE
  8
0-2
  6
CONTINUOUS
 62
    3
 10
1348.3865
 20
4836.636
 11
1350
 21
4836.4879
  0
LINE
  8
0-2
  6
CONTINUOUS
 62
    3
 10
1350
 20
4926.4883
 11
1348.3865
 21
4926.3401
  0
LINE
  8
0-2
  6
CONTINUOUS
 62
    3
 10
1348.3865
 20
4926.3401
 11
1346.8221
 21
4925.9003
  0
LINE
  8
0-2
  6
CONTINUOUS
 62
    3
 10
1346.8221
 20
4925.9003
 11
1345.3542
 21
4925.182
  0
LINE
  8
0-2
  6
CONTINUOUS
 62
    3
 10
1345.3542
 20
4925.182
 11
1344.0275
 21
4924.2072
  0
LINE
  8
0-2
  6
CONTINUOUS
 62
    3
 10
1344.0275
 20
4924.2072
 11
1342.8822
 21
4923.0055
  0
LINE
  8
0-2
  6
CONTINUOUS
 62
    3
 10
1342.8822
 20
4923.0055
 11
1341.9532
 21
4921.6133
  0
LINE
  8
0-2
  6
CONTINUOUS
 62
    3
 10
1341.9532
 20
4921.6133
 11
1341.2687
 21
4920.073
  0
LINE
  8
0-2
  6
CONTINUOUS
 62
    3
 10
1341.2687
 20
4920.073
 11
1340.8495
 21
4918.4314
  0
LINE
  8
0-2
  6
CONTINUOUS
 62
    3
 10
1340.8495
 20
4918.4314
 11
1340.7084
 21
4916.7383
  0
LINE
  8
0-2
  6
CONTINUOUS
 62
    3
 10
1340.7084
 20
4916.7383
 11
1340.8495
 21
4915.0453
  0
LINE
  8
0-2
  6
CONTINUOUS
 62
    3
 10
1340.8495
 20
4915.0453
 11
1341.2687
 21
4913.4037
  0
LINE
  8
0-2
  6
CONTINUOUS
 62
    3
 10
1341.2687
 20
4913.4037
 11
1341.9532
 21
4911.8634
  0
LINE
  8
0-2
  6
CONTINUOUS
 62
    3
 10
1341.9532
 20
4911.8634
 11
1342.8822
 21
4910.4712
  0
LINE
  8
0-2
  6
CONTINUOUS
 62
    3
 10
1342.8822
 20
4910.4712
 11
1344.0275
 21
4909.2695
  0
LINE
  8
0-2
  6
CONTINUOUS
 62
    3
 10
1344.0275
 20
4909.2695
 11
1345.3542
 21
4908.2947
  0
LINE
  8
0-2
  6
CONTINUOUS
 62
    3
 10
1345.3542
 20
4908.2947
 11
1346.8221
 21
4907.5764
  0
LINE
  8
0-2
  6
CONTINUOUS
 62
    3
 10
1346.8221
 20
4907.5764
 11
1348.3865
 21
4907.1366
  0
LINE
  8
0-2
  6
CONTINUOUS
 62
    3
 10
1348.3865
 20
4907.1366
 11
1350
 21
4906.9884
  0
LINE
  8
0-2
  6
CONTINUOUS
 62
    3
 10
2850.0001
 20
4836.4879
 11
2851.6136
 21
4836.636
  0
LINE
  8
0-2
  6
CONTINUOUS
 62
    3
 10
2851.6136
 20
4836.636
 11
2853.178
 21
4837.0759
  0
LINE
  8
0-2
  6
CONTINUOUS
 62
    3
 10
2853.178
 20
4837.0759
 11
2854.6459
 21
4837.7941
  0
LINE
  8
0-2
  6
CONTINUOUS
 62
    3
 10
2854.6459
 20
4837.7941
 11
2855.9727
 21
4838.7689
  0
LINE
  8
0-2
  6
CONTINUOUS
 62
    3
 10
2855.9727
 20
4838.7689
 11
2857.1179
 21
4839.9707
  0
LINE
  8
0-2
  6
CONTINUOUS
 62
    3
 10
2857.1179
 20
4839.9707
 11
2858.0469
 21
4841.3628
  0
LINE
  8
0-2
  6
CONTINUOUS
 62
    3
 10
2858.0469
 20
4841.3628
 11
2858.7314
 21
4842.9031
  0
LINE
  8
0-2
  6
CONTINUOUS
 62
    3
 10
2858.7314
 20
4842.9031
 11
2859.1506
 21
4844.5447
  0
LINE
  8
0-2
  6
CONTINUOUS
 62
    3
 10
2859.1506
 20
4844.5447
 11
2859.2918
 21
4846.2378
  0
LINE
  8
0-2
  6
CONTINUOUS
 62
    3
 10
2859.2918
 20
4846.2378
 11
2859.1506
 21
4847.9308
  0
LINE
  8
0-2
  6
CONTINUOUS
 62
    3
 10
2859.1506
 20
4847.9308
 11
2858.7314
 21
4849.5725
  0
LINE
  8
0-2
  6
CONTINUOUS
 62
    3
 10
2858.7314
 20
4849.5725
 11
2858.0469
 21
4851.1127
  0
LINE
  8
0-2
  6
CONTINUOUS
 62
    3
 10
2858.0469
 20
4851.1127
 11
2857.1179
 21
4852.5049
  0
LINE
  8
0-2
  6
CONTINUOUS
 62
    3
 10
2857.1179
 20
4852.5049
 11
2855.9727
 21
4853.7066
  0
LINE
  8
0-2
  6
CONTINUOUS
 62
    3
 10
2855.9727
 20
4853.7066
 11
2854.6459
 21
4854.6815
  0
LINE
  8
0-2
  6
CONTINUOUS
 62
    3
 10
2854.6459
 20
4854.6815
 11
2853.178
 21
4855.3997
  0
LINE
  8
0-2
  6
CONTINUOUS
 62
    3
 10
2853.178
 20
4855.3997
 11
2851.6136
 21
4855.8396
  0
LINE
  8
0-2
  6
CONTINUOUS
 62
    3
 10
2851.6136
 20
4855.8396
 11
2850.0001
 21
4855.9877
  0
LINE
  8
0-2
  6
CONTINUOUS
 62
    3
 10
2850.0001
 20
4906.9884
 11
2851.6136
 21
4907.1366
  0
LINE
  8
0-2
  6
CONTINUOUS
 62
    3
 10
2851.6136
 20
4907.1366
 11
2853.178
 21
4907.5764
  0
LINE
  8
0-2
  6
CONTINUOUS
 62
    3
 10
2853.178
 20
4907.5764
 11
2854.6459
 21
4908.2947
  0
LINE
  8
0-2
  6
CONTINUOUS
 62
    3
 10
2854.6459
 20
4908.2947
 11
2855.9727
 21
4909.2695
  0
LINE
  8
0-2
  6
CONTINUOUS
 62
    3
 10
2855.9727
 20
4909.2695
 11
2857.1179
 21
4910.4712
  0
LINE
  8
0-2
  6
CONTINUOUS
 62
    3
 10
2857.1179
 20
4910.4712
 11
2858.0469
 21
4911.8634
  0
LINE
  8
0-2
  6
CONTINUOUS
 62
    3
 10
2858.0469
 20
4911.8634
 11
2858.7314
 21
4913.4037
  0
LINE
  8
0-2
  6
CONTINUOUS
 62
    3
 10
2858.7314
 20
4913.4037
 11
2859.1506
 21
4915.0453
  0
LINE
  8
0-2
  6
CONTINUOUS
 62
    3
 10
2859.1506
 20
4915.0453
 11
2859.2918
 21
4916.7383
  0
LINE
  8
0-2
  6
CONTINUOUS
 62
    3
 10
2859.2918
 20
4916.7383
 11
2859.1506
 21
4918.4314
  0
LINE
  8
0-2
  6
CONTINUOUS
 62
    3
 10
2859.1506
 20
4918.4314
 11
2858.7314
 21
4920.073
  0
LINE
  8
0-2
  6
CONTINUOUS
 62
    3
 10
2858.7314
 20
4920.073
 11
2858.0469
 21
4921.6133
  0
LINE
  8
0-2
  6
CONTINUOUS
 62
    3
 10
2858.0469
 20
4921.6133
 11
2857.1179
 21
4923.0055
  0
LINE
  8
0-2
  6
CONTINUOUS
 62
    3
 10
2857.1179
 20
4923.0055
 11
2855.9727
 21
4924.2072
  0
LINE
  8
0-2
  6
CONTINUOUS
 62
    3
 10
2855.9727
 20
4924.2072
 11
2854.6459
 21
4925.182
  0
LINE
  8
0-2
  6
CONTINUOUS
 62
    3
 10
2854.6459
 20
4925.182
 11
2853.178
 21
4925.9003
  0
LINE
  8
0-2
  6
CONTINUOUS
 62
    3
 10
2853.178
 20
4925.9003
 11
2851.6136
 21
4926.3401
  0
LINE
  8
0-2
  6
CONTINUOUS
 62
    3
 10
2851.6136
 20
4926.3401
 11
2850.0001
 21
4926.4883
  0
LINE
  8
0-2
  6
CONTINUOUS
 62
    3
 10
1350
 20
4266.485
 11
1348.3865
 21
4266.3369
  0
LINE
  8
0-2
  6
CONTINUOUS
 62
    3
 10
1348.3865
 20
4266.3369
 11
1346.8221
 21
4265.8971
  0
LINE
  8
0-2
  6
CONTINUOUS
 62
    3
 10
1346.8221
 20
4265.8971
 11
1345.3542
 21
4265.1788
  0
LINE
  8
0-2
  6
CONTINUOUS
 62
    3
 10
1345.3542
 20
4265.1788
 11
1344.0275
 21
4264.204
  0
LINE
  8
0-2
  6
CONTINUOUS
 62
    3
 10
1344.0275
 20
4264.204
 11
1342.8822
 21
4263.0023
  0
LINE
  8
0-2
  6
CONTINUOUS
 62
    3
 10
1342.8822
 20
4263.0023
 11
1341.9532
 21
4261.6101
  0
LINE
  8
0-2
  6
CONTINUOUS
 62
    3
 10
1341.9532
 20
4261.6101
 11
1341.2687
 21
4260.0698
  0
LINE
  8
0-2
  6
CONTINUOUS
 62
    3
 10
1341.2687
 20
4260.0698
 11
1340.8495
 21
4258.4282
  0
LINE
  8
0-2
  6
CONTINUOUS
 62
    3
 10
1340.8495
 20
4258.4282
 11
1340.7084
 21
4256.7351
  0
LINE
  8
0-2
  6
CONTINUOUS
 62
    3
 10
1340.7084
 20
4256.7351
 11
1340.8495
 21
4255.0421
  0
LINE
  8
0-2
  6
CONTINUOUS
 62
    3
 10
1340.8495
 20
4255.0421
 11
1341.2687
 21
4253.4005
  0
LINE
  8
0-2
  6
CONTINUOUS
 62
    3
 10
1341.2687
 20
4253.4005
 11
1341.9532
 21
4251.8602
  0
LINE
  8
0-2
  6
CONTINUOUS
 62
    3
 10
1341.9532
 20
4251.8602
 11
1342.8822
 21
4250.468
  0
LINE
  8
0-2
  6
CONTINUOUS
 62
    3
 10
1342.8822
 20
4250.468
 11
1344.0275
 21
4249.2663
  0
LINE
  8
0-2
  6
CONTINUOUS
 62
    3
 10
1344.0275
 20
4249.2663
 11
1345.3542
 21
4248.2915
  0
LINE
  8
0-2
  6
CONTINUOUS
 62
    3
 10
1345.3542
 20
4248.2915
 11
1346.8221
 21
4247.5732
  0
LINE
  8
0-2
  6
CONTINUOUS
 62
    3
 10
1346.8221
 20
4247.5732
 11
1348.3865
 21
4247.1334
  0
LINE
  8
0-2
  6
CONTINUOUS
 62
    3
 10
1348.3865
 20
4247.1334
 11
1350
 21
4246.9852
  0
LINE
  8
0-2
  6
CONTINUOUS
 62
    3
 10
1350
 20
4195.9845
 11
1348.3865
 21
4195.8364
  0
LINE
  8
0-2
  6
CONTINUOUS
 62
    3
 10
1348.3865
 20
4195.8364
 11
1346.8221
 21
4195.3965
  0
LINE
  8
0-2
  6
CONTINUOUS
 62
    3
 10
1346.8221
 20
4195.3965
 11
1345.3542
 21
4194.6783
  0
LINE
  8
0-2
  6
CONTINUOUS
 62
    3
 10
1345.3542
 20
4194.6783
 11
1344.0275
 21
4193.7034
  0
LINE
  8
0-2
  6
CONTINUOUS
 62
    3
 10
1344.0275
 20
4193.7034
 11
1342.8822
 21
4192.5017
  0
LINE
  8
0-2
  6
CONTINUOUS
 62
    3
 10
1342.8822
 20
4192.5017
 11
1341.9532
 21
4191.1095
  0
LINE
  8
0-2
  6
CONTINUOUS
 62
    3
 10
1341.9532
 20
4191.1095
 11
1341.2687
 21
4189.5693
  0
LINE
  8
0-2
  6
CONTINUOUS
 62
    3
 10
1341.2687
 20
4189.5693
 11
1340.8495
 21
4187.9276
  0
LINE
  8
0-2
  6
CONTINUOUS
 62
    3
 10
1340.8495
 20
4187.9276
 11
1340.7084
 21
4186.2346
  0
LINE
  8
0-2
  6
CONTINUOUS
 62
    3
 10
1340.7084
 20
4186.2346
 11
1340.8495
 21
4184.5415
  0
LINE
  8
0-2
  6
CONTINUOUS
 62
    3
 10
1340.8495
 20
4184.5415
 11
1341.2687
 21
4182.8999
  0
LINE
  8
0-2
  6
CONTINUOUS
 62
    3
 10
1341.2687
 20
4182.8999
 11
1341.9532
 21
4181.3596
  0
LINE
  8
0-2
  6
CONTINUOUS
 62
    3
 10
1341.9532
 20
4181.3596
 11
1342.8822
 21
4179.9675
  0
LINE
  8
0-2
  6
CONTINUOUS
 62
    3
 10
1342.8822
 20
4179.9675
 11
1344.0275
 21
4178.7657
  0
LINE
  8
0-2
  6
CONTINUOUS
 62
    3
 10
1344.0275
 20
4178.7657
 11
1345.3542
 21
4177.7909
  0
LINE
  8
0-2
  6
CONTINUOUS
 62
    3
 10
1345.3542
 20
4177.7909
 11
1346.8221
 21
4177.0727
  0
LINE
  8
0-2
  6
CONTINUOUS
 62
    3
 10
1346.8221
 20
4177.0727
 11
1348.3865
 21
4176.6328
  0
LINE
  8
0-2
  6
CONTINUOUS
 62
    3
 10
1348.3865
 20
4176.6328
 11
1350
 21
4176.4847
  0
LINE
  8
0-2
  6
CONTINUOUS
 62
    3
 10
2850.0001
 20
4246.9852
 11
2851.6136
 21
4247.1334
  0
LINE
  8
0-2
  6
CONTINUOUS
 62
    3
 10
2851.6136
 20
4247.1334
 11
2853.178
 21
4247.5732
  0
LINE
  8
0-2
  6
CONTINUOUS
 62
    3
 10
2853.178
 20
4247.5732
 11
2854.6459
 21
4248.2915
  0
LINE
  8
0-2
  6
CONTINUOUS
 62
    3
 10
2854.6459
 20
4248.2915
 11
2855.9727
 21
4249.2663
  0
LINE
  8
0-2
  6
CONTINUOUS
 62
    3
 10
2855.9727
 20
4249.2663
 11
2857.1179
 21
4250.468
  0
LINE
  8
0-2
  6
CONTINUOUS
 62
    3
 10
2857.1179
 20
4250.468
 11
2858.0469
 21
4251.8602
  0
LINE
  8
0-2
  6
CONTINUOUS
 62
    3
 10
2858.0469
 20
4251.8602
 11
2858.7314
 21
4253.4005
  0
LINE
  8
0-2
  6
CONTINUOUS
 62
    3
 10
2858.7314
 20
4253.4005
 11
2859.1506
 21
4255.0421
  0
LINE
  8
0-2
  6
CONTINUOUS
 62
    3
 10
2859.1506
 20
4255.0421
 11
2859.2918
 21
4256.7351
  0
LINE
  8
0-2
  6
CONTINUOUS
 62
    3
 10
2859.2918
 20
4256.7351
 11
2859.1506
 21
4258.4282
  0
LINE
  8
0-2
  6
CONTINUOUS
 62
    3
 10
2859.1506
 20
4258.4282
 11
2858.7314
 21
4260.0698
  0
LINE
  8
0-2
  6
CONTINUOUS
 62
    3
 10
2858.7314
 20
4260.0698
 11
2858.0469
 21
4261.6101
  0
LINE
  8
0-2
  6
CONTINUOUS
 62
    3
 10
2858.0469
 20
4261.6101
 11
2857.1179
 21
4263.0023
  0
LINE
  8
0-2
  6
CONTINUOUS
 62
    3
 10
2857.1179
 20
4263.0023
 11
2855.9727
 21
4264.204
  0
LINE
  8
0-2
  6
CONTINUOUS
 62
    3
 10
2855.9727
 20
4264.204
 11
2854.6459
 21
4265.1788
  0
LINE
  8
0-2
  6
CONTINUOUS
 62
    3
 10
2854.6459
 20
4265.1788
 11
2853.178
 21
4265.8971
  0
LINE
  8
0-2
  6
CONTINUOUS
 62
    3
 10
2853.178
 20
4265.8971
 11
2851.6136
 21
4266.3369
  0
LINE
  8
0-2
  6
CONTINUOUS
 62
    3
 10
2851.6136
 20
4266.3369
 11
2850.0001
 21
4266.485
  0
LINE
  8
0-2
  6
CONTINUOUS
 62
    3
 10
2850.0001
 20
4176.4847
 11
2851.6136
 21
4176.6328
  0
LINE
  8
0-2
  6
CONTINUOUS
 62
    3
 10
2851.6136
 20
4176.6328
 11
2853.178
 21
4177.0727
  0
LINE
  8
0-2
  6
CONTINUOUS
 62
    3
 10
2853.178
 20
4177.0727
 11
2854.6459
 21
4177.7909
  0
LINE
  8
0-2
  6
CONTINUOUS
 62
    3
 10
2854.6459
 20
4177.7909
 11
2855.9727
 21
4178.7657
  0
LINE
  8
0-2
  6
CONTINUOUS
 62
    3
 10
2855.9727
 20
4178.7657
 11
2857.1179
 21
4179.9675
  0
LINE
  8
0-2
  6
CONTINUOUS
 62
    3
 10
2857.1179
 20
4179.9675
 11
2858.0469
 21
4181.3596
  0
LINE
  8
0-2
  6
CONTINUOUS
 62
    3
 10
2858.0469
 20
4181.3596
 11
2858.7314
 21
4182.8999
  0
LINE
  8
0-2
  6
CONTINUOUS
 62
    3
 10
2858.7314
 20
4182.8999
 11
2859.1506
 21
4184.5415
  0
LINE
  8
0-2
  6
CONTINUOUS
 62
    3
 10
2859.1506
 20
4184.5415
 11
2859.2918
 21
4186.2346
  0
LINE
  8
0-2
  6
CONTINUOUS
 62
    3
 10
2859.2918
 20
4186.2346
 11
2859.1506
 21
4187.9276
  0
LINE
  8
0-2
  6
CONTINUOUS
 62
    3
 10
2859.1506
 20
4187.9276
 11
2858.7314
 21
4189.5693
  0
LINE
  8
0-2
  6
CONTINUOUS
 62
    3
 10
2858.7314
 20
4189.5693
 11
2858.0469
 21
4191.1095
  0
LINE
  8
0-2
  6
CONTINUOUS
 62
    3
 10
2858.0469
 20
4191.1095
 11
2857.1179
 21
4192.5017
  0
LINE
  8
0-2
  6
CONTINUOUS
 62
    3
 10
2857.1179
 20
4192.5017
 11
2855.9727
 21
4193.7034
  0
LINE
  8
0-2
  6
CONTINUOUS
 62
    3
 10
2855.9727
 20
4193.7034
 11
2854.6459
 21
4194.6783
  0
LINE
  8
0-2
  6
CONTINUOUS
 62
    3
 10
2854.6459
 20
4194.6783
 11
2853.178
 21
4195.3965
  0
LINE
  8
0-2
  6
CONTINUOUS
 62
    3
 10
2853.178
 20
4195.3965
 11
2851.6136
 21
4195.8364
  0
LINE
  8
0-2
  6
CONTINUOUS
 62
    3
 10
2851.6136
 20
4195.8364
 11
2850.0001
 21
4195.9845
  0
LINE
  8
0-2
  6
CONTINUOUS
 62
    3
 10
2632.5005
 20
4084.9854
 11
2634.114
 21
4085.1335
  0
LINE
  8
0-2
  6
CONTINUOUS
 62
    3
 10
2634.114
 20
4085.1335
 11
2635.6784
 21
4085.5734
  0
LINE
  8
0-2
  6
CONTINUOUS
 62
    3
 10
2635.6784
 20
4085.5734
 11
2637.1463
 21
4086.2916
  0
LINE
  8
0-2
  6
CONTINUOUS
 62
    3
 10
2637.1463
 20
4086.2916
 11
2638.473
 21
4087.2664
  0
LINE
  8
0-2
  6
CONTINUOUS
 62
    3
 10
2638.473
 20
4087.2664
 11
2639.6183
 21
4088.4682
  0
LINE
  8
0-2
  6
CONTINUOUS
 62
    3
 10
2639.6183
 20
4088.4682
 11
2640.5473
 21
4089.8603
  0
LINE
  8
0-2
  6
CONTINUOUS
 62
    3
 10
2640.5473
 20
4089.8603
 11
2641.2318
 21
4091.4006
  0
LINE
  8
0-2
  6
CONTINUOUS
 62
    3
 10
2641.2318
 20
4091.4006
 11
2641.651
 21
4093.0422
  0
LINE
  8
0-2
  6
CONTINUOUS
 62
    3
 10
2641.651
 20
4093.0422
 11
2641.7921
 21
4094.7353
  0
LINE
  8
0-2
  6
CONTINUOUS
 62
    3
 10
2641.7921
 20
4094.7353
 11
2641.651
 21
4096.4284
  0
LINE
  8
0-2
  6
CONTINUOUS
 62
    3
 10
2641.651
 20
4096.4284
 11
2641.2318
 21
4098.07
  0
LINE
  8
0-2
  6
CONTINUOUS
 62
    3
 10
2641.2318
 20
4098.07
 11
2640.5473
 21
4099.6102
  0
LINE
  8
0-2
  6
CONTINUOUS
 62
    3
 10
2640.5473
 20
4099.6102
 11
2639.6183
 21
4101.0024
  0
LINE
  8
0-2
  6
CONTINUOUS
 62
    3
 10
2639.6183
 20
4101.0024
 11
2638.473
 21
4102.2042
  0
LINE
  8
0-2
  6
CONTINUOUS
 62
    3
 10
2638.473
 20
4102.2042
 11
2637.1463
 21
4103.179
  0
LINE
  8
0-2
  6
CONTINUOUS
 62
    3
 10
2637.1463
 20
4103.179
 11
2635.6784
 21
4103.8972
  0
LINE
  8
0-2
  6
CONTINUOUS
 62
    3
 10
2635.6784
 20
4103.8972
 11
2634.114
 21
4104.3371
  0
LINE
  8
0-2
  6
CONTINUOUS
 62
    3
 10
2634.114
 20
4104.3371
 11
2632.5005
 21
4104.4852
  0
LINE
  8
0-2
  6
CONTINUOUS
 62
    3
 10
2632.5005
 20
4016.4861
 11
2634.114
 21
4016.6343
  0
LINE
  8
0-2
  6
CONTINUOUS
 62
    3
 10
2634.114
 20
4016.6343
 11
2635.6784
 21
4017.0741
  0
LINE
  8
0-2
  6
CONTINUOUS
 62
    3
 10
2635.6784
 20
4017.0741
 11
2637.1463
 21
4017.7924
  0
LINE
  8
0-2
  6
CONTINUOUS
 62
    3
 10
2637.1463
 20
4017.7924
 11
2638.473
 21
4018.7672
  0
LINE
  8
0-2
  6
CONTINUOUS
 62
    3
 10
2638.473
 20
4018.7672
 11
2639.6183
 21
4019.9689
  0
LINE
  8
0-2
  6
CONTINUOUS
 62
    3
 10
2639.6183
 20
4019.9689
 11
2640.5473
 21
4021.3611
  0
LINE
  8
0-2
  6
CONTINUOUS
 62
    3
 10
2640.5473
 20
4021.3611
 11
2641.2318
 21
4022.9014
  0
LINE
  8
0-2
  6
CONTINUOUS
 62
    3
 10
2641.2318
 20
4022.9014
 11
2641.651
 21
4024.543
  0
LINE
  8
0-2
  6
CONTINUOUS
 62
    3
 10
2641.651
 20
4024.543
 11
2641.7921
 21
4026.236
  0
LINE
  8
0-2
  6
CONTINUOUS
 62
    3
 10
2641.7921
 20
4026.236
 11
2641.651
 21
4027.9291
  0
LINE
  8
0-2
  6
CONTINUOUS
 62
    3
 10
2641.651
 20
4027.9291
 11
2641.2318
 21
4029.5707
  0
LINE
  8
0-2
  6
CONTINUOUS
 62
    3
 10
2641.2318
 20
4029.5707
 11
2640.5473
 21
4031.111
  0
LINE
  8
0-2
  6
CONTINUOUS
 62
    3
 10
2640.5473
 20
4031.111
 11
2639.6183
 21
4032.5031
  0
LINE
  8
0-2
  6
CONTINUOUS
 62
    3
 10
2639.6183
 20
4032.5031
 11
2638.473
 21
4033.7049
  0
LINE
  8
0-2
  6
CONTINUOUS
 62
    3
 10
2638.473
 20
4033.7049
 11
2637.1463
 21
4034.6797
  0
LINE
  8
0-2
  6
CONTINUOUS
 62
    3
 10
2637.1463
 20
4034.6797
 11
2635.6784
 21
4035.3979
  0
LINE
  8
0-2
  6
CONTINUOUS
 62
    3
 10
2635.6784
 20
4035.3979
 11
2634.114
 21
4035.8378
  0
LINE
  8
0-2
  6
CONTINUOUS
 62
    3
 10
2634.114
 20
4035.8378
 11
2632.5005
 21
4035.9859
  0
LINE
  8
0-2
  6
CONTINUOUS
 62
    3
 10
2632.5005
 20
4084.9854
 11
2634.114
 21
4085.1335
  0
LINE
  8
0-2
  6
CONTINUOUS
 62
    3
 10
2634.114
 20
4085.1335
 11
2635.6784
 21
4085.5734
  0
LINE
  8
0-2
  6
CONTINUOUS
 62
    3
 10
2635.6784
 20
4085.5734
 11
2637.1463
 21
4086.2916
  0
LINE
  8
0-2
  6
CONTINUOUS
 62
    3
 10
2637.1463
 20
4086.2916
 11
2638.473
 21
4087.2664
  0
LINE
  8
0-2
  6
CONTINUOUS
 62
    3
 10
2638.473
 20
4087.2664
 11
2639.6183
 21
4088.4682
  0
LINE
  8
0-2
  6
CONTINUOUS
 62
    3
 10
2639.6183
 20
4088.4682
 11
2640.5473
 21
4089.8603
  0
LINE
  8
0-2
  6
CONTINUOUS
 62
    3
 10
2640.5473
 20
4089.8603
 11
2641.2318
 21
4091.4006
  0
LINE
  8
0-2
  6
CONTINUOUS
 62
    3
 10
2641.2318
 20
4091.4006
 11
2641.651
 21
4093.0422
  0
LINE
  8
0-2
  6
CONTINUOUS
 62
    3
 10
2641.651
 20
4093.0422
 11
2641.7921
 21
4094.7353
  0
LINE
  8
0-2
  6
CONTINUOUS
 62
    3
 10
2641.7921
 20
4094.7353
 11
2641.651
 21
4096.4284
  0
LINE
  8
0-2
  6
CONTINUOUS
 62
    3
 10
2641.651
 20
4096.4284
 11
2641.2318
 21
4098.07
  0
LINE
  8
0-2
  6
CONTINUOUS
 62
    3
 10
2641.2318
 20
4098.07
 11
2640.5473
 21
4099.6102
  0
LINE
  8
0-2
  6
CONTINUOUS
 62
    3
 10
2640.5473
 20
4099.6102
 11
2639.6183
 21
4101.0024
  0
LINE
  8
0-2
  6
CONTINUOUS
 62
    3
 10
2639.6183
 20
4101.0024
 11
2638.473
 21
4102.2042
  0
LINE
  8
0-2
  6
CONTINUOUS
 62
    3
 10
2638.473
 20
4102.2042
 11
2637.1463
 21
4103.179
  0
LINE
  8
0-2
  6
CONTINUOUS
 62
    3
 10
2637.1463
 20
4103.179
 11
2635.6784
 21
4103.8972
  0
LINE
  8
0-2
  6
CONTINUOUS
 62
    3
 10
2635.6784
 20
4103.8972
 11
2634.114
 21
4104.3371
  0
LINE
  8
0-2
  6
CONTINUOUS
 62
    3
 10
2634.114
 20
4104.3371
 11
2632.5005
 21
4104.4852
  0
LINE
  8
0-2
  6
CONTINUOUS
 62
    3
 10
2850.0001
 20
4836.4879
 11
2851.6136
 21
4836.636
  0
LINE
  8
0-2
  6
CONTINUOUS
 62
    3
 10
2851.6136
 20
4836.636
 11
2853.178
 21
4837.0759
  0
LINE
  8
0-2
  6
CONTINUOUS
 62
    3
 10
2853.178
 20
4837.0759
 11
2854.6459
 21
4837.7941
  0
LINE
  8
0-2
  6
CONTINUOUS
 62
    3
 10
2854.6459
 20
4837.7941
 11
2855.9727
 21
4838.7689
  0
LINE
  8
0-2
  6
CONTINUOUS
 62
    3
 10
2855.9727
 20
4838.7689
 11
2857.1179
 21
4839.9707
  0
LINE
  8
0-2
  6
CONTINUOUS
 62
    3
 10
2857.1179
 20
4839.9707
 11
2858.0469
 21
4841.3628
  0
LINE
  8
0-2
  6
CONTINUOUS
 62
    3
 10
2858.0469
 20
4841.3628
 11
2858.7314
 21
4842.9031
  0
LINE
  8
0-2
  6
CONTINUOUS
 62
    3
 10
2858.7314
 20
4842.9031
 11
2859.1506
 21
4844.5447
  0
LINE
  8
0-2
  6
CONTINUOUS
 62
    3
 10
2859.1506
 20
4844.5447
 11
2859.2918
 21
4846.2378
  0
LINE
  8
0-2
  6
CONTINUOUS
 62
    3
 10
2859.2918
 20
4846.2378
 11
2859.1506
 21
4847.9308
  0
LINE
  8
0-2
  6
CONTINUOUS
 62
    3
 10
2859.1506
 20
4847.9308
 11
2858.7314
 21
4849.5725
  0
LINE
  8
0-2
  6
CONTINUOUS
 62
    3
 10
2858.7314
 20
4849.5725
 11
2858.0469
 21
4851.1127
  0
LINE
  8
0-2
  6
CONTINUOUS
 62
    3
 10
2858.0469
 20
4851.1127
 11
2857.1179
 21
4852.5049
  0
LINE
  8
0-2
  6
CONTINUOUS
 62
    3
 10
2857.1179
 20
4852.5049
 11
2855.9727
 21
4853.7066
  0
LINE
  8
0-2
  6
CONTINUOUS
 62
    3
 10
2855.9727
 20
4853.7066
 11
2854.6459
 21
4854.6815
  0
LINE
  8
0-2
  6
CONTINUOUS
 62
    3
 10
2854.6459
 20
4854.6815
 11
2853.178
 21
4855.3997
  0
LINE
  8
0-2
  6
CONTINUOUS
 62
    3
 10
2853.178
 20
4855.3997
 11
2851.6136
 21
4855.8396
  0
LINE
  8
0-2
  6
CONTINUOUS
 62
    3
 10
2851.6136
 20
4855.8396
 11
2850.0001
 21
4855.9877
  0
LINE
  8
0-2
  6
CONTINUOUS
 62
    3
 10
2850.0001
 20
4906.9884
 11
2851.6136
 21
4907.1366
  0
LINE
  8
0-2
  6
CONTINUOUS
 62
    3
 10
2851.6136
 20
4907.1366
 11
2853.178
 21
4907.5764
  0
LINE
  8
0-2
  6
CONTINUOUS
 62
    3
 10
2853.178
 20
4907.5764
 11
2854.6459
 21
4908.2947
  0
LINE
  8
0-2
  6
CONTINUOUS
 62
    3
 10
2854.6459
 20
4908.2947
 11
2855.9727
 21
4909.2695
  0
LINE
  8
0-2
  6
CONTINUOUS
 62
    3
 10
2855.9727
 20
4909.2695
 11
2857.1179
 21
4910.4712
  0
LINE
  8
0-2
  6
CONTINUOUS
 62
    3
 10
2857.1179
 20
4910.4712
 11
2858.0469
 21
4911.8634
  0
LINE
  8
0-2
  6
CONTINUOUS
 62
    3
 10
2858.0469
 20
4911.8634
 11
2858.7314
 21
4913.4037
  0
LINE
  8
0-2
  6
CONTINUOUS
 62
    3
 10
2858.7314
 20
4913.4037
 11
2859.1506
 21
4915.0453
  0
LINE
  8
0-2
  6
CONTINUOUS
 62
    3
 10
2859.1506
 20
4915.0453
 11
2859.2918
 21
4916.7383
  0
LINE
  8
0-2
  6
CONTINUOUS
 62
    3
 10
2859.2918
 20
4916.7383
 11
2859.1506
 21
4918.4314
  0
LINE
  8
0-2
  6
CONTINUOUS
 62
    3
 10
2859.1506
 20
4918.4314
 11
2858.7314
 21
4920.073
  0
LINE
  8
0-2
  6
CONTINUOUS
 62
    3
 10
2858.7314
 20
4920.073
 11
2858.0469
 21
4921.6133
  0
LINE
  8
0-2
  6
CONTINUOUS
 62
    3
 10
2858.0469
 20
4921.6133
 11
2857.1179
 21
4923.0055
  0
LINE
  8
0-2
  6
CONTINUOUS
 62
    3
 10
2857.1179
 20
4923.0055
 11
2855.9727
 21
4924.2072
  0
LINE
  8
0-2
  6
CONTINUOUS
 62
    3
 10
2855.9727
 20
4924.2072
 11
2854.6459
 21
4925.182
  0
LINE
  8
0-2
  6
CONTINUOUS
 62
    3
 10
2854.6459
 20
4925.182
 11
2853.178
 21
4925.9003
  0
LINE
  8
0-2
  6
CONTINUOUS
 62
    3
 10
2853.178
 20
4925.9003
 11
2851.6136
 21
4926.3401
  0
LINE
  8
0-2
  6
CONTINUOUS
 62
    3
 10
2851.6136
 20
4926.3401
 11
2850.0001
 21
4926.4883
  0
LINE
  8
0-2
  6
CONTINUOUS
 62
    3
 10
2850.0001
 20
4246.9852
 11
2851.6136
 21
4247.1334
  0
LINE
  8
0-2
  6
CONTINUOUS
 62
    3
 10
2851.6136
 20
4247.1334
 11
2853.178
 21
4247.5732
  0
LINE
  8
0-2
  6
CONTINUOUS
 62
    3
 10
2853.178
 20
4247.5732
 11
2854.6459
 21
4248.2915
  0
LINE
  8
0-2
  6
CONTINUOUS
 62
    3
 10
2854.6459
 20
4248.2915
 11
2855.9727
 21
4249.2663
  0
LINE
  8
0-2
  6
CONTINUOUS
 62
    3
 10
2855.9727
 20
4249.2663
 11
2857.1179
 21
4250.468
  0
LINE
  8
0-2
  6
CONTINUOUS
 62
    3
 10
2857.1179
 20
4250.468
 11
2858.0469
 21
4251.8602
  0
LINE
  8
0-2
  6
CONTINUOUS
 62
    3
 10
2858.0469
 20
4251.8602
 11
2858.7314
 21
4253.4005
  0
LINE
  8
0-2
  6
CONTINUOUS
 62
    3
 10
2858.7314
 20
4253.4005
 11
2859.1506
 21
4255.0421
  0
LINE
  8
0-2
  6
CONTINUOUS
 62
    3
 10
2859.1506
 20
4255.0421
 11
2859.2918
 21
4256.7351
  0
LINE
  8
0-2
  6
CONTINUOUS
 62
    3
 10
2859.2918
 20
4256.7351
 11
2859.1506
 21
4258.4282
  0
LINE
  8
0-2
  6
CONTINUOUS
 62
    3
 10
2859.1506
 20
4258.4282
 11
2858.7314
 21
4260.0698
  0
LINE
  8
0-2
  6
CONTINUOUS
 62
    3
 10
2858.7314
 20
4260.0698
 11
2858.0469
 21
4261.6101
  0
LINE
  8
0-2
  6
CONTINUOUS
 62
    3
 10
2858.0469
 20
4261.6101
 11
2857.1179
 21
4263.0023
  0
LINE
  8
0-2
  6
CONTINUOUS
 62
    3
 10
2857.1179
 20
4263.0023
 11
2855.9727
 21
4264.204
  0
LINE
  8
0-2
  6
CONTINUOUS
 62
    3
 10
2855.9727
 20
4264.204
 11
2854.6459
 21
4265.1788
  0
LINE
  8
0-2
  6
CONTINUOUS
 62
    3
 10
2854.6459
 20
4265.1788
 11
2853.178
 21
4265.8971
  0
LINE
  8
0-2
  6
CONTINUOUS
 62
    3
 10
2853.178
 20
4265.8971
 11
2851.6136
 21
4266.3369
  0
LINE
  8
0-2
  6
CONTINUOUS
 62
    3
 10
2851.6136
 20
4266.3369
 11
2850.0001
 21
4266.485
  0
LINE
  8
0-2
  6
CONTINUOUS
 62
    3
 10
2850.0001
 20
4176.4847
 11
2851.6136
 21
4176.6328
  0
LINE
  8
0-2
  6
CONTINUOUS
 62
    3
 10
2851.6136
 20
4176.6328
 11
2853.178
 21
4177.0727
  0
LINE
  8
0-2
  6
CONTINUOUS
 62
    3
 10
2853.178
 20
4177.0727
 11
2854.6459
 21
4177.7909
  0
LINE
  8
0-2
  6
CONTINUOUS
 62
    3
 10
2854.6459
 20
4177.7909
 11
2855.9727
 21
4178.7657
  0
LINE
  8
0-2
  6
CONTINUOUS
 62
    3
 10
2855.9727
 20
4178.7657
 11
2857.1179
 21
4179.9675
  0
LINE
  8
0-2
  6
CONTINUOUS
 62
    3
 10
2857.1179
 20
4179.9675
 11
2858.0469
 21
4181.3596
  0
LINE
  8
0-2
  6
CONTINUOUS
 62
    3
 10
2858.0469
 20
4181.3596
 11
2858.7314
 21
4182.8999
  0
LINE
  8
0-2
  6
CONTINUOUS
 62
    3
 10
2858.7314
 20
4182.8999
 11
2859.1506
 21
4184.5415
  0
LINE
  8
0-2
  6
CONTINUOUS
 62
    3
 10
2859.1506
 20
4184.5415
 11
2859.2918
 21
4186.2346
  0
LINE
  8
0-2
  6
CONTINUOUS
 62
    3
 10
2859.2918
 20
4186.2346
 11
2859.1506
 21
4187.9276
  0
LINE
  8
0-2
  6
CONTINUOUS
 62
    3
 10
2859.1506
 20
4187.9276
 11
2858.7314
 21
4189.5693
  0
LINE
  8
0-2
  6
CONTINUOUS
 62
    3
 10
2858.7314
 20
4189.5693
 11
2858.0469
 21
4191.1095
  0
LINE
  8
0-2
  6
CONTINUOUS
 62
    3
 10
2858.0469
 20
4191.1095
 11
2857.1179
 21
4192.5017
  0
LINE
  8
0-2
  6
CONTINUOUS
 62
    3
 10
2857.1179
 20
4192.5017
 11
2855.9727
 21
4193.7034
  0
LINE
  8
0-2
  6
CONTINUOUS
 62
    3
 10
2855.9727
 20
4193.7034
 11
2854.6459
 21
4194.6783
  0
LINE
  8
0-2
  6
CONTINUOUS
 62
    3
 10
2854.6459
 20
4194.6783
 11
2853.178
 21
4195.3965
  0
LINE
  8
0-2
  6
CONTINUOUS
 62
    3
 10
2853.178
 20
4195.3965
 11
2851.6136
 21
4195.8364
  0
LINE
  8
0-2
  6
CONTINUOUS
 62
    3
 10
2851.6136
 20
4195.8364
 11
2850.0001
 21
4195.9845
  0
TEXT
  8
0-d
 10
1246.6912
 20
3017.8284
 40
60
 41
1
 50
0.000946
  1
3
  0
TEXT
  8
0-d
 10
1086.6317
 20
2912.0969
 40
60
 41
1
 50
0
  1
10
  0
TEXT
  8
0-8
 10
1991.3185
 20
3602.0183
 40
60
 41
1
 50
0
  1
1,055φ
  0
TEXT
  8
0-8
 10
3315.8373
 20
3110.0467
 40
60
 41
1
 50
90
  1
480
  0
TEXT
  8
0-8
 10
3315.8373
 20
3411.4562
 40
60
 41
1
 50
90
  1
120
  0
TEXT
  8
0-8
 10
2004.5608
 20
2700.6014
 40
60
 41
1
 50
0
  1
1,250
  0
TEXT
  8
0-8
 10
2115.2127
 20
1720.5923
 40
60
 41
1
 50
19.303771
  1
1,055φ
  0
TEXT
  8
0-8
 10
3309.5716
 20
912.00007
 40
60
 41
1
 50
90
  1
225
  0
TEXT
  8
0-8
 10
3309.5716
 20
1618.2497
 40
60
 41
1
 50
90
  1
1,250
  0
TEXT
  8
0-8
 10
3309.5716
 20
2386.9998
 40
60
 41
1
 50
90
  1
225
  0
TEXT
  8
0-d
 10
509.99972
 20
310.13515
 40
50
 41
1
 50
0
  1
図
  0
TEXT
  8
0-d
 10
509.99972
 20
190.13521
 40
50
 41
1
 50
0
  1
番
  0
TEXT
  8
0-d
 10
1309.9998
 20
310.13515
 40
50
 41
1
 50
0
  1
承
  0
TEXT
  8
0-d
 10
1309.9998
 20
190.13521
 40
50
 41
1
 50
0
  1
認
  0
TEXT
  8
0-d
 10
2039.9997
 20
470.13525
 40
50
 41
1
 50
0
  1
尺
  0
TEXT
  8
0-d
 10
2039.9997
 20
390.13529
 40
50
 41
1
 50
359.99986
  1
度
  0
TEXT
  8
0-d
 10
1709.9997
 20
310.13515
 40
50
 41
1
 50
0
  1
製
  0
TEXT
  8
0-d
 10
1709.9997
 20
190.13521
 40
50
 41
1
 50
0
  1
図
  0
TEXT
  8
0-d
 10
3110
 20
470.13525
 40
50
 41
1
 50
0
  1
日
  0
TEXT
  8
0-d
 10
3110
 20
390.13529
 40
50
 41
1
 50
359.99986
  1
付
  0
TEXT
  8
0-d
 10
2222.852
 20
322.09976
 40
40
 41
1
 50
0
  1
株式
  0
TEXT
  8
0-d
 10
2222.852
 20
278.83889
 40
40
 41
1
 50
0.0000152
  1
会社
  0
TEXT
  8
0-d
 10
2348.4485
 20
281.62989
 40
80
 41
1
 50
0
  1
スズキベンチレーター
  0
TEXT
  8
0-d
 10
2475.8354
 20
183.18397
 40
40
 41
1
 50
0
  1
TEL(054)296-7000  FAX(054)296-7001
  0
TEXT
  8
0-8
 10
925.19672
 20
1590.7561
 40
60
 41
1
 50
90
  1
≒ 1,700
  0
TEXT
  8
0-d
 10
2168.6978
 20
415.33667
 40
80
 41
1
 50
0
  1
１／２０
  0
TEXT
  8
0-d
 10
596.6753
 20
287.90676
 40
60
 41
1
 50
0
  1
105-G06
  0
TEXT
  8
0-8
 10
2024.375
 20
5295.7281
 40
60
 41
1
 50
0
  1
1,500
  0
TEXT
  8
0-8
 10
996.2868
 20
4431.0545
 40
60
 41
1
 50
90
  1
1,200
  0
TEXT
  8
0-d
 10
510.00006
 20
5545.4028
 40
100
 41
1
 50
0
  1
ＤＳ－１０５０　自然換気  直付型立面、直付袴立面・平面
  0
TEXT
  8
0-2
 10
1428.1363
 20
390.29838
 40
60
 41
1
 50
0
  1
直付袴立面・平面
  0
TEXT
  8
0-2
 10
526.53972
 20
465.43145
 40
60
 41
1
 50
0
  1
ＤＳ－１０５０　自然換気  直付型立面、
  0
TEXT
  8
0-d
 10
2471.3583
 20
232.42738
 40
40
 41
1
 50
0
  1
〒421-2114　静岡市葵区安倍口新田１５２番地
  0
TEXT
  8
0-2
 10
1991.5513
 20
3835.2647
 40
60
 41
1
 50
0
  1
1,065φ
  0
POINT
  8
0-8
 62
    2
 10
3249.5716
 20
3402.6914
  0
POINT
  8
0-8
 62
    2
 10
3249.5716
 20
3520.3713
  0
POINT
  8
0-8
 62
    2
 10
950.42853
 20
843.87493
  0
POINT
  8
0-8
 62
    2
 10
950.42853
 20
2543.8752
  0
POINT
  8
0-8
 62
    2
 10
2724.9999
 20
2683.7418
  0
POINT
  8
0-8
 62
    2
 10
1475.0001
 20
2683.7418
  0
POINT
  8
0-8
 62
    2
 10
1597.4374
 20
1517.842
  0
POINT
  8
0-8
 62
    2
 10
2602.5627
 20
1869.9059
  0
POINT
  8
0-8
 62
    2
 10
2627.5002
 20
3669.7554
  0
POINT
  8
0-8
 62
    2
 10
1572.5
 20
3669.7554
  0
POINT
  8
0-8
 62
    2
 10
3249.5716
 20
843.87493
  0
POINT
  8
0-8
 62
    2
 10
3249.5716
 20
1068.8748
  0
POINT
  8
0-8
 62
    2
 10
3249.5716
 20
2318.8752
  0
POINT
  8
0-8
 62
    2
 10
3249.5716
 20
2543.8752
  0
POINT
  8
0-8
 62
    2
 10
1013.2747
 20
3986.4866
  0
POINT
  8
0-8
 62
    2
 10
1013.275
 20
5186.4874
  0
POINT
  8
0-8
 62
    2
 10
1350.0001
 20
5280.7283
  0
POINT
  8
0-8
 62
    2
 10
2850.0001
 20
5280.7283
  0
POINT
  8
0-8
 62
    2
 10
1567.4998
 20
3814.67
  0
POINT
  8
0-8
 62
    2
 10
2632.4997
 20
3814.67
  0
POINT
  8
0-8
 62
    2
 10
3249.5716
 20
2920.3712
  0
ENDSEC
  0
EOF
