  0
SECTION
  2
HEADER
  9
$EXTMIN
 10
0
 20
0
  9
$EXTMAX
 10
8400
 20
5940
  0
ENDSEC
  0
SECTION
  2
TABLES
  0
TABLE
  2
LTYPE
 70
     9
  0
LTYPE
  2
CONTINUOUS
 70
    64
  3
実線
 72
    65
 73
     0
 40
0.0
  0
LTYPE
  2
DASHED1
 70
    64
  3
--  --  --  --  --  --  --  --  
 72
    65
 73
     2
 40
2.5
 49
1.25
 49
-1.25
  0
LTYPE
  2
DASHED2
 70
    64
  3
----    ----    ----    ----    
 72
    65
 73
     2
 40
5.0
 49
2.5
 49
-2.5
  0
LTYPE
  2
DASHED3
 70
    64
  3
------  ------  ------  ------  
 72
    65
 73
     2
 40
5.0
 49
3.75
 49
-1.25
  0
LTYPE
  2
CENTER1
 70
    64
  3
----- - ----- - ----- - ----- - 
 72
    65
 73
     4
 40
10.0
 49
6.25
 49
-1.25
 49
1.25
 49
-1.25
  0
LTYPE
  2
CENTER2
 70
    64
  3
----------  --  ----------  --  
 72
    65
 73
     4
 40
20.0
 49
12.5
 49
-2.5
 49
2.5
 49
-2.5
  0
LTYPE
  2
PHANTOM1
 70
    64
  3
--- - - --- - - --- - - --- - - 
 72
    65
 73
     6
 40
10.0
 49
3.25
 49
-1.25
 49
1.25
 49
-1.25
 49
1.25
 49
-1.25
  0
LTYPE
  2
PHANTOM2
 70
    64
  3
--------  -  -  --------  -  -  
 72
    65
 73
     6
 40
20.0
 49
10.0
 49
-2.5
 49
1.25
 49
-2.5
 49
1.25
 49
-2.5
  0
LTYPE
  2
DOT
 70
    64
  3
-   -   -   -   -   -   -   -   
 72
    65
 73
     2
 40
2.5
 49
0.625
 49
-1.875
  0
ENDTAB
  0
TABLE
  2
STYLE
 70
    1
  0
STYLE
  2
STANDARD
 70
    64
 40
0.0
 41
1.0
 42
0.0
 50
0.0
 71
     0
  3
TXT
  4
BIGFONT
  0
ENDTAB
  0
TABLE
  2
LAYER
 70
    7
  0
LAYER
  2
0-1
 70
   64
 62
    7
  6
CONTINUOUS
  0
LAYER
  2
0-2
 70
   64
 62
    7
  6
CONTINUOUS
  0
LAYER
  2
0-3
 70
   64
 62
    7
  6
CONTINUOUS
  0
LAYER
  2
0-4
 70
   64
 62
    7
  6
CONTINUOUS
  0
LAYER
  2
0-8
 70
   64
 62
    7
  6
CONTINUOUS
  0
LAYER
  2
0-d
 70
   64
 62
    7
  6
CONTINUOUS
  0
LAYER
  2
ADD_LINE
 70
   64
 62
    7
  6
CONTINUOUS
  0
ENDTAB
  0
ENDSEC
  0
SECTION
  2
ENTITIES
  0
LINE
  8
0-d
  6
CONTINUOUS
 62
    7
 10
500.00006
 20
5515.4027
 11
3700.0002
 21
5515.4027
  0
LINE
  8
0-d
  6
CONTINUOUS
 62
    7
 10
500.00006
 20
5535.4028
 11
3700.0002
 21
5535.4028
  0
LINE
  8
0-d
  6
CONTINUOUS
 62
    7
 10
499.99981
 20
375.13524
 11
3700
 21
375.13524
  0
LINE
  8
0-d
  6
CONTINUOUS
 62
    7
 10
499.99981
 20
175.13519
 11
499.99981
 21
535.13516
  0
LINE
  8
0-d
  6
CONTINUOUS
 62
    7
 10
499.99981
 20
175.13519
 11
3700
 21
175.13519
  0
LINE
  8
0-d
  6
CONTINUOUS
 62
    7
 10
2100.0001
 20
535.13516
 11
2100.0001
 21
175.13519
  0
LINE
  8
0-d
  6
CONTINUOUS
 62
    7
 10
1300
 20
175.13519
 11
1300
 21
375.13524
  0
LINE
  8
0-d
  6
CONTINUOUS
 62
    7
 10
2100.0001
 20
375.13524
 11
2100.0001
 21
535.13516
  0
LINE
  8
0-d
  6
CONTINUOUS
 62
    7
 10
1700
 20
175.13519
 11
1700
 21
375.13524
  0
LINE
  8
0-d
  6
CONTINUOUS
 62
    7
 10
569.99968
 20
175.13519
 11
569.99968
 21
375.13524
  0
LINE
  8
0-d
  6
CONTINUOUS
 62
    7
 10
1369.9996
 20
175.13519
 11
1369.9996
 21
375.13524
  0
LINE
  8
0-d
  6
CONTINUOUS
 62
    7
 10
1769.9996
 20
175.13519
 11
1769.9996
 21
375.13524
  0
LINE
  8
0-d
  6
CONTINUOUS
 62
    7
 10
2029.9999
 20
375.13524
 11
2029.9999
 21
535.13516
  0
LINE
  8
0-d
  6
CONTINUOUS
 62
    7
 10
3099.9999
 20
375.13524
 11
3099.9999
 21
535.13516
  0
LINE
  8
0-d
  6
CONTINUOUS
 62
    7
 10
3169.9997
 20
375.13524
 11
3169.9997
 21
535.13516
  0
LINE
  8
0-d
  6
CONTINUOUS
 62
    7
 10
499.99981
 20
535.13516
 11
3700
 21
535.13516
  0
LINE
  8
0-d
  6
CONTINUOUS
 62
    7
 10
3700
 20
535.13516
 11
3700
 21
175.13519
  0
LINE
  8
0-8
  6
CONTINUOUS
 62
    7
 10
1300.0001
 20
5095.9971
 11
2900
 21
5095.9971
  0
LINE
  8
0-2
  6
CONTINUOUS
 62
    3
 10
1300.0001
 20
4771.7569
 11
1300.0001
 21
4534.7566
  0
LINE
  8
0-2
  6
CONTINUOUS
 62
    3
 10
2900
 20
4771.7569
 11
2900
 21
4534.7566
  0
LINE
  8
0-8
  6
CONTINUOUS
 62
    7
 10
1567.4998
 20
4015.3989
 11
1567.4998
 21
3899.94
  0
LINE
  8
0-8
  6
CONTINUOUS
 62
    7
 10
2632.5
 20
4015.3989
 11
2632.5
 21
3899.94
  0
LINE
  8
0-8
  6
CONTINUOUS
 62
    7
 10
1300.0001
 20
4852.305
 11
1300.0001
 21
5095.9971
  0
LINE
  8
0-8
  6
CONTINUOUS
 62
    7
 10
1604.5541
 20
4956.7568
 11
1013.2747
 21
4956.7568
  0
LINE
  8
0-8
  6
CONTINUOUS
 62
    7
 10
2900
 20
4852.305
 11
2900
 21
5095.9971
  0
LINE
  8
0-2
  6
CONTINUOUS
 62
    3
 10
1300.0001
 20
4515.2573
 11
1300.0001
 21
4456.7566
  0
LINE
  8
0-2
  6
CONTINUOUS
 62
    3
 10
1300.0001
 20
4437.2574
 11
1300.0001
 21
4391.7561
  0
LINE
  8
0-2
  6
CONTINUOUS
 62
    3
 10
2900
 20
4515.2573
 11
2900
 21
4456.7566
  0
LINE
  8
0-2
  6
CONTINUOUS
 62
    3
 10
2899.9978
 20
4437.2574
 11
2899.9978
 21
4391.7561
  0
LINE
  8
0-3
  6
CONTINUOUS
 62
    3
 10
2137.3402
 20
4480.9646
 11
2147.167
 21
4487.0041
  0
LINE
  8
0-3
  6
CONTINUOUS
 62
    3
 10
2147.167
 20
4487.0041
 11
2156.9471
 21
4493.1639
  0
LINE
  8
0-3
  6
CONTINUOUS
 62
    3
 10
2156.9471
 20
4493.1639
 11
2166.6351
 21
4499.5538
  0
LINE
  8
0-3
  6
CONTINUOUS
 62
    3
 10
2166.6351
 20
4499.5538
 11
2176.1224
 21
4506.299
  0
LINE
  8
0-3
  6
CONTINUOUS
 62
    3
 10
2176.1224
 20
4506.299
 11
2185.2362
 21
4513.5356
  0
LINE
  8
0-3
  6
CONTINUOUS
 62
    3
 10
2185.2362
 20
4513.5356
 11
2193.7854
 21
4521.3819
  0
LINE
  8
0-3
  6
CONTINUOUS
 62
    3
 10
2193.7854
 20
4521.3819
 11
2201.584
 21
4529.9765
  0
LINE
  8
0-3
  6
CONTINUOUS
 62
    3
 10
2201.584
 20
4529.9765
 11
2208.4425
 21
4539.4416
  0
LINE
  8
0-3
  6
CONTINUOUS
 62
    3
 10
2208.4425
 20
4539.4416
 11
2214.4251
 21
4549.6802
  0
LINE
  8
0-3
  6
CONTINUOUS
 62
    3
 10
2214.4251
 20
4549.6802
 11
2220.0777
 21
4560.135
  0
LINE
  8
0-3
  6
CONTINUOUS
 62
    3
 10
2220.0777
 20
4560.135
 11
2225.9754
 21
4570.2172
  0
LINE
  8
0-3
  6
CONTINUOUS
 62
    3
 10
2225.9754
 20
4570.2172
 11
2232.7218
 21
4579.3348
  0
LINE
  8
0-3
  6
CONTINUOUS
 62
    3
 10
2232.7218
 20
4579.3348
 11
2240.8883
 21
4586.8951
  0
LINE
  8
0-3
  6
CONTINUOUS
 62
    3
 10
2240.8883
 20
4586.8951
 11
2250.6548
 21
4592.7396
  0
LINE
  8
0-3
  6
CONTINUOUS
 62
    3
 10
2250.6548
 20
4592.7396
 11
2261.4271
 21
4597.5157
  0
LINE
  8
0-3
  6
CONTINUOUS
 62
    3
 10
2261.4271
 20
4597.5157
 11
2266.5266
 21
4599.5526
  0
LINE
  8
0-3
  6
CONTINUOUS
 62
    3
 10
2261.4271
 20
4597.5157
 11
2268.5207
 21
4598.6431
  0
LINE
  8
0-3
  6
CONTINUOUS
 62
    3
 10
2268.5207
 20
4598.6431
 11
2275.6779
 21
4599.6234
  0
LINE
  8
0-3
  6
CONTINUOUS
 62
    3
 10
2275.6779
 20
4599.6234
 11
2282.9531
 21
4600.3256
  0
LINE
  8
0-3
  6
CONTINUOUS
 62
    3
 10
2282.9531
 20
4600.3256
 11
2290.4072
 21
4600.5914
  0
LINE
  8
0-3
  6
CONTINUOUS
 62
    3
 10
2290.4072
 20
4600.5914
 11
2298.088
 21
4600.29
  0
LINE
  8
0-3
  6
CONTINUOUS
 62
    3
 10
2298.088
 20
4600.29
 11
2305.774
 21
4599.1706
  0
LINE
  8
0-3
  6
CONTINUOUS
 62
    3
 10
2305.774
 20
4599.1706
 11
2312.9438
 21
4596.9253
  0
LINE
  8
0-3
  6
CONTINUOUS
 62
    3
 10
2312.9438
 20
4596.9253
 11
2319.0548
 21
4593.2024
  0
LINE
  8
0-3
  6
CONTINUOUS
 62
    3
 10
2319.0548
 20
4593.2024
 11
2323.6676
 21
4587.7626
  0
LINE
  8
0-3
  6
CONTINUOUS
 62
    3
 10
2323.6676
 20
4587.7626
 11
2327.2634
 21
4581.2317
  0
LINE
  8
0-3
  6
CONTINUOUS
 62
    3
 10
2133.4824
 20
4453.9724
 11
2144.9975
 21
4455.6817
  0
LINE
  8
0-3
  6
CONTINUOUS
 62
    3
 10
2144.9975
 20
4455.6817
 11
2156.4426
 21
4457.6162
  0
LINE
  8
0-3
  6
CONTINUOUS
 62
    3
 10
2156.4426
 20
4457.6162
 11
2167.7612
 21
4459.9807
  0
LINE
  8
0-3
  6
CONTINUOUS
 62
    3
 10
2167.7612
 20
4459.9807
 11
2178.8765
 21
4463.0054
  0
LINE
  8
0-3
  6
CONTINUOUS
 62
    3
 10
2178.8765
 20
4463.0054
 11
2189.7309
 21
4466.9002
  0
LINE
  8
0-3
  6
CONTINUOUS
 62
    3
 10
2189.7309
 20
4466.9002
 11
2200.2637
 21
4471.7168
  0
LINE
  8
0-3
  6
CONTINUOUS
 62
    3
 10
2200.2637
 20
4471.7168
 11
2210.4297
 21
4477.3629
  0
LINE
  8
0-3
  6
CONTINUOUS
 62
    3
 10
2210.4297
 20
4477.3629
 11
2220.1727
 21
4483.7736
  0
LINE
  8
0-3
  6
CONTINUOUS
 62
    3
 10
2220.1727
 20
4483.7736
 11
2229.4472
 21
4490.8335
  0
LINE
  8
0-3
  6
CONTINUOUS
 62
    3
 10
2229.4472
 20
4490.8335
 11
2238.2088
 21
4498.4764
  0
LINE
  8
0-3
  6
CONTINUOUS
 62
    3
 10
2238.2088
 20
4498.4764
 11
2246.5243
 21
4506.5628
  0
LINE
  8
0-3
  6
CONTINUOUS
 62
    3
 10
2246.5243
 20
4506.5628
 11
2254.5614
 21
4514.9094
  0
LINE
  8
0-3
  6
CONTINUOUS
 62
    3
 10
2254.5614
 20
4514.9094
 11
2262.4963
 21
4523.3308
  0
LINE
  8
0-3
  6
CONTINUOUS
 62
    3
 10
2262.4963
 20
4523.3308
 11
2270.4982
 21
4531.6418
  0
LINE
  8
0-3
  6
CONTINUOUS
 62
    3
 10
2270.4982
 20
4531.6418
 11
2278.7486
 21
4539.6608
  0
LINE
  8
0-3
  6
CONTINUOUS
 62
    3
 10
2278.7486
 20
4539.6608
 11
2287.406
 21
4547.227
  0
LINE
  8
0-3
  6
CONTINUOUS
 62
    3
 10
2287.406
 20
4547.227
 11
2296.4586
 21
4554.3365
  0
LINE
  8
0-3
  6
CONTINUOUS
 62
    3
 10
2296.4586
 20
4554.3365
 11
2305.8339
 21
4561.0975
  0
LINE
  8
0-3
  6
CONTINUOUS
 62
    3
 10
2305.8339
 20
4561.0975
 11
2315.4323
 21
4567.5943
  0
LINE
  8
0-3
  6
CONTINUOUS
 62
    3
 10
2315.4323
 20
4567.5943
 11
2325.1827
 21
4573.9298
  0
LINE
  8
0-3
  6
CONTINUOUS
 62
    3
 10
2325.1827
 20
4573.9298
 11
2332.0848
 21
4578.3411
  0
LINE
  8
0-3
  6
CONTINUOUS
 62
    3
 10
2332.0848
 20
4578.3411
 11
2342.8553
 21
4582.8079
  0
LINE
  8
0-3
  6
CONTINUOUS
 62
    3
 10
2342.8553
 20
4582.8079
 11
2353.6877
 21
4586.9797
  0
LINE
  8
0-3
  6
CONTINUOUS
 62
    3
 10
2353.6877
 20
4586.9797
 11
2364.6483
 21
4590.5597
  0
LINE
  8
0-3
  6
CONTINUOUS
 62
    3
 10
2364.6483
 20
4590.5597
 11
2375.8007
 21
4593.2578
  0
LINE
  8
0-3
  6
CONTINUOUS
 62
    3
 10
2375.8007
 20
4593.2578
 11
2387.1716
 21
4594.9107
  0
LINE
  8
0-3
  6
CONTINUOUS
 62
    3
 10
2387.1716
 20
4594.9107
 11
2398.7057
 21
4595.6372
  0
LINE
  8
0-3
  6
CONTINUOUS
 62
    3
 10
2398.7057
 20
4595.6372
 11
2410.3371
 21
4595.5946
  0
LINE
  8
0-3
  6
CONTINUOUS
 62
    3
 10
2410.3371
 20
4595.5946
 11
2422.0027
 21
4594.9394
  0
LINE
  8
0-3
  6
CONTINUOUS
 62
    3
 10
2422.0027
 20
4594.9394
 11
2433.6469
 21
4593.8348
  0
LINE
  8
0-3
  6
CONTINUOUS
 62
    3
 10
2433.6469
 20
4593.8348
 11
2445.2031
 21
4592.4135
  0
LINE
  8
0-3
  6
CONTINUOUS
 62
    3
 10
2445.2031
 20
4592.4135
 11
2456.6564
 21
4590.6468
  0
LINE
  8
0-3
  6
CONTINUOUS
 62
    3
 10
2456.6564
 20
4590.6468
 11
2468.0124
 21
4588.4951
  0
LINE
  8
0-3
  6
CONTINUOUS
 62
    3
 10
2468.0124
 20
4588.4951
 11
2479.2541
 21
4585.8851
  0
LINE
  8
0-3
  6
CONTINUOUS
 62
    3
 10
2479.2541
 20
4585.8851
 11
2490.3879
 21
4582.7723
  0
LINE
  8
0-3
  6
CONTINUOUS
 62
    3
 10
2490.3879
 20
4582.7723
 11
2501.4093
 21
4579.0864
  0
LINE
  8
0-3
  6
CONTINUOUS
 62
    3
 10
2501.4093
 20
4579.0864
 11
2512.2739
 21
4574.776
  0
LINE
  8
0-3
  6
CONTINUOUS
 62
    3
 10
2512.2739
 20
4574.776
 11
2522.8809
 21
4569.7926
  0
LINE
  8
0-3
  6
CONTINUOUS
 62
    3
 10
2522.8809
 20
4569.7926
 11
2533.0745
 21
4564.1059
  0
LINE
  8
0-3
  6
CONTINUOUS
 62
    3
 10
2533.0745
 20
4564.1059
 11
2542.7239
 21
4557.6631
  0
LINE
  8
0-3
  6
CONTINUOUS
 62
    3
 10
2542.7239
 20
4557.6631
 11
2551.6874
 21
4550.4156
  0
LINE
  8
0-3
  6
CONTINUOUS
 62
    3
 10
2551.6874
 20
4550.4156
 11
2559.8418
 21
4542.3426
  0
LINE
  8
0-3
  6
CONTINUOUS
 62
    3
 10
2559.8418
 20
4542.3426
 11
2567.2909
 21
4533.5629
  0
LINE
  8
0-3
  6
CONTINUOUS
 62
    3
 10
2567.2909
 20
4533.5629
 11
2574.2227
 21
4524.272
  0
LINE
  8
0-3
  6
CONTINUOUS
 62
    3
 10
2574.2227
 20
4524.272
 11
2580.8311
 21
4514.6649
  0
LINE
  8
0-3
  6
CONTINUOUS
 62
    3
 10
2580.8311
 20
4514.6649
 11
2584.6716
 21
4508.9278
  0
LINE
  8
0-3
  6
CONTINUOUS
 62
    3
 10
2580.8311
 20
4514.6649
 11
2585.9981
 21
4503.9647
  0
LINE
  8
0-3
  6
CONTINUOUS
 62
    3
 10
2585.9981
 20
4503.9647
 11
2590.8907
 21
4493.2174
  0
LINE
  8
0-3
  6
CONTINUOUS
 62
    3
 10
2590.8907
 20
4493.2174
 11
2595.2435
 21
4482.3933
  0
LINE
  8
0-3
  6
CONTINUOUS
 62
    3
 10
2595.2435
 20
4482.3933
 11
2598.7786
 21
4471.4352
  0
LINE
  8
0-3
  6
CONTINUOUS
 62
    3
 10
2598.7786
 20
4471.4352
 11
2601.2275
 21
4460.3123
  0
LINE
  8
0-3
  6
CONTINUOUS
 62
    3
 10
2601.2275
 20
4460.3123
 11
2602.3292
 21
4448.982
  0
LINE
  8
0-3
  6
CONTINUOUS
 62
    3
 10
2602.3292
 20
4448.982
 11
2602.0134
 21
4437.4885
  0
LINE
  8
0-3
  6
CONTINUOUS
 62
    3
 10
2602.0134
 20
4437.4885
 11
2600.4726
 21
4425.9439
  0
LINE
  8
0-3
  6
CONTINUOUS
 62
    3
 10
2600.4726
 20
4425.9439
 11
2597.9057
 21
4414.4825
  0
LINE
  8
0-3
  6
CONTINUOUS
 62
    3
 10
2597.9057
 20
4414.4825
 11
2594.4883
 21
4403.2349
  0
LINE
  8
0-3
  6
CONTINUOUS
 62
    3
 10
2594.4883
 20
4403.2349
 11
2590.2783
 21
4392.3574
  0
LINE
  8
0-3
  6
CONTINUOUS
 62
    3
 10
2590.2783
 20
4392.3574
 11
2585.1615
 21
4382.0021
  0
LINE
  8
0-3
  6
CONTINUOUS
 62
    3
 10
2585.1615
 20
4382.0021
 11
2579.0149
 21
4372.3296
  0
LINE
  8
0-3
  6
CONTINUOUS
 62
    3
 10
2579.0149
 20
4372.3296
 11
2571.852
 21
4363.399
  0
LINE
  8
0-3
  6
CONTINUOUS
 62
    3
 10
2571.852
 20
4363.399
 11
2563.8889
 21
4355.044
  0
LINE
  8
0-3
  6
CONTINUOUS
 62
    3
 10
2563.8889
 20
4355.044
 11
2555.3782
 21
4347.0893
  0
LINE
  8
0-3
  6
CONTINUOUS
 62
    3
 10
2555.3782
 20
4347.0893
 11
2546.5565
 21
4339.3672
  0
LINE
  8
0-3
  6
CONTINUOUS
 62
    3
 10
2546.5565
 20
4339.3672
 11
2544.1773
 21
4337.3233
  0
LINE
  8
0-3
  6
CONTINUOUS
 62
    3
 10
2546.5565
 20
4339.3672
 11
2536.4315
 21
4333.6904
  0
LINE
  8
0-3
  6
CONTINUOUS
 62
    3
 10
2536.4315
 20
4333.6904
 11
2526.2681
 21
4328.1196
  0
LINE
  8
0-3
  6
CONTINUOUS
 62
    3
 10
2526.2681
 20
4328.1196
 11
2516.0204
 21
4322.7511
  0
LINE
  8
0-3
  6
CONTINUOUS
 62
    3
 10
2516.0204
 20
4322.7511
 11
2505.6324
 21
4317.687
  0
LINE
  8
0-3
  6
CONTINUOUS
 62
    3
 10
2505.6324
 20
4317.687
 11
2495.0783
 21
4313.0267
  0
LINE
  8
0-3
  6
CONTINUOUS
 62
    3
 10
2495.0783
 20
4313.0267
 11
2484.2984
 21
4308.8712
  0
LINE
  8
0-3
  6
CONTINUOUS
 62
    3
 10
2484.2984
 20
4308.8712
 11
2473.291
 21
4305.2809
  0
LINE
  8
0-3
  6
CONTINUOUS
 62
    3
 10
2473.291
 20
4305.2809
 11
2462.102
 21
4302.2666
  0
LINE
  8
0-3
  6
CONTINUOUS
 62
    3
 10
2462.102
 20
4302.2666
 11
2450.7735
 21
4299.8248
  0
LINE
  8
0-3
  6
CONTINUOUS
 62
    3
 10
2450.7735
 20
4299.8248
 11
2439.3403
 21
4297.9576
  0
LINE
  8
0-3
  6
CONTINUOUS
 62
    3
 10
2439.3403
 20
4297.9576
 11
2427.8581
 21
4296.6497
  0
LINE
  8
0-3
  6
CONTINUOUS
 62
    3
 10
2427.8581
 20
4296.6497
 11
2416.3373
 21
4295.8054
  0
LINE
  8
0-3
  6
CONTINUOUS
 62
    3
 10
2416.3373
 20
4295.8054
 11
2404.7865
 21
4295.3115
  0
LINE
  8
0-3
  6
CONTINUOUS
 62
    3
 10
2404.7865
 20
4295.3115
 11
2393.2103
 21
4295.0438
  0
LINE
  8
0-3
  6
CONTINUOUS
 62
    3
 10
2393.2103
 20
4295.0438
 11
2383.1761
 21
4294.9027
  0
LINE
  8
0-3
  6
CONTINUOUS
 62
    3
 10
2253.8294
 20
4293.8397
 11
2264.6564
 21
4289.4571
  0
LINE
  8
0-3
  6
CONTINUOUS
 62
    3
 10
2264.6564
 20
4289.4571
 11
2275.546
 21
4285.1254
  0
LINE
  8
0-3
  6
CONTINUOUS
 62
    3
 10
2275.546
 20
4285.1254
 11
2286.5383
 21
4281.1337
  0
LINE
  8
0-3
  6
CONTINUOUS
 62
    3
 10
2286.5383
 20
4281.1337
 11
2297.6357
 21
4277.8051
  0
LINE
  8
0-3
  6
CONTINUOUS
 62
    3
 10
2297.6357
 20
4277.8051
 11
2308.8687
 21
4275.4574
  0
LINE
  8
0-3
  6
CONTINUOUS
 62
    3
 10
2308.8687
 20
4275.4574
 11
2320.2616
 21
4274.4068
  0
LINE
  8
0-3
  6
CONTINUOUS
 62
    3
 10
2320.2616
 20
4274.4068
 11
2331.7873
 21
4274.5706
  0
LINE
  8
0-3
  6
CONTINUOUS
 62
    3
 10
2331.7873
 20
4274.5706
 11
2343.397
 21
4275.4272
  0
LINE
  8
0-3
  6
CONTINUOUS
 62
    3
 10
2343.397
 20
4275.4272
 11
2345.5782
 21
4275.6198
  0
LINE
  8
0-3
  6
CONTINUOUS
 62
    3
 10
2343.397
 20
4275.4272
 11
2352.89
 21
4277.5443
  0
LINE
  8
0-3
  6
CONTINUOUS
 62
    3
 10
2352.89
 20
4277.5443
 11
2362.0022
 21
4280.473
  0
LINE
  8
0-3
  6
CONTINUOUS
 62
    3
 10
2362.0022
 20
4280.473
 11
2370.3622
 21
4285.0353
  0
LINE
  8
0-3
  6
CONTINUOUS
 62
    3
 10
2370.3622
 20
4285.0353
 11
2377.4887
 21
4291.5786
  0
LINE
  8
0-3
  6
CONTINUOUS
 62
    3
 10
2377.4887
 20
4291.5786
 11
2382.7733
 21
4299.7828
  0
LINE
  8
0-3
  6
CONTINUOUS
 62
    3
 10
2382.7733
 20
4299.7828
 11
2385.652
 21
4309.1622
  0
LINE
  8
0-3
  6
CONTINUOUS
 62
    3
 10
2385.652
 20
4309.1622
 11
2385.8638
 21
4318.8643
  0
LINE
  8
0-3
  6
CONTINUOUS
 62
    3
 10
2385.8638
 20
4318.8643
 11
2383.2966
 21
4327.9528
  0
LINE
  8
0-3
  6
CONTINUOUS
 62
    3
 10
2383.2966
 20
4327.9528
 11
2378.499
 21
4336.2212
  0
LINE
  8
0-3
  6
CONTINUOUS
 62
    3
 10
2378.499
 20
4336.2212
 11
2372.5731
 21
4344.0705
  0
LINE
  8
0-3
  6
CONTINUOUS
 62
    3
 10
2150.1408
 20
4439.0087
 11
2161.8085
 21
4437.0223
  0
LINE
  8
0-3
  6
CONTINUOUS
 62
    3
 10
2161.8085
 20
4437.0223
 11
2173.437
 21
4435.3714
  0
LINE
  8
0-3
  6
CONTINUOUS
 62
    3
 10
2173.437
 20
4435.3714
 11
2184.9813
 21
4434.3915
  0
LINE
  8
0-3
  6
CONTINUOUS
 62
    3
 10
2184.9813
 20
4434.3915
 11
2196.3999
 21
4434.4083
  0
LINE
  8
0-3
  6
CONTINUOUS
 62
    3
 10
2196.3999
 20
4434.4083
 11
2207.652
 21
4435.7519
  0
LINE
  8
0-3
  6
CONTINUOUS
 62
    3
 10
2207.652
 20
4435.7519
 11
2218.738
 21
4438.4807
  0
LINE
  8
0-3
  6
CONTINUOUS
 62
    3
 10
2218.738
 20
4438.4807
 11
2229.6833
 21
4442.2264
  0
LINE
  8
0-3
  6
CONTINUOUS
 62
    3
 10
2229.6833
 20
4442.2264
 11
2240.5394
 21
4446.619
  0
LINE
  8
0-3
  6
CONTINUOUS
 62
    3
 10
2240.5394
 20
4446.619
 11
2251.3286
 21
4451.2615
  0
LINE
  8
0-3
  6
CONTINUOUS
 62
    3
 10
2251.3286
 20
4451.2615
 11
2262.1056
 21
4455.8198
  0
LINE
  8
0-3
  6
CONTINUOUS
 62
    3
 10
2262.1056
 20
4455.8198
 11
2272.8714
 21
4460.2064
  0
LINE
  8
0-3
  6
CONTINUOUS
 62
    3
 10
2272.8714
 20
4460.2064
 11
2283.6365
 21
4464.4629
  0
LINE
  8
0-3
  6
CONTINUOUS
 62
    3
 10
2283.6365
 20
4464.4629
 11
2294.389
 21
4468.6124
  0
LINE
  8
0-3
  6
CONTINUOUS
 62
    3
 10
2294.389
 20
4468.6124
 11
2305.1423
 21
4472.6853
  0
LINE
  8
0-3
  6
CONTINUOUS
 62
    3
 10
2305.1423
 20
4472.6853
 11
2315.8985
 21
4476.7215
  0
LINE
  8
0-3
  6
CONTINUOUS
 62
    3
 10
2315.8985
 20
4476.7215
 11
2315.7485
 21
4466.816
  0
LINE
  8
0-3
  6
CONTINUOUS
 62
    3
 10
2315.7485
 20
4466.816
 11
2315.606
 21
4456.9214
  0
LINE
  8
0-3
  6
CONTINUOUS
 62
    3
 10
2315.606
 20
4456.9214
 11
2315.4635
 21
4447.0144
  0
LINE
  8
0-3
  6
CONTINUOUS
 62
    3
 10
2315.4635
 20
4447.0144
 11
2315.3138
 21
4437.1183
  0
LINE
  8
0-3
  6
CONTINUOUS
 62
    3
 10
2315.3138
 20
4437.1183
 11
2315.1732
 21
4427.2227
  0
LINE
  8
0-3
  6
CONTINUOUS
 62
    3
 10
2315.1732
 20
4427.2227
 11
2315.0292
 21
4417.3157
  0
LINE
  8
0-3
  6
CONTINUOUS
 62
    3
 10
2315.0292
 20
4417.3157
 11
2314.88
 21
4407.4211
  0
LINE
  8
0-3
  6
CONTINUOUS
 62
    3
 10
2314.88
 20
4407.4211
 11
2314.7382
 21
4397.5155
  0
LINE
  8
0-3
  6
CONTINUOUS
 62
    3
 10
2314.7382
 20
4397.5155
 11
2314.5905
 21
4387.617
  0
LINE
  8
0-3
  6
CONTINUOUS
 62
    3
 10
2314.5905
 20
4387.617
 11
2314.4465
 21
4377.7144
  0
LINE
  8
0-3
  6
CONTINUOUS
 62
    3
 10
2372.5731
 20
4344.0705
 11
2370.2066
 21
4346.1559
  0
LINE
  8
0-3
  6
CONTINUOUS
 62
    3
 10
2370.2066
 20
4346.1559
 11
2366.804
 21
4348.6803
  0
LINE
  8
0-3
  6
CONTINUOUS
 62
    3
 10
2366.804
 20
4348.6803
 11
2362.502
 21
4351.5665
  0
LINE
  8
0-3
  6
CONTINUOUS
 62
    3
 10
2362.502
 20
4351.5665
 11
2357.4162
 21
4354.7466
  0
LINE
  8
0-3
  6
CONTINUOUS
 62
    3
 10
2357.4162
 20
4354.7466
 11
2351.6174
 21
4358.1573
  0
LINE
  8
0-3
  6
CONTINUOUS
 62
    3
 10
2351.6174
 20
4358.1573
 11
2345.2097
 21
4361.7546
  0
LINE
  8
0-3
  6
CONTINUOUS
 62
    3
 10
2345.2097
 20
4361.7546
 11
2338.2557
 21
4365.4934
  0
LINE
  8
0-3
  6
CONTINUOUS
 62
    3
 10
2338.2557
 20
4365.4934
 11
2330.806
 21
4369.3326
  0
LINE
  8
0-3
  6
CONTINUOUS
 62
    3
 10
2330.806
 20
4369.3326
 11
2322.929
 21
4373.2437
  0
LINE
  8
0-3
  6
CONTINUOUS
 62
    3
 10
2322.929
 20
4373.2437
 11
2314.6675
 21
4377.1978
  0
LINE
  8
0-3
  6
CONTINUOUS
 62
    3
 10
2314.6675
 20
4377.1978
 11
2306.0516
 21
4381.1687
  0
LINE
  8
0-3
  6
CONTINUOUS
 62
    3
 10
2306.0516
 20
4381.1687
 11
2297.1356
 21
4385.1441
  0
LINE
  8
0-3
  6
CONTINUOUS
 62
    3
 10
2297.1356
 20
4385.1441
 11
2287.9442
 21
4389.0991
  0
LINE
  8
0-3
  6
CONTINUOUS
 62
    3
 10
2287.9442
 20
4389.0991
 11
2278.5234
 21
4393.022
  0
LINE
  8
0-3
  6
CONTINUOUS
 62
    3
 10
2278.5234
 20
4393.022
 11
2268.899
 21
4396.9049
  0
LINE
  8
0-3
  6
CONTINUOUS
 62
    3
 10
2268.899
 20
4396.9049
 11
2259.1088
 21
4400.7273
  0
LINE
  8
0-3
  6
CONTINUOUS
 62
    3
 10
2259.1088
 20
4400.7273
 11
2249.188
 21
4404.4879
  0
LINE
  8
0-3
  6
CONTINUOUS
 62
    3
 10
2249.188
 20
4404.4879
 11
2239.1768
 21
4408.1762
  0
LINE
  8
0-3
  6
CONTINUOUS
 62
    3
 10
2239.1768
 20
4408.1762
 11
2229.1184
 21
4411.7908
  0
LINE
  8
0-3
  6
CONTINUOUS
 62
    3
 10
2229.1184
 20
4411.7908
 11
2219.0493
 21
4415.308
  0
LINE
  8
0-3
  6
CONTINUOUS
 62
    3
 10
2219.0493
 20
4415.308
 11
2209.0097
 21
4418.7305
  0
LINE
  8
0-3
  6
CONTINUOUS
 62
    3
 10
2209.0097
 20
4418.7305
 11
2199.05
 21
4422.0571
  0
LINE
  8
0-3
  6
CONTINUOUS
 62
    3
 10
2199.05
 20
4422.0571
 11
2189.2246
 21
4425.2654
  0
LINE
  8
0-3
  6
CONTINUOUS
 62
    3
 10
2189.2246
 20
4425.2654
 11
2179.5698
 21
4428.3564
  0
LINE
  8
0-3
  6
CONTINUOUS
 62
    3
 10
2179.5698
 20
4428.3564
 11
2170.1493
 21
4431.3173
  0
LINE
  8
0-3
  6
CONTINUOUS
 62
    3
 10
2170.1493
 20
4431.3173
 11
2161.0113
 21
4434.1337
  0
LINE
  8
0-3
  6
CONTINUOUS
 62
    3
 10
2161.0113
 20
4434.1337
 11
2152.2079
 21
4436.7966
  0
LINE
  8
0-3
  6
CONTINUOUS
 62
    3
 10
2152.2079
 20
4436.7966
 11
2143.7845
 21
4439.2958
  0
LINE
  8
0-3
  6
CONTINUOUS
 62
    3
 10
2143.7845
 20
4439.2958
 11
2135.7977
 21
4441.6118
  0
LINE
  8
0-3
  6
CONTINUOUS
 62
    3
 10
2315.8985
 20
4476.7215
 11
2316.0351
 21
4476.769
  0
LINE
  8
0-3
  6
CONTINUOUS
 62
    3
 10
2185.6147
 20
4242.5212
 11
2185.6147
 21
4209.2376
  0
LINE
  8
0-3
  6
CONTINUOUS
 62
    3
 10
2185.6147
 20
4209.2376
 11
2286.755
 21
4209.2376
  0
LINE
  8
0-3
  6
CONTINUOUS
 62
    3
 10
2286.755
 20
4242.5212
 11
2286.755
 21
4209.2376
  0
LINE
  8
0-3
  6
CONTINUOUS
 62
    3
 10
2185.6147
 20
4242.5212
 11
2286.755
 21
4242.5212
  0
LINE
  8
0-3
  6
CONTINUOUS
 62
    3
 10
2126.4697
 20
4503.3282
 11
2126.4697
 21
4428.7425
  0
LINE
  8
0-3
  6
CONTINUOUS
 62
    3
 10
2137.3402
 20
4480.9646
 11
2136.2119
 21
4480.3267
  0
LINE
  8
0-3
  6
CONTINUOUS
 62
    3
 10
2136.2119
 20
4480.3267
 11
2135.0568
 21
4479.6572
  0
LINE
  8
0-3
  6
CONTINUOUS
 62
    3
 10
2135.0568
 20
4479.6572
 11
2133.8877
 21
4478.9544
  0
LINE
  8
0-3
  6
CONTINUOUS
 62
    3
 10
2133.8877
 20
4478.9544
 11
2132.6933
 21
4478.2181
  0
LINE
  8
0-3
  6
CONTINUOUS
 62
    3
 10
2132.6933
 20
4478.2181
 11
2131.4754
 21
4477.4589
  0
LINE
  8
0-3
  6
CONTINUOUS
 62
    3
 10
2131.4754
 20
4477.4589
 11
2130.2362
 21
4476.6607
  0
LINE
  8
0-3
  6
CONTINUOUS
 62
    3
 10
2130.2362
 20
4476.6607
 11
2128.9767
 21
4475.8352
  0
LINE
  8
0-3
  6
CONTINUOUS
 62
    3
 10
2128.9767
 20
4475.8352
 11
2127.6925
 21
4474.9726
  0
LINE
  8
0-3
  6
CONTINUOUS
 62
    3
 10
2127.6925
 20
4474.9726
 11
2126.3903
 21
4474.0858
  0
LINE
  8
0-3
  6
CONTINUOUS
 62
    3
 10
2133.4824
 20
4453.9724
 11
2132.6458
 21
4453.8111
  0
LINE
  8
0-3
  6
CONTINUOUS
 62
    3
 10
2132.6458
 20
4453.8111
 11
2131.8203
 21
4453.6621
  0
LINE
  8
0-3
  6
CONTINUOUS
 62
    3
 10
2131.8203
 20
4453.6621
 11
2131.0102
 21
4453.5146
  0
LINE
  8
0-3
  6
CONTINUOUS
 62
    3
 10
2131.0102
 20
4453.5146
 11
2130.208
 21
4453.3701
  0
LINE
  8
0-3
  6
CONTINUOUS
 62
    3
 10
2130.208
 20
4453.3701
 11
2129.4226
 21
4453.2336
  0
LINE
  8
0-3
  6
CONTINUOUS
 62
    3
 10
2129.4226
 20
4453.2336
 11
2128.6447
 21
4453.1044
  0
LINE
  8
0-3
  6
CONTINUOUS
 62
    3
 10
2128.6447
 20
4453.1044
 11
2127.8816
 21
4452.9841
  0
LINE
  8
0-3
  6
CONTINUOUS
 62
    3
 10
2127.8816
 20
4452.9841
 11
2127.1274
 21
4452.8654
  0
LINE
  8
0-3
  6
CONTINUOUS
 62
    3
 10
2127.1274
 20
4452.8654
 11
2126.3903
 21
4452.751
  0
LINE
  8
0-3
  6
CONTINUOUS
 62
    3
 10
2150.1408
 20
4439.0087
 11
2146.9602
 21
4439.6828
  0
LINE
  8
0-3
  6
CONTINUOUS
 62
    3
 10
2146.9602
 20
4439.6828
 11
2143.909
 21
4440.3335
  0
LINE
  8
0-3
  6
CONTINUOUS
 62
    3
 10
2143.909
 20
4440.3335
 11
2140.9969
 21
4440.966
  0
LINE
  8
0-3
  6
CONTINUOUS
 62
    3
 10
2140.9969
 20
4440.966
 11
2138.2221
 21
4441.5767
  0
LINE
  8
0-3
  6
CONTINUOUS
 62
    3
 10
2138.2221
 20
4441.5767
 11
2135.5814
 21
4442.1651
  0
LINE
  8
0-3
  6
CONTINUOUS
 62
    3
 10
2135.5814
 20
4442.1651
 11
2133.08
 21
4442.7372
  0
LINE
  8
0-3
  6
CONTINUOUS
 62
    3
 10
2133.08
 20
4442.7372
 11
2130.7128
 21
4443.2835
  0
LINE
  8
0-3
  6
CONTINUOUS
 62
    3
 10
2130.7128
 20
4443.2835
 11
2128.4836
 21
4443.812
  0
LINE
  8
0-3
  6
CONTINUOUS
 62
    3
 10
2128.4836
 20
4443.812
 11
2126.3903
 21
4444.3168
  0
LINE
  8
0-3
  6
CONTINUOUS
 62
    3
 10
2135.7977
 20
4441.6118
 11
2134.5531
 21
4441.9513
  0
LINE
  8
0-3
  6
CONTINUOUS
 62
    3
 10
2134.5531
 20
4441.9513
 11
2133.3589
 21
4442.2769
  0
LINE
  8
0-3
  6
CONTINUOUS
 62
    3
 10
2133.3589
 20
4442.2769
 11
2132.2172
 21
4442.5996
  0
LINE
  8
0-3
  6
CONTINUOUS
 62
    3
 10
2132.2172
 20
4442.5996
 11
2131.128
 21
4442.9094
  0
LINE
  8
0-3
  6
CONTINUOUS
 62
    3
 10
2131.128
 20
4442.9094
 11
2130.0944
 21
4443.2063
  0
LINE
  8
0-3
  6
CONTINUOUS
 62
    3
 10
2130.0944
 20
4443.2063
 11
2129.1079
 21
4443.4904
  0
LINE
  8
0-3
  6
CONTINUOUS
 62
    3
 10
2129.1079
 20
4443.4904
 11
2128.1748
 21
4443.7685
  0
LINE
  8
0-3
  6
CONTINUOUS
 62
    3
 10
2128.1748
 20
4443.7685
 11
2127.2961
 21
4444.0377
  0
LINE
  8
0-3
  6
CONTINUOUS
 62
    3
 10
2127.2961
 20
4444.0377
 11
2126.4697
 21
4444.3005
  0
LINE
  8
0-3
  6
CONTINUOUS
 62
    3
 10
2116.2806
 20
4513.5218
 11
2100.0023
 21
4513.5218
  0
LINE
  8
0-3
  6
CONTINUOUS
 62
    3
 10
2116.2806
 20
4356.9191
 11
2100.0023
 21
4356.9191
  0
LINE
  8
0-3
  6
CONTINUOUS
 62
    3
 10
2108.5056
 20
4410.0167
 11
2114.4092
 21
4403.3522
  0
LINE
  8
0-3
  6
CONTINUOUS
 62
    3
 10
2114.4092
 20
4403.3522
 11
2120.8986
 21
4396.4278
  0
LINE
  8
0-3
  6
CONTINUOUS
 62
    3
 10
2120.8986
 20
4396.4278
 11
2127.8779
 21
4389.3268
  0
LINE
  8
0-3
  6
CONTINUOUS
 62
    3
 10
2127.8779
 20
4389.3268
 11
2135.258
 21
4382.1203
  0
LINE
  8
0-3
  6
CONTINUOUS
 62
    3
 10
2135.258
 20
4382.1203
 11
2142.9551
 21
4374.8783
  0
LINE
  8
0-3
  6
CONTINUOUS
 62
    3
 10
2142.9551
 20
4374.8783
 11
2150.8898
 21
4367.6639
  0
LINE
  8
0-3
  6
CONTINUOUS
 62
    3
 10
2150.8898
 20
4367.6639
 11
2158.9902
 21
4360.5347
  0
LINE
  8
0-3
  6
CONTINUOUS
 62
    3
 10
2158.9902
 20
4360.5347
 11
2167.1874
 21
4353.5425
  0
LINE
  8
0-3
  6
CONTINUOUS
 62
    3
 10
2167.1874
 20
4353.5425
 11
2175.4192
 21
4346.7355
  0
LINE
  8
0-3
  6
CONTINUOUS
 62
    3
 10
2175.4192
 20
4346.7355
 11
2183.629
 21
4340.1545
  0
LINE
  8
0-3
  6
CONTINUOUS
 62
    3
 10
2183.629
 20
4340.1545
 11
2191.7646
 21
4333.8369
  0
LINE
  8
0-3
  6
CONTINUOUS
 62
    3
 10
2191.7646
 20
4333.8369
 11
2199.7807
 21
4327.8122
  0
LINE
  8
0-3
  6
CONTINUOUS
 62
    3
 10
2199.7807
 20
4327.8122
 11
2207.6364
 21
4322.1083
  0
LINE
  8
0-3
  6
CONTINUOUS
 62
    3
 10
2207.6364
 20
4322.1083
 11
2215.2961
 21
4316.7428
  0
LINE
  8
0-3
  6
CONTINUOUS
 62
    3
 10
2215.2961
 20
4316.7428
 11
2222.73
 21
4311.7306
  0
LINE
  8
0-3
  6
CONTINUOUS
 62
    3
 10
2222.73
 20
4311.7306
 11
2229.9134
 21
4307.0822
  0
LINE
  8
0-3
  6
CONTINUOUS
 62
    3
 10
2229.9134
 20
4307.0822
 11
2236.8274
 21
4302.8
  0
LINE
  8
0-3
  6
CONTINUOUS
 62
    3
 10
2236.8274
 20
4302.8
 11
2243.4587
 21
4298.8845
  0
LINE
  8
0-3
  6
CONTINUOUS
 62
    3
 10
2243.4587
 20
4298.8845
 11
2249.7994
 21
4295.3278
  0
LINE
  8
0-3
  6
CONTINUOUS
 62
    3
 10
2249.7994
 20
4295.3278
 11
2250.2656
 21
4295.1235
  0
LINE
  8
0-3
  6
CONTINUOUS
 62
    3
 10
2250.2656
 20
4295.1235
 11
2250.7273
 21
4294.9295
  0
LINE
  8
0-3
  6
CONTINUOUS
 62
    3
 10
2250.7273
 20
4294.9295
 11
2251.1853
 21
4294.7449
  0
LINE
  8
0-3
  6
CONTINUOUS
 62
    3
 10
2251.1853
 20
4294.7449
 11
2251.6376
 21
4294.5702
  0
LINE
  8
0-3
  6
CONTINUOUS
 62
    3
 10
2251.6376
 20
4294.5702
 11
2252.0857
 21
4294.4049
  0
LINE
  8
0-3
  6
CONTINUOUS
 62
    3
 10
2252.0857
 20
4294.4049
 11
2252.5284
 21
4294.249
  0
LINE
  8
0-3
  6
CONTINUOUS
 62
    3
 10
2252.5284
 20
4294.249
 11
2252.9674
 21
4294.1025
  0
LINE
  8
0-3
  6
CONTINUOUS
 62
    3
 10
2252.9674
 20
4294.1025
 11
2253.4009
 21
4293.9669
  0
LINE
  8
0-3
  6
CONTINUOUS
 62
    3
 10
2253.4009
 20
4293.9669
 11
2253.8294
 21
4293.8397
  0
LINE
  8
0-3
  6
CONTINUOUS
 62
    3
 10
2108.5056
 20
4410.0167
 11
2111.9954
 21
4411.7498
  0
LINE
  8
0-3
  6
CONTINUOUS
 62
    3
 10
2111.9954
 20
4411.7498
 11
2115.1117
 21
4413.5709
  0
LINE
  8
0-3
  6
CONTINUOUS
 62
    3
 10
2115.1117
 20
4413.5709
 11
2117.8551
 21
4415.4772
  0
LINE
  8
0-3
  6
CONTINUOUS
 62
    3
 10
2117.8551
 20
4415.4772
 11
2120.2246
 21
4417.4716
  0
LINE
  8
0-3
  6
CONTINUOUS
 62
    3
 10
2120.2246
 20
4417.4716
 11
2122.2211
 21
4419.5525
  0
LINE
  8
0-3
  6
CONTINUOUS
 62
    3
 10
2122.2211
 20
4419.5525
 11
2123.8434
 21
4421.7191
  0
LINE
  8
0-3
  6
CONTINUOUS
 62
    3
 10
2123.8434
 20
4421.7191
 11
2125.0924
 21
4423.9743
  0
LINE
  8
0-3
  6
CONTINUOUS
 62
    3
 10
2125.0924
 20
4423.9743
 11
2125.9679
 21
4426.3146
  0
LINE
  8
0-3
  6
CONTINUOUS
 62
    3
 10
2125.9679
 20
4426.3146
 11
2126.4697
 21
4428.7425
  0
LINE
  8
0-3
  6
CONTINUOUS
 62
    3
 10
2126.4727
 20
4367.1136
 11
2126.4727
 21
4390.757
  0
LINE
  8
0-3
  6
CONTINUOUS
 62
    3
 10
2258.8436
 20
4455.0879
 11
2238.773
 21
4499.3247
  0
LINE
  8
0-3
  6
CONTINUOUS
 62
    3
 10
2219.4254
 20
4163.143
 11
2100.0023
 21
4163.143
  0
LINE
  8
0-3
  6
CONTINUOUS
 62
    3
 10
2239.3884
 20
4183.106
 11
2239.3884
 21
4209.2376
  0
LINE
  8
0-3
  6
CONTINUOUS
 62
    3
 10
2209.4442
 20
4145.1935
 11
2100.0023
 21
4145.1935
  0
LINE
  8
0-3
  6
CONTINUOUS
 62
    3
 10
2219.4254
 20
4155.175
 11
2219.4254
 21
4163.143
  0
LINE
  8
0-2
  6
CONTINUOUS
 62
    3
 10
2632.5153
 20
4599.1503
 11
2100.0149
 21
4599.1503
  0
LINE
  8
0-2
  6
CONTINUOUS
 62
    3
 10
2100.0149
 20
4621.7564
 11
2632.5148
 21
4621.7564
  0
LINE
  8
0-2
  6
CONTINUOUS
 62
    3
 10
1300.0001
 20
4771.7569
 11
2100.0001
 21
4771.7569
  0
LINE
  8
0-2
  6
CONTINUOUS
 62
    3
 10
2632.5
 20
4391.7561
 11
2900
 21
4391.7561
  0
LINE
  8
0-2
  6
CONTINUOUS
 62
    3
 10
2632.5
 20
4437.2574
 11
2900
 21
4437.2574
  0
LINE
  8
0-2
  6
CONTINUOUS
 62
    3
 10
2632.5
 20
4456.7566
 11
2900
 21
4456.7566
  0
LINE
  8
0-2
  6
CONTINUOUS
 62
    3
 10
2632.5
 20
4515.2573
 11
2900
 21
4515.2573
  0
LINE
  8
0-2
  6
CONTINUOUS
 62
    3
 10
2632.5
 20
4534.7566
 11
2900
 21
4534.7566
  0
LINE
  8
0-2
  6
CONTINUOUS
 62
    3
 10
1300.0001
 20
4391.7561
 11
2100.0001
 21
4391.7561
  0
LINE
  8
0-2
  6
CONTINUOUS
 62
    3
 10
1300.0001
 20
4437.2574
 11
2100.0001
 21
4437.2574
  0
LINE
  8
0-2
  6
CONTINUOUS
 62
    3
 10
1300.0001
 20
4456.7566
 11
2100.0001
 21
4456.7566
  0
LINE
  8
0-2
  6
CONTINUOUS
 62
    3
 10
1300.0001
 20
4515.2573
 11
2100.0001
 21
4515.2573
  0
LINE
  8
0-2
  6
CONTINUOUS
 62
    3
 10
1300.0001
 20
4534.7566
 11
2100.0001
 21
4534.7566
  0
LINE
  8
0-3
  6
CONTINUOUS
 62
    3
 10
2194.9838
 20
4331.4174
 11
2100.0023
 21
4331.4174
  0
LINE
  8
0-3
  6
CONTINUOUS
 62
    3
 10
2239.3884
 20
4242.5212
 11
2239.3884
 21
4301.2882
  0
LINE
  8
0-8
  6
CONTINUOUS
 62
    7
 10
3238.3188
 20
4391.7561
 11
3238.3188
 21
4771.7569
  0
LINE
  8
0-8
  6
CONTINUOUS
 62
    7
 10
3238.3188
 20
4771.7569
 11
3238.3188
 21
4956.7568
  0
LINE
  8
0-8
  6
CONTINUOUS
 62
    7
 10
2855.5084
 20
4956.7568
 11
3238.3188
 21
4956.7568
  0
LINE
  8
0-8
  6
CONTINUOUS
 62
    7
 10
1567.4998
 20
3899.94
 11
2632.5
 21
3899.94
  0
LINE
  8
0-8
  6
CONTINUOUS
 62
    7
 10
1013.2747
 20
4081.7563
 11
1013.2747
 21
4956.7568
  0
LINE
  8
0-8
  6
CONTINUOUS
 62
    7
 10
1313.8967
 20
4081.7563
 11
1013.2747
 21
4081.7563
  0
LINE
  8
0-8
  6
CONTINUOUS
 62
    7
 10
2949.2767
 20
4771.7569
 11
3238.3188
 21
4771.7569
  0
LINE
  8
0-8
  6
CONTINUOUS
 62
    7
 10
2949.2764
 20
4391.7561
 11
3238.3188
 21
4391.7561
  0
LINE
  8
0-2
  6
CONTINUOUS
 62
    3
 10
2632.5153
 20
4599.1508
 11
2632.5153
 21
4621.7564
  0
LINE
  8
0-8
  6
CONTINUOUS
 62
    7
 10
2714.5228
 20
4621.7564
 11
2844.2088
 21
4621.7564
  0
LINE
  8
0-2
  6
CONTINUOUS
 62
    3
 10
1567.4998
 20
4081.7563
 11
2632.5
 21
4081.7563
  0
LINE
  8
0-8
  6
CONTINUOUS
 62
    7
 10
2714.5228
 20
4081.7573
 11
2844.2088
 21
4081.7573
  0
LINE
  8
0-8
  6
CONTINUOUS
 62
    7
 10
3238.3188
 20
4081.7563
 11
3238.3188
 21
4391.7561
  0
LINE
  8
0-8
  6
CONTINUOUS
 62
    7
 10
2844.2088
 20
4081.7563
 11
3238.3188
 21
4081.7563
  0
LINE
  8
0-8
  6
CONTINUOUS
 62
    7
 10
2844.2088
 20
4081.7573
 11
2844.2088
 21
4621.7564
  0
LINE
  8
0-2
  6
CONTINUOUS
 62
    3
 10
2232.7218
 20
4581.2094
 11
2100.0149
 21
4581.2094
  0
LINE
  8
0-2
  6
CONTINUOUS
 62
    3
 10
2632.5153
 20
4581.2094
 11
2501.4093
 21
4581.2094
  0
LINE
  8
0-2
  6
CONTINUOUS
 62
    3
 10
1567.4998
 20
4199.7562
 11
2100.0001
 21
4199.7562
  0
LINE
  8
0-2
  6
CONTINUOUS
 62
    3
 10
1567.4998
 20
4180.2559
 11
2100.0001
 21
4180.2559
  0
LINE
  8
0-2
  6
CONTINUOUS
 62
    3
 10
2239.1842
 20
4180.2559
 11
2632.5
 21
4180.2559
  0
LINE
  8
0-2
  6
CONTINUOUS
 62
    3
 10
1567.4998
 20
4111.7564
 11
2632.5
 21
4111.7564
  0
LINE
  8
0-2
  6
CONTINUOUS
 62
    3
 10
1567.4998
 20
4111.7569
 11
2100.0001
 21
4111.7569
  0
LINE
  8
0-2
  6
CONTINUOUS
 62
    3
 10
1567.4998
 20
4131.2572
 11
2632.5
 21
4131.2572
  0
LINE
  8
0-2
  6
CONTINUOUS
 62
    3
 10
1567.4998
 20
4391.7571
 11
1567.4998
 21
4199.7562
  0
LINE
  8
0-2
  6
CONTINUOUS
 62
    3
 10
2239.3884
 20
4199.7562
 11
2632.5
 21
4199.7562
  0
LINE
  8
0-2
  6
CONTINUOUS
 62
    3
 10
1567.4998
 20
4180.2559
 11
1567.4998
 21
4131.2572
  0
LINE
  8
0-2
  6
CONTINUOUS
 62
    3
 10
1567.4998
 20
4111.7569
 11
1567.4998
 21
4081.7563
  0
LINE
  8
0-2
  6
CONTINUOUS
 62
    3
 10
2632.5
 20
4581.2094
 11
2632.5
 21
4199.7562
  0
LINE
  8
0-2
  6
CONTINUOUS
 62
    3
 10
2632.5
 20
4180.2559
 11
2632.5
 21
4131.2572
  0
LINE
  8
0-2
  6
CONTINUOUS
 62
    3
 10
2632.5
 20
4111.7564
 11
2632.5
 21
4081.7563
  0
LINE
  8
0-2
  6
CONTINUOUS
 62
    3
 10
2100.0001
 20
4956.7568
 11
1271.8744
 21
4765.2522
  0
LINE
  8
0-2
  6
CONTINUOUS
 62
    3
 10
2100.0001
 20
4956.7568
 11
2928.1258
 21
4765.2522
  0
LINE
  8
0-1
  6
CENTER2
 62
    7
 10
2100.0001
 20
3983.784
 11
2100.0001
 21
4956.7568
  0
LINE
  8
0-2
  6
CONTINUOUS
 62
    3
 10
2438.5307
 20
4878.4713
 11
2100.0001
 21
4878.4713
  0
LINE
  8
0-4
  6
CONTINUOUS
 62
    3
 10
2632.5153
 20
4833.6129
 11
2100.0001
 21
4833.6129
  0
LINE
  8
0-4
  6
CONTINUOUS
 62
    3
 10
2632.5153
 20
4601.7568
 11
2632.5153
 21
4833.6129
  0
LINE
  8
0-4
  6
CONTINUOUS
 62
    4
 10
2632.5153
 20
4826.1125
 11
2100.0001
 21
4826.1125
  0
LINE
  8
0-4
  6
CONTINUOUS
 62
    4
 10
2632.5153
 20
4818.6126
 11
2100.0001
 21
4818.6126
  0
LINE
  8
0-4
  6
CONTINUOUS
 62
    4
 10
2632.5153
 20
4811.1127
 11
2100.0001
 21
4811.1127
  0
LINE
  8
0-4
  6
CONTINUOUS
 62
    4
 10
2632.5153
 20
4803.6123
 11
2100.0001
 21
4803.6123
  0
LINE
  8
0-4
  6
CONTINUOUS
 62
    4
 10
2632.5153
 20
4796.1124
 11
2100.0001
 21
4796.1124
  0
LINE
  8
0-4
  6
CONTINUOUS
 62
    4
 10
2632.5153
 20
4788.6125
 11
2100.0001
 21
4788.6125
  0
LINE
  8
0-4
  6
CONTINUOUS
 62
    4
 10
2625.0152
 20
4601.7568
 11
2625.0152
 21
4833.6129
  0
LINE
  8
0-4
  6
CONTINUOUS
 62
    4
 10
2617.515
 20
4601.7568
 11
2617.515
 21
4833.6129
  0
LINE
  8
0-4
  6
CONTINUOUS
 62
    4
 10
2610.0151
 20
4601.7568
 11
2610.0151
 21
4833.6129
  0
LINE
  8
0-4
  6
CONTINUOUS
 62
    4
 10
2602.5152
 20
4601.7568
 11
2602.5152
 21
4833.6129
  0
LINE
  8
0-4
  6
CONTINUOUS
 62
    4
 10
2595.0153
 20
4601.7568
 11
2595.0153
 21
4833.6129
  0
LINE
  8
0-4
  6
CONTINUOUS
 62
    4
 10
2587.5152
 20
4601.7568
 11
2587.5152
 21
4833.6129
  0
LINE
  8
0-4
  6
CONTINUOUS
 62
    4
 10
2632.5153
 20
4781.1126
 11
2100.0001
 21
4781.1126
  0
LINE
  8
0-4
  6
CONTINUOUS
 62
    4
 10
2632.5153
 20
4773.6127
 11
2100.0001
 21
4773.6127
  0
LINE
  8
0-4
  6
CONTINUOUS
 62
    4
 10
2632.5153
 20
4766.1123
 11
2100.0001
 21
4766.1123
  0
LINE
  8
0-4
  6
CONTINUOUS
 62
    4
 10
2632.5153
 20
4758.6124
 11
2100.0001
 21
4758.6124
  0
LINE
  8
0-4
  6
CONTINUOUS
 62
    4
 10
2632.5153
 20
4751.1125
 11
2100.0001
 21
4751.1125
  0
LINE
  8
0-4
  6
CONTINUOUS
 62
    4
 10
2632.5153
 20
4743.6121
 11
2100.0001
 21
4743.6121
  0
LINE
  8
0-4
  6
CONTINUOUS
 62
    4
 10
2632.5153
 20
4736.1122
 11
2100.0001
 21
4736.1122
  0
LINE
  8
0-4
  6
CONTINUOUS
 62
    4
 10
2632.5153
 20
4728.6123
 11
2100.0001
 21
4728.6123
  0
LINE
  8
0-4
  6
CONTINUOUS
 62
    4
 10
2632.5153
 20
4721.1124
 11
2100.0001
 21
4721.1124
  0
LINE
  8
0-4
  6
CONTINUOUS
 62
    4
 10
2632.5153
 20
4713.6125
 11
2100.0001
 21
4713.6125
  0
LINE
  8
0-4
  6
CONTINUOUS
 62
    4
 10
2632.5153
 20
4706.1121
 11
2100.0001
 21
4706.1121
  0
LINE
  8
0-4
  6
CONTINUOUS
 62
    4
 10
2632.5153
 20
4698.6122
 11
2100.0001
 21
4698.6122
  0
LINE
  8
0-4
  6
CONTINUOUS
 62
    4
 10
2632.5153
 20
4691.1123
 11
2100.0001
 21
4691.1123
  0
LINE
  8
0-4
  6
CONTINUOUS
 62
    4
 10
2632.5153
 20
4683.6119
 11
2100.0001
 21
4683.6119
  0
LINE
  8
0-4
  6
CONTINUOUS
 62
    4
 10
2632.5153
 20
4676.112
 11
2100.0001
 21
4676.112
  0
LINE
  8
0-4
  6
CONTINUOUS
 62
    4
 10
2632.5153
 20
4668.6121
 11
2100.0001
 21
4668.6121
  0
LINE
  8
0-4
  6
CONTINUOUS
 62
    4
 10
2632.5153
 20
4661.1122
 11
2100.0001
 21
4661.1122
  0
LINE
  8
0-4
  6
CONTINUOUS
 62
    4
 10
2632.5153
 20
4653.6123
 11
2100.0001
 21
4653.6123
  0
LINE
  8
0-4
  6
CONTINUOUS
 62
    4
 10
2632.5153
 20
4646.1119
 11
2100.0001
 21
4646.1119
  0
LINE
  8
0-4
  6
CONTINUOUS
 62
    4
 10
2632.5153
 20
4638.612
 11
2100.0001
 21
4638.612
  0
LINE
  8
0-4
  6
CONTINUOUS
 62
    4
 10
2632.5153
 20
4631.1121
 11
2100.0001
 21
4631.1121
  0
LINE
  8
0-4
  6
CONTINUOUS
 62
    4
 10
2632.5153
 20
4623.6117
 11
2100.0001
 21
4623.6117
  0
LINE
  8
0-4
  6
CONTINUOUS
 62
    4
 10
2632.5153
 20
4616.1118
 11
2100.0001
 21
4616.1118
  0
LINE
  8
0-4
  6
CONTINUOUS
 62
    4
 10
2632.5153
 20
4608.6119
 11
2100.0001
 21
4608.6119
  0
LINE
  8
0-4
  6
CONTINUOUS
 62
    4
 10
2580.0153
 20
4601.7568
 11
2580.0153
 21
4833.6129
  0
LINE
  8
0-4
  6
CONTINUOUS
 62
    4
 10
2572.5151
 20
4601.7568
 11
2572.5151
 21
4833.6129
  0
LINE
  8
0-4
  6
CONTINUOUS
 62
    4
 10
2565.0152
 20
4601.7568
 11
2565.0152
 21
4833.6129
  0
LINE
  8
0-4
  6
CONTINUOUS
 62
    4
 10
2557.5153
 20
4601.7568
 11
2557.5153
 21
4833.6129
  0
LINE
  8
0-4
  6
CONTINUOUS
 62
    4
 10
2550.0154
 20
4601.7568
 11
2550.0154
 21
4833.6129
  0
LINE
  8
0-4
  6
CONTINUOUS
 62
    4
 10
2542.5153
 20
4601.7568
 11
2542.5153
 21
4833.6129
  0
LINE
  8
0-4
  6
CONTINUOUS
 62
    4
 10
2535.0151
 20
4601.7568
 11
2535.0151
 21
4833.6129
  0
LINE
  8
0-4
  6
CONTINUOUS
 62
    4
 10
2527.5152
 20
4601.7568
 11
2527.5152
 21
4833.6129
  0
LINE
  8
0-4
  6
CONTINUOUS
 62
    4
 10
2520.0153
 20
4601.7568
 11
2520.0153
 21
4833.6129
  0
LINE
  8
0-4
  6
CONTINUOUS
 62
    4
 10
2512.5154
 20
4601.7568
 11
2512.5154
 21
4833.6129
  0
LINE
  8
0-4
  6
CONTINUOUS
 62
    4
 10
2505.0153
 20
4601.7568
 11
2505.0153
 21
4833.6129
  0
LINE
  8
0-4
  6
CONTINUOUS
 62
    4
 10
2497.5154
 20
4601.7568
 11
2497.5154
 21
4833.6129
  0
LINE
  8
0-4
  6
CONTINUOUS
 62
    4
 10
2490.0152
 20
4601.7568
 11
2490.0152
 21
4833.6129
  0
LINE
  8
0-4
  6
CONTINUOUS
 62
    4
 10
2482.5153
 20
4601.7568
 11
2482.5153
 21
4833.6129
  0
LINE
  8
0-4
  6
CONTINUOUS
 62
    4
 10
2475.0152
 20
4601.7568
 11
2475.0152
 21
4833.6129
  0
LINE
  8
0-4
  6
CONTINUOUS
 62
    4
 10
2467.5155
 20
4601.7568
 11
2467.5155
 21
4833.6129
  0
LINE
  8
0-4
  6
CONTINUOUS
 62
    4
 10
2460.0154
 20
4601.7568
 11
2460.0154
 21
4833.6129
  0
LINE
  8
0-4
  6
CONTINUOUS
 62
    4
 10
2452.5152
 20
4601.7568
 11
2452.5152
 21
4833.6129
  0
LINE
  8
0-4
  6
CONTINUOUS
 62
    4
 10
2445.0153
 20
4601.7568
 11
2445.0153
 21
4833.6129
  0
LINE
  8
0-4
  6
CONTINUOUS
 62
    4
 10
2437.5154
 20
4601.7568
 11
2437.5154
 21
4833.6129
  0
LINE
  8
0-4
  6
CONTINUOUS
 62
    4
 10
2430.0153
 20
4601.7568
 11
2430.0153
 21
4833.6129
  0
LINE
  8
0-4
  6
CONTINUOUS
 62
    4
 10
2422.5154
 20
4601.7568
 11
2422.5154
 21
4833.6129
  0
LINE
  8
0-4
  6
CONTINUOUS
 62
    4
 10
2415.0155
 20
4601.7568
 11
2415.0155
 21
4833.6129
  0
LINE
  8
0-4
  6
CONTINUOUS
 62
    4
 10
2407.5153
 20
4601.7568
 11
2407.5153
 21
4833.6129
  0
LINE
  8
0-4
  6
CONTINUOUS
 62
    4
 10
2400.0154
 20
4601.7568
 11
2400.0154
 21
4833.6129
  0
LINE
  8
0-4
  6
CONTINUOUS
 62
    4
 10
2392.5153
 20
4601.7568
 11
2392.5153
 21
4833.6129
  0
LINE
  8
0-4
  6
CONTINUOUS
 62
    4
 10
2385.0154
 20
4601.7568
 11
2385.0154
 21
4833.6129
  0
LINE
  8
0-4
  6
CONTINUOUS
 62
    4
 10
2377.5155
 20
4601.7568
 11
2377.5155
 21
4833.6129
  0
LINE
  8
0-4
  6
CONTINUOUS
 62
    4
 10
2370.0153
 20
4601.7568
 11
2370.0153
 21
4833.6129
  0
LINE
  8
0-4
  6
CONTINUOUS
 62
    4
 10
2362.5154
 20
4601.7568
 11
2362.5154
 21
4833.6129
  0
LINE
  8
0-4
  6
CONTINUOUS
 62
    4
 10
2355.0155
 20
4601.7568
 11
2355.0155
 21
4833.6129
  0
LINE
  8
0-4
  6
CONTINUOUS
 62
    4
 10
2347.5154
 20
4601.7568
 11
2347.5154
 21
4833.6129
  0
LINE
  8
0-4
  6
CONTINUOUS
 62
    4
 10
2340.0152
 20
4601.7568
 11
2340.0152
 21
4833.6129
  0
LINE
  8
0-4
  6
CONTINUOUS
 62
    4
 10
2332.5156
 20
4601.7568
 11
2332.5156
 21
4833.6129
  0
LINE
  8
0-4
  6
CONTINUOUS
 62
    4
 10
2325.0154
 20
4601.7568
 11
2325.0154
 21
4833.6129
  0
LINE
  8
0-4
  6
CONTINUOUS
 62
    4
 10
2317.5155
 20
4601.7568
 11
2317.5155
 21
4833.6129
  0
LINE
  8
0-4
  6
CONTINUOUS
 62
    4
 10
2310.0154
 20
4601.7568
 11
2310.0154
 21
4833.6129
  0
LINE
  8
0-4
  6
CONTINUOUS
 62
    4
 10
2302.5155
 20
4601.7568
 11
2302.5155
 21
4833.6129
  0
LINE
  8
0-4
  6
CONTINUOUS
 62
    4
 10
2295.0153
 20
4601.7568
 11
2295.0153
 21
4833.6129
  0
LINE
  8
0-4
  6
CONTINUOUS
 62
    4
 10
2287.5154
 20
4601.7568
 11
2287.5154
 21
4833.6129
  0
LINE
  8
0-4
  6
CONTINUOUS
 62
    4
 10
2280.0155
 20
4601.7568
 11
2280.0155
 21
4833.6129
  0
LINE
  8
0-4
  6
CONTINUOUS
 62
    4
 10
2272.5156
 20
4601.7568
 11
2272.5156
 21
4833.6129
  0
LINE
  8
0-4
  6
CONTINUOUS
 62
    4
 10
2265.0155
 20
4601.7568
 11
2265.0155
 21
4833.6129
  0
LINE
  8
0-4
  6
CONTINUOUS
 62
    4
 10
2257.5153
 20
4601.7568
 11
2257.5153
 21
4833.6129
  0
LINE
  8
0-4
  6
CONTINUOUS
 62
    4
 10
2250.0154
 20
4601.7568
 11
2250.0154
 21
4833.6129
  0
LINE
  8
0-4
  6
CONTINUOUS
 62
    4
 10
2242.5155
 20
4601.7568
 11
2242.5155
 21
4833.6129
  0
LINE
  8
0-4
  6
CONTINUOUS
 62
    4
 10
2235.0156
 20
4601.7568
 11
2235.0156
 21
4833.6129
  0
LINE
  8
0-4
  6
CONTINUOUS
 62
    4
 10
2227.5155
 20
4601.7568
 11
2227.5155
 21
4833.6129
  0
LINE
  8
0-4
  6
CONTINUOUS
 62
    4
 10
2220.0156
 20
4601.7568
 11
2220.0156
 21
4833.6129
  0
LINE
  8
0-4
  6
CONTINUOUS
 62
    4
 10
2212.5154
 20
4601.7568
 11
2212.5154
 21
4833.6129
  0
LINE
  8
0-4
  6
CONTINUOUS
 62
    4
 10
2205.0155
 20
4601.7568
 11
2205.0155
 21
4833.6129
  0
LINE
  8
0-4
  6
CONTINUOUS
 62
    4
 10
2197.5156
 20
4601.7568
 11
2197.5156
 21
4833.6129
  0
LINE
  8
0-4
  6
CONTINUOUS
 62
    4
 10
2190.0157
 20
4601.7568
 11
2190.0157
 21
4833.6129
  0
LINE
  8
0-4
  6
CONTINUOUS
 62
    4
 10
2182.5156
 20
4601.7568
 11
2182.5156
 21
4833.6129
  0
LINE
  8
0-4
  6
CONTINUOUS
 62
    4
 10
2175.0154
 20
4601.7568
 11
2175.0154
 21
4833.6129
  0
LINE
  8
0-4
  6
CONTINUOUS
 62
    4
 10
2167.5155
 20
4601.7568
 11
2167.5155
 21
4833.6129
  0
LINE
  8
0-4
  6
CONTINUOUS
 62
    4
 10
2160.0156
 20
4601.7568
 11
2160.0156
 21
4833.6129
  0
LINE
  8
0-4
  6
CONTINUOUS
 62
    4
 10
2152.5157
 20
4601.7568
 11
2152.5157
 21
4833.6129
  0
LINE
  8
0-4
  6
CONTINUOUS
 62
    4
 10
2145.0155
 20
4601.7568
 11
2145.0155
 21
4833.6129
  0
LINE
  8
0-4
  6
CONTINUOUS
 62
    4
 10
2137.5156
 20
4601.7568
 11
2137.5156
 21
4833.6129
  0
LINE
  8
0-4
  6
CONTINUOUS
 62
    4
 10
2130.0155
 20
4601.7568
 11
2130.0155
 21
4833.6129
  0
LINE
  8
0-4
  6
CONTINUOUS
 62
    4
 10
2122.5156
 20
4601.7568
 11
2122.5156
 21
4833.6129
  0
LINE
  8
0-4
  6
CONTINUOUS
 62
    4
 10
2115.0154
 20
4601.7568
 11
2115.0154
 21
4833.6129
  0
LINE
  8
0-4
  6
CONTINUOUS
 62
    4
 10
2107.5158
 20
4601.7568
 11
2107.5158
 21
4833.6129
  0
LINE
  8
0-2
  6
CONTINUOUS
 62
    3
 10
2438.5307
 20
4878.4713
 11
2367.7198
 21
4837.5888
  0
LINE
  8
0-2
  6
CONTINUOUS
 62
    3
 10
2632.5153
 20
4771.7569
 11
2900
 21
4771.7569
  0
LINE
  8
0-2
  6
CONTINUOUS
 62
    3
 10
2900
 20
4515.257
 11
2901.6135
 21
4515.4052
  0
LINE
  8
0-2
  6
CONTINUOUS
 62
    3
 10
2901.6135
 20
4515.4052
 11
2903.1779
 21
4515.845
  0
LINE
  8
0-2
  6
CONTINUOUS
 62
    3
 10
2903.1779
 20
4515.845
 11
2904.6458
 21
4516.5633
  0
LINE
  8
0-2
  6
CONTINUOUS
 62
    3
 10
2904.6458
 20
4516.5633
 11
2905.9726
 21
4517.5381
  0
LINE
  8
0-2
  6
CONTINUOUS
 62
    3
 10
2905.9726
 20
4517.5381
 11
2907.1178
 21
4518.7398
  0
LINE
  8
0-2
  6
CONTINUOUS
 62
    3
 10
2907.1178
 20
4518.7398
 11
2908.0468
 21
4520.132
  0
LINE
  8
0-2
  6
CONTINUOUS
 62
    3
 10
2908.0468
 20
4520.132
 11
2908.7313
 21
4521.6723
  0
LINE
  8
0-2
  6
CONTINUOUS
 62
    3
 10
2908.7313
 20
4521.6723
 11
2909.1505
 21
4523.3139
  0
LINE
  8
0-2
  6
CONTINUOUS
 62
    3
 10
2909.1505
 20
4523.3139
 11
2909.2917
 21
4525.0069
  0
LINE
  8
0-2
  6
CONTINUOUS
 62
    3
 10
2909.2917
 20
4525.0069
 11
2909.1505
 21
4526.7
  0
LINE
  8
0-2
  6
CONTINUOUS
 62
    3
 10
2909.1505
 20
4526.7
 11
2908.7313
 21
4528.3416
  0
LINE
  8
0-2
  6
CONTINUOUS
 62
    3
 10
2908.7313
 20
4528.3416
 11
2908.0468
 21
4529.8819
  0
LINE
  8
0-2
  6
CONTINUOUS
 62
    3
 10
2908.0468
 20
4529.8819
 11
2907.1178
 21
4531.2741
  0
LINE
  8
0-2
  6
CONTINUOUS
 62
    3
 10
2907.1178
 20
4531.2741
 11
2905.9726
 21
4532.4758
  0
LINE
  8
0-2
  6
CONTINUOUS
 62
    3
 10
2905.9726
 20
4532.4758
 11
2904.6458
 21
4533.4506
  0
LINE
  8
0-2
  6
CONTINUOUS
 62
    3
 10
2904.6458
 20
4533.4506
 11
2903.1779
 21
4534.1689
  0
LINE
  8
0-2
  6
CONTINUOUS
 62
    3
 10
2903.1779
 20
4534.1689
 11
2901.6135
 21
4534.6087
  0
LINE
  8
0-2
  6
CONTINUOUS
 62
    3
 10
2901.6135
 20
4534.6087
 11
2900
 21
4534.7568
  0
LINE
  8
0-2
  6
CONTINUOUS
 62
    3
 10
2900
 20
4437.2571
 11
2901.6135
 21
4437.4052
  0
LINE
  8
0-2
  6
CONTINUOUS
 62
    3
 10
2901.6135
 20
4437.4052
 11
2903.1779
 21
4437.8451
  0
LINE
  8
0-2
  6
CONTINUOUS
 62
    3
 10
2903.1779
 20
4437.8451
 11
2904.6458
 21
4438.5633
  0
LINE
  8
0-2
  6
CONTINUOUS
 62
    3
 10
2904.6458
 20
4438.5633
 11
2905.9726
 21
4439.5381
  0
LINE
  8
0-2
  6
CONTINUOUS
 62
    3
 10
2905.9726
 20
4439.5381
 11
2907.1178
 21
4440.7399
  0
LINE
  8
0-2
  6
CONTINUOUS
 62
    3
 10
2907.1178
 20
4440.7399
 11
2908.0468
 21
4442.132
  0
LINE
  8
0-2
  6
CONTINUOUS
 62
    3
 10
2908.0468
 20
4442.132
 11
2908.7313
 21
4443.6723
  0
LINE
  8
0-2
  6
CONTINUOUS
 62
    3
 10
2908.7313
 20
4443.6723
 11
2909.1505
 21
4445.3139
  0
LINE
  8
0-2
  6
CONTINUOUS
 62
    3
 10
2909.1505
 20
4445.3139
 11
2909.2917
 21
4447.007
  0
LINE
  8
0-2
  6
CONTINUOUS
 62
    3
 10
2909.2917
 20
4447.007
 11
2909.1505
 21
4448.7
  0
LINE
  8
0-2
  6
CONTINUOUS
 62
    3
 10
2909.1505
 20
4448.7
 11
2908.7313
 21
4450.3416
  0
LINE
  8
0-2
  6
CONTINUOUS
 62
    3
 10
2908.7313
 20
4450.3416
 11
2908.0468
 21
4451.8819
  0
LINE
  8
0-2
  6
CONTINUOUS
 62
    3
 10
2908.0468
 20
4451.8819
 11
2907.1178
 21
4453.2741
  0
LINE
  8
0-2
  6
CONTINUOUS
 62
    3
 10
2907.1178
 20
4453.2741
 11
2905.9726
 21
4454.4758
  0
LINE
  8
0-2
  6
CONTINUOUS
 62
    3
 10
2905.9726
 20
4454.4758
 11
2904.6458
 21
4455.4506
  0
LINE
  8
0-2
  6
CONTINUOUS
 62
    3
 10
2904.6458
 20
4455.4506
 11
2903.1779
 21
4456.1689
  0
LINE
  8
0-2
  6
CONTINUOUS
 62
    3
 10
2903.1779
 20
4456.1689
 11
2901.6135
 21
4456.6088
  0
LINE
  8
0-2
  6
CONTINUOUS
 62
    3
 10
2901.6135
 20
4456.6088
 11
2900
 21
4456.7569
  0
LINE
  8
0-2
  6
CONTINUOUS
 62
    3
 10
1300.0001
 20
4534.7568
 11
1298.3866
 21
4534.6087
  0
LINE
  8
0-2
  6
CONTINUOUS
 62
    3
 10
1298.3866
 20
4534.6087
 11
1296.8222
 21
4534.1689
  0
LINE
  8
0-2
  6
CONTINUOUS
 62
    3
 10
1296.8222
 20
4534.1689
 11
1295.3543
 21
4533.4506
  0
LINE
  8
0-2
  6
CONTINUOUS
 62
    3
 10
1295.3543
 20
4533.4506
 11
1294.0275
 21
4532.4758
  0
LINE
  8
0-2
  6
CONTINUOUS
 62
    3
 10
1294.0275
 20
4532.4758
 11
1292.8823
 21
4531.2741
  0
LINE
  8
0-2
  6
CONTINUOUS
 62
    3
 10
1292.8823
 20
4531.2741
 11
1291.9533
 21
4529.8819
  0
LINE
  8
0-2
  6
CONTINUOUS
 62
    3
 10
1291.9533
 20
4529.8819
 11
1291.2688
 21
4528.3416
  0
LINE
  8
0-2
  6
CONTINUOUS
 62
    3
 10
1291.2688
 20
4528.3416
 11
1290.8496
 21
4526.7
  0
LINE
  8
0-2
  6
CONTINUOUS
 62
    3
 10
1290.8496
 20
4526.7
 11
1290.7084
 21
4525.0069
  0
LINE
  8
0-2
  6
CONTINUOUS
 62
    3
 10
1290.7084
 20
4525.0069
 11
1290.8496
 21
4523.3139
  0
LINE
  8
0-2
  6
CONTINUOUS
 62
    3
 10
1290.8496
 20
4523.3139
 11
1291.2688
 21
4521.6723
  0
LINE
  8
0-2
  6
CONTINUOUS
 62
    3
 10
1291.2688
 20
4521.6723
 11
1291.9533
 21
4520.132
  0
LINE
  8
0-2
  6
CONTINUOUS
 62
    3
 10
1291.9533
 20
4520.132
 11
1292.8823
 21
4518.7398
  0
LINE
  8
0-2
  6
CONTINUOUS
 62
    3
 10
1292.8823
 20
4518.7398
 11
1294.0275
 21
4517.5381
  0
LINE
  8
0-2
  6
CONTINUOUS
 62
    3
 10
1294.0275
 20
4517.5381
 11
1295.3543
 21
4516.5633
  0
LINE
  8
0-2
  6
CONTINUOUS
 62
    3
 10
1295.3543
 20
4516.5633
 11
1296.8222
 21
4515.845
  0
LINE
  8
0-2
  6
CONTINUOUS
 62
    3
 10
1296.8222
 20
4515.845
 11
1298.3866
 21
4515.4052
  0
LINE
  8
0-2
  6
CONTINUOUS
 62
    3
 10
1298.3866
 20
4515.4052
 11
1300.0001
 21
4515.257
  0
LINE
  8
0-2
  6
CONTINUOUS
 62
    3
 10
1300.0001
 20
4456.7569
 11
1298.3866
 21
4456.6088
  0
LINE
  8
0-2
  6
CONTINUOUS
 62
    3
 10
1298.3866
 20
4456.6088
 11
1296.8222
 21
4456.1689
  0
LINE
  8
0-2
  6
CONTINUOUS
 62
    3
 10
1296.8222
 20
4456.1689
 11
1295.3543
 21
4455.4506
  0
LINE
  8
0-2
  6
CONTINUOUS
 62
    3
 10
1295.3543
 20
4455.4506
 11
1294.0275
 21
4454.4758
  0
LINE
  8
0-2
  6
CONTINUOUS
 62
    3
 10
1294.0275
 20
4454.4758
 11
1292.8823
 21
4453.2741
  0
LINE
  8
0-2
  6
CONTINUOUS
 62
    3
 10
1292.8823
 20
4453.2741
 11
1291.9533
 21
4451.8819
  0
LINE
  8
0-2
  6
CONTINUOUS
 62
    3
 10
1291.9533
 20
4451.8819
 11
1291.2688
 21
4450.3416
  0
LINE
  8
0-2
  6
CONTINUOUS
 62
    3
 10
1291.2688
 20
4450.3416
 11
1290.8496
 21
4448.7
  0
LINE
  8
0-2
  6
CONTINUOUS
 62
    3
 10
1290.8496
 20
4448.7
 11
1290.7084
 21
4447.007
  0
LINE
  8
0-2
  6
CONTINUOUS
 62
    3
 10
1290.7084
 20
4447.007
 11
1290.8496
 21
4445.3139
  0
LINE
  8
0-2
  6
CONTINUOUS
 62
    3
 10
1290.8496
 20
4445.3139
 11
1291.2688
 21
4443.6723
  0
LINE
  8
0-2
  6
CONTINUOUS
 62
    3
 10
1291.2688
 20
4443.6723
 11
1291.9533
 21
4442.132
  0
LINE
  8
0-2
  6
CONTINUOUS
 62
    3
 10
1291.9533
 20
4442.132
 11
1292.8823
 21
4440.7399
  0
LINE
  8
0-2
  6
CONTINUOUS
 62
    3
 10
1292.8823
 20
4440.7399
 11
1294.0275
 21
4439.5381
  0
LINE
  8
0-2
  6
CONTINUOUS
 62
    3
 10
1294.0275
 20
4439.5381
 11
1295.3543
 21
4438.5633
  0
LINE
  8
0-2
  6
CONTINUOUS
 62
    3
 10
1295.3543
 20
4438.5633
 11
1296.8222
 21
4437.8451
  0
LINE
  8
0-2
  6
CONTINUOUS
 62
    3
 10
1296.8222
 20
4437.8451
 11
1298.3866
 21
4437.4052
  0
LINE
  8
0-2
  6
CONTINUOUS
 62
    3
 10
1298.3866
 20
4437.4052
 11
1300.0001
 21
4437.2571
  0
LINE
  8
0-2
  6
CONTINUOUS
 62
    3
 10
2632.5
 20
4180.2557
 11
2634.1135
 21
4180.4038
  0
LINE
  8
0-2
  6
CONTINUOUS
 62
    3
 10
2634.1135
 20
4180.4038
 11
2635.6779
 21
4180.8437
  0
LINE
  8
0-2
  6
CONTINUOUS
 62
    3
 10
2635.6779
 20
4180.8437
 11
2637.1458
 21
4181.5619
  0
LINE
  8
0-2
  6
CONTINUOUS
 62
    3
 10
2637.1458
 20
4181.5619
 11
2638.4725
 21
4182.5367
  0
LINE
  8
0-2
  6
CONTINUOUS
 62
    3
 10
2638.4725
 20
4182.5367
 11
2639.6178
 21
4183.7385
  0
LINE
  8
0-2
  6
CONTINUOUS
 62
    3
 10
2639.6178
 20
4183.7385
 11
2640.5468
 21
4185.1306
  0
LINE
  8
0-2
  6
CONTINUOUS
 62
    3
 10
2640.5468
 20
4185.1306
 11
2641.2313
 21
4186.6709
  0
LINE
  8
0-2
  6
CONTINUOUS
 62
    3
 10
2641.2313
 20
4186.6709
 11
2641.6505
 21
4188.3125
  0
LINE
  8
0-2
  6
CONTINUOUS
 62
    3
 10
2641.6505
 20
4188.3125
 11
2641.7916
 21
4190.0056
  0
LINE
  8
0-2
  6
CONTINUOUS
 62
    3
 10
2641.7916
 20
4190.0056
 11
2641.6505
 21
4191.6986
  0
LINE
  8
0-2
  6
CONTINUOUS
 62
    3
 10
2641.6505
 20
4191.6986
 11
2641.2313
 21
4193.3402
  0
LINE
  8
0-2
  6
CONTINUOUS
 62
    3
 10
2641.2313
 20
4193.3402
 11
2640.5468
 21
4194.8805
  0
LINE
  8
0-2
  6
CONTINUOUS
 62
    3
 10
2640.5468
 20
4194.8805
 11
2639.6178
 21
4196.2727
  0
LINE
  8
0-2
  6
CONTINUOUS
 62
    3
 10
2639.6178
 20
4196.2727
 11
2638.4725
 21
4197.4744
  0
LINE
  8
0-2
  6
CONTINUOUS
 62
    3
 10
2638.4725
 20
4197.4744
 11
2637.1458
 21
4198.4492
  0
LINE
  8
0-2
  6
CONTINUOUS
 62
    3
 10
2637.1458
 20
4198.4492
 11
2635.6779
 21
4199.1675
  0
LINE
  8
0-2
  6
CONTINUOUS
 62
    3
 10
2635.6779
 20
4199.1675
 11
2634.1135
 21
4199.6074
  0
LINE
  8
0-2
  6
CONTINUOUS
 62
    3
 10
2634.1135
 20
4199.6074
 11
2632.5
 21
4199.7555
  0
LINE
  8
0-2
  6
CONTINUOUS
 62
    3
 10
1567.4998
 20
4199.7555
 11
1565.8863
 21
4199.6074
  0
LINE
  8
0-2
  6
CONTINUOUS
 62
    3
 10
1565.8863
 20
4199.6074
 11
1564.3218
 21
4199.1675
  0
LINE
  8
0-2
  6
CONTINUOUS
 62
    3
 10
1564.3218
 20
4199.1675
 11
1562.8539
 21
4198.4492
  0
LINE
  8
0-2
  6
CONTINUOUS
 62
    3
 10
1562.8539
 20
4198.4492
 11
1561.5272
 21
4197.4744
  0
LINE
  8
0-2
  6
CONTINUOUS
 62
    3
 10
1561.5272
 20
4197.4744
 11
1560.3819
 21
4196.2727
  0
LINE
  8
0-2
  6
CONTINUOUS
 62
    3
 10
1560.3819
 20
4196.2727
 11
1559.4529
 21
4194.8805
  0
LINE
  8
0-2
  6
CONTINUOUS
 62
    3
 10
1559.4529
 20
4194.8805
 11
1558.7685
 21
4193.3402
  0
LINE
  8
0-2
  6
CONTINUOUS
 62
    3
 10
1558.7685
 20
4193.3402
 11
1558.3493
 21
4191.6986
  0
LINE
  8
0-2
  6
CONTINUOUS
 62
    3
 10
1558.3493
 20
4191.6986
 11
1558.2081
 21
4190.0056
  0
LINE
  8
0-2
  6
CONTINUOUS
 62
    3
 10
1558.2081
 20
4190.0056
 11
1558.3493
 21
4188.3125
  0
LINE
  8
0-2
  6
CONTINUOUS
 62
    3
 10
1558.3493
 20
4188.3125
 11
1558.7685
 21
4186.6709
  0
LINE
  8
0-2
  6
CONTINUOUS
 62
    3
 10
1558.7685
 20
4186.6709
 11
1559.4529
 21
4185.1306
  0
LINE
  8
0-2
  6
CONTINUOUS
 62
    3
 10
1559.4529
 20
4185.1306
 11
1560.3819
 21
4183.7385
  0
LINE
  8
0-2
  6
CONTINUOUS
 62
    3
 10
1560.3819
 20
4183.7385
 11
1561.5272
 21
4182.5367
  0
LINE
  8
0-2
  6
CONTINUOUS
 62
    3
 10
1561.5272
 20
4182.5367
 11
1562.8539
 21
4181.5619
  0
LINE
  8
0-2
  6
CONTINUOUS
 62
    3
 10
1562.8539
 20
4181.5619
 11
1564.3218
 21
4180.8437
  0
LINE
  8
0-2
  6
CONTINUOUS
 62
    3
 10
1564.3218
 20
4180.8437
 11
1565.8863
 21
4180.4038
  0
LINE
  8
0-2
  6
CONTINUOUS
 62
    3
 10
1565.8863
 20
4180.4038
 11
1567.4998
 21
4180.2557
  0
ARC
  8
0-3
  6
CONTINUOUS
 62
    3
 10
2116.2806
 20
4367.1136
 40
10.192054
 50
270
 51
0
  0
ARC
  8
0-3
  6
CONTINUOUS
 62
    3
 10
2116.2806
 20
4503.3282
 40
10.192054
 50
0
 51
90
  0
ARC
  8
0-3
  6
CONTINUOUS
 62
    3
 10
2219.4254
 20
4183.106
 40
19.962931
 50
270
 51
0
  0
ARC
  8
0-3
  6
CONTINUOUS
 62
    3
 10
2209.4442
 20
4155.175
 40
9.9814658
 50
270
 51
0
  0
ARC
  8
0-2
  6
CONTINUOUS
 62
    3
 10
2632.5153
 20
4590.1801
 40
8.9706151
 50
270
 51
90
  0
LINE
  8
0-2
  6
CONTINUOUS
 62
    3
 10
1567.4998
 20
4131.2565
 11
1565.8863
 21
4131.1083
  0
LINE
  8
0-2
  6
CONTINUOUS
 62
    3
 10
1565.8863
 20
4131.1083
 11
1564.3218
 21
4130.6685
  0
LINE
  8
0-2
  6
CONTINUOUS
 62
    3
 10
1564.3218
 20
4130.6685
 11
1562.8539
 21
4129.9502
  0
LINE
  8
0-2
  6
CONTINUOUS
 62
    3
 10
1562.8539
 20
4129.9502
 11
1561.5272
 21
4128.9754
  0
LINE
  8
0-2
  6
CONTINUOUS
 62
    3
 10
1561.5272
 20
4128.9754
 11
1560.3819
 21
4127.7737
  0
LINE
  8
0-2
  6
CONTINUOUS
 62
    3
 10
1560.3819
 20
4127.7737
 11
1559.4529
 21
4126.3815
  0
LINE
  8
0-2
  6
CONTINUOUS
 62
    3
 10
1559.4529
 20
4126.3815
 11
1558.7685
 21
4124.8412
  0
LINE
  8
0-2
  6
CONTINUOUS
 62
    3
 10
1558.7685
 20
4124.8412
 11
1558.3493
 21
4123.1996
  0
LINE
  8
0-2
  6
CONTINUOUS
 62
    3
 10
1558.3493
 20
4123.1996
 11
1558.2081
 21
4121.5066
  0
LINE
  8
0-2
  6
CONTINUOUS
 62
    3
 10
1558.2081
 20
4121.5066
 11
1558.3493
 21
4119.8135
  0
LINE
  8
0-2
  6
CONTINUOUS
 62
    3
 10
1558.3493
 20
4119.8135
 11
1558.7685
 21
4118.1719
  0
LINE
  8
0-2
  6
CONTINUOUS
 62
    3
 10
1558.7685
 20
4118.1719
 11
1559.4529
 21
4116.6316
  0
LINE
  8
0-2
  6
CONTINUOUS
 62
    3
 10
1559.4529
 20
4116.6316
 11
1560.3819
 21
4115.2394
  0
LINE
  8
0-2
  6
CONTINUOUS
 62
    3
 10
1560.3819
 20
4115.2394
 11
1561.5272
 21
4114.0377
  0
LINE
  8
0-2
  6
CONTINUOUS
 62
    3
 10
1561.5272
 20
4114.0377
 11
1562.8539
 21
4113.0629
  0
LINE
  8
0-2
  6
CONTINUOUS
 62
    3
 10
1562.8539
 20
4113.0629
 11
1564.3218
 21
4112.3446
  0
LINE
  8
0-2
  6
CONTINUOUS
 62
    3
 10
1564.3218
 20
4112.3446
 11
1565.8863
 21
4111.9048
  0
LINE
  8
0-2
  6
CONTINUOUS
 62
    3
 10
1565.8863
 20
4111.9048
 11
1567.4998
 21
4111.7567
  0
LINE
  8
0-2
  6
CONTINUOUS
 62
    3
 10
2632.5005
 20
4111.7567
 11
2634.114
 21
4111.9048
  0
LINE
  8
0-2
  6
CONTINUOUS
 62
    3
 10
2634.114
 20
4111.9048
 11
2635.6784
 21
4112.3446
  0
LINE
  8
0-2
  6
CONTINUOUS
 62
    3
 10
2635.6784
 20
4112.3446
 11
2637.1463
 21
4113.0629
  0
LINE
  8
0-2
  6
CONTINUOUS
 62
    3
 10
2637.1463
 20
4113.0629
 11
2638.473
 21
4114.0377
  0
LINE
  8
0-2
  6
CONTINUOUS
 62
    3
 10
2638.473
 20
4114.0377
 11
2639.6183
 21
4115.2394
  0
LINE
  8
0-2
  6
CONTINUOUS
 62
    3
 10
2639.6183
 20
4115.2394
 11
2640.5473
 21
4116.6316
  0
LINE
  8
0-2
  6
CONTINUOUS
 62
    3
 10
2640.5473
 20
4116.6316
 11
2641.2318
 21
4118.1719
  0
LINE
  8
0-2
  6
CONTINUOUS
 62
    3
 10
2641.2318
 20
4118.1719
 11
2641.651
 21
4119.8135
  0
LINE
  8
0-2
  6
CONTINUOUS
 62
    3
 10
2641.651
 20
4119.8135
 11
2641.7921
 21
4121.5066
  0
LINE
  8
0-2
  6
CONTINUOUS
 62
    3
 10
2641.7921
 20
4121.5066
 11
2641.651
 21
4123.1996
  0
LINE
  8
0-2
  6
CONTINUOUS
 62
    3
 10
2641.651
 20
4123.1996
 11
2641.2318
 21
4124.8412
  0
LINE
  8
0-2
  6
CONTINUOUS
 62
    3
 10
2641.2318
 20
4124.8412
 11
2640.5473
 21
4126.3815
  0
LINE
  8
0-2
  6
CONTINUOUS
 62
    3
 10
2640.5473
 20
4126.3815
 11
2639.6183
 21
4127.7737
  0
LINE
  8
0-2
  6
CONTINUOUS
 62
    3
 10
2639.6183
 20
4127.7737
 11
2638.473
 21
4128.9754
  0
LINE
  8
0-2
  6
CONTINUOUS
 62
    3
 10
2638.473
 20
4128.9754
 11
2637.1463
 21
4129.9502
  0
LINE
  8
0-2
  6
CONTINUOUS
 62
    3
 10
2637.1463
 20
4129.9502
 11
2635.6784
 21
4130.6685
  0
LINE
  8
0-2
  6
CONTINUOUS
 62
    3
 10
2635.6784
 20
4130.6685
 11
2634.114
 21
4131.1083
  0
LINE
  8
0-2
  6
CONTINUOUS
 62
    3
 10
2634.114
 20
4131.1083
 11
2632.5005
 21
4131.2565
  0
TEXT
  8
0-d
 10
509.99972
 20
310.13515
 40
50
 41
1
 50
0
  1
図
  0
TEXT
  8
0-d
 10
509.99972
 20
190.13521
 40
50
 41
1
 50
0
  1
番
  0
TEXT
  8
0-d
 10
1309.9998
 20
310.13515
 40
50
 41
1
 50
0
  1
承
  0
TEXT
  8
0-d
 10
1309.9998
 20
190.13521
 40
50
 41
1
 50
0
  1
認
  0
TEXT
  8
0-d
 10
2039.9997
 20
470.13525
 40
50
 41
1
 50
0
  1
尺
  0
TEXT
  8
0-d
 10
2039.9997
 20
390.13529
 40
50
 41
1
 50
359.99986
  1
度
  0
TEXT
  8
0-d
 10
1709.9997
 20
310.13515
 40
50
 41
1
 50
0
  1
製
  0
TEXT
  8
0-d
 10
1709.9997
 20
190.13521
 40
50
 41
1
 50
0
  1
図
  0
TEXT
  8
0-d
 10
3110
 20
470.13525
 40
50
 41
1
 50
0
  1
日
  0
TEXT
  8
0-d
 10
3110
 20
390.13529
 40
50
 41
1
 50
359.99986
  1
付
  0
TEXT
  8
0-d
 10
2222.852
 20
322.09976
 40
40
 41
1
 50
0
  1
株式
  0
TEXT
  8
0-d
 10
2222.852
 20
278.83889
 40
40
 41
1
 50
0.0000152
  1
会社
  0
TEXT
  8
0-d
 10
2348.4485
 20
281.62989
 40
80
 41
1
 50
0
  1
スズキベンチレーター
  0
TEXT
  8
0-d
 10
2475.8354
 20
183.18397
 40
40
 41
1
 50
0
  1
TEL(054)296-7000  FAX(054)296-7001
  0
TEXT
  8
0-8
 10
2024.3751
 20
5110.9974
 40
60
 41
1
 50
0
  1
1,600
  0
TEXT
  8
0-8
 10
998.2751
 20
4364.8817
 40
60
 41
1
 50
90
  1
875
  0
TEXT
  8
0-8
 10
2024.3748
 20
3914.9403
 40
60
 41
1
 50
0
  1
1,065
  0
TEXT
  8
0-8
 10
3223.3188
 20
4807.3818
 40
60
 41
1
 50
90
  1
185
  0
TEXT
  8
0-8
 10
3223.3188
 20
4562.3812
 40
60
 41
1
 50
90
  1
380
  0
TEXT
  8
0-8
 10
3223.3188
 20
4207.3813
 40
60
 41
1
 50
90
  1
310
  0
TEXT
  8
0-8
 10
2829.2087
 20
4302.3819
 40
60
 41
1
 50
90
  1
540
  0
TEXT
  8
0-d
 10
510.00006
 20
5545.4028
 40
100
 41
1
 50
0
  1
ＳＴ－１０５　直付型（網付）断面
  0
TEXT
  8
0-d
 10
562.32181
 20
415.28022
 40
60
 41
1
 50
0
  1
ＳＴ－１０５　直付型（網付）断面
  0
TEXT
  8
0-d
 10
2168.6978
 20
415.33667
 40
80
 41
1
 50
0
  1
１／２０
  0
TEXT
  8
0-d
 10
596.6753
 20
287.90676
 40
60
 41
1
 50
0
  1
105-G05a
  0
TEXT
  8
0-d
 10
2471.3583
 20
232.42738
 40
40
 41
1
 50
0
  1
〒421-2114　静岡市葵区安倍口新田１５２番地
  0
POINT
  8
0-8
 62
    2
 10
1013.2747
 20
4081.7563
  0
POINT
  8
0-8
 62
    2
 10
1013.2747
 20
4956.7568
  0
POINT
  8
0-8
 62
    2
 10
1300.0001
 20
5095.9971
  0
POINT
  8
0-8
 62
    2
 10
2900
 20
5095.9971
  0
POINT
  8
0-8
 62
    2
 10
1567.4998
 20
3899.94
  0
POINT
  8
0-8
 62
    2
 10
2632.5
 20
3899.94
  0
POINT
  8
0-8
 62
    2
 10
3238.3188
 20
4391.7561
  0
POINT
  8
0-8
 62
    2
 10
3238.3188
 20
4771.7569
  0
POINT
  8
0-8
 62
    2
 10
3238.3188
 20
4956.7568
  0
POINT
  8
0-8
 62
    2
 10
2844.2088
 20
4621.7564
  0
POINT
  8
0-8
 62
    2
 10
2844.2088
 20
4081.7573
  0
POINT
  8
0-8
 62
    2
 10
3238.3188
 20
4081.7563
  0
ENDSEC
  0
EOF
