  0
SECTION
  2
HEADER
  9
$EXTMIN
 10
0
 20
0
  9
$EXTMAX
 10
8400
 20
5940
  0
ENDSEC
  0
SECTION
  2
TABLES
  0
TABLE
  2
LTYPE
 70
     9
  0
LTYPE
  2
CONTINUOUS
 70
    64
  3
実線
 72
    65
 73
     0
 40
0.0
  0
LTYPE
  2
DASHED1
 70
    64
  3
--  --  --  --  --  --  --  --  
 72
    65
 73
     2
 40
2.5
 49
1.25
 49
-1.25
  0
LTYPE
  2
DASHED2
 70
    64
  3
----    ----    ----    ----    
 72
    65
 73
     2
 40
5.0
 49
2.5
 49
-2.5
  0
LTYPE
  2
DASHED3
 70
    64
  3
------  ------  ------  ------  
 72
    65
 73
     2
 40
5.0
 49
3.75
 49
-1.25
  0
LTYPE
  2
CENTER1
 70
    64
  3
----- - ----- - ----- - ----- - 
 72
    65
 73
     4
 40
10.0
 49
6.25
 49
-1.25
 49
1.25
 49
-1.25
  0
LTYPE
  2
CENTER2
 70
    64
  3
----------  --  ----------  --  
 72
    65
 73
     4
 40
20.0
 49
12.5
 49
-2.5
 49
2.5
 49
-2.5
  0
LTYPE
  2
PHANTOM1
 70
    64
  3
--- - - --- - - --- - - --- - - 
 72
    65
 73
     6
 40
10.0
 49
3.25
 49
-1.25
 49
1.25
 49
-1.25
 49
1.25
 49
-1.25
  0
LTYPE
  2
PHANTOM2
 70
    64
  3
--------  -  -  --------  -  -  
 72
    65
 73
     6
 40
20.0
 49
10.0
 49
-2.5
 49
1.25
 49
-2.5
 49
1.25
 49
-2.5
  0
LTYPE
  2
DOT
 70
    64
  3
-   -   -   -   -   -   -   -   
 72
    65
 73
     2
 40
2.5
 49
0.625
 49
-1.875
  0
ENDTAB
  0
TABLE
  2
STYLE
 70
    1
  0
STYLE
  2
STANDARD
 70
    64
 40
0.0
 41
1.0
 42
0.0
 50
0.0
 71
     0
  3
TXT
  4
BIGFONT
  0
ENDTAB
  0
TABLE
  2
LAYER
 70
    6
  0
LAYER
  2
0-1
 70
   64
 62
    7
  6
CONTINUOUS
  0
LAYER
  2
0-2
 70
   64
 62
    7
  6
CONTINUOUS
  0
LAYER
  2
0-3
 70
   64
 62
    7
  6
CONTINUOUS
  0
LAYER
  2
0-8
 70
   64
 62
    7
  6
CONTINUOUS
  0
LAYER
  2
0-d
 70
   64
 62
    7
  6
CONTINUOUS
  0
LAYER
  2
ADD_LINE
 70
   64
 62
    7
  6
CONTINUOUS
  0
ENDTAB
  0
ENDSEC
  0
SECTION
  2
ENTITIES
  0
LINE
  8
0-d
  6
CONTINUOUS
 62
    7
 10
500.00006
 20
5515.4027
 11
3700.0002
 21
5515.4027
  0
LINE
  8
0-d
  6
CONTINUOUS
 62
    7
 10
500.00006
 20
5535.4028
 11
3700.0002
 21
5535.4028
  0
LINE
  8
0-d
  6
CONTINUOUS
 62
    7
 10
499.99981
 20
375.13524
 11
3700
 21
375.13524
  0
LINE
  8
0-d
  6
CONTINUOUS
 62
    7
 10
499.99981
 20
175.13519
 11
499.99981
 21
535.13516
  0
LINE
  8
0-d
  6
CONTINUOUS
 62
    7
 10
499.99981
 20
175.13519
 11
3700
 21
175.13519
  0
LINE
  8
0-d
  6
CONTINUOUS
 62
    7
 10
2100.0001
 20
535.13516
 11
2100.0001
 21
175.13519
  0
LINE
  8
0-d
  6
CONTINUOUS
 62
    7
 10
1300
 20
175.13519
 11
1300
 21
375.13524
  0
LINE
  8
0-d
  6
CONTINUOUS
 62
    7
 10
2100.0001
 20
375.13524
 11
2100.0001
 21
535.13516
  0
LINE
  8
0-d
  6
CONTINUOUS
 62
    7
 10
1700
 20
175.13519
 11
1700
 21
375.13524
  0
LINE
  8
0-d
  6
CONTINUOUS
 62
    7
 10
569.99968
 20
175.13519
 11
569.99968
 21
375.13524
  0
LINE
  8
0-d
  6
CONTINUOUS
 62
    7
 10
1369.9996
 20
175.13519
 11
1369.9996
 21
375.13524
  0
LINE
  8
0-d
  6
CONTINUOUS
 62
    7
 10
1769.9996
 20
175.13519
 11
1769.9996
 21
375.13524
  0
LINE
  8
0-d
  6
CONTINUOUS
 62
    7
 10
2029.9999
 20
375.13524
 11
2029.9999
 21
535.13516
  0
LINE
  8
0-d
  6
CONTINUOUS
 62
    7
 10
3099.9999
 20
375.13524
 11
3099.9999
 21
535.13516
  0
LINE
  8
0-d
  6
CONTINUOUS
 62
    7
 10
3169.9997
 20
375.13524
 11
3169.9997
 21
535.13516
  0
LINE
  8
0-d
  6
CONTINUOUS
 62
    7
 10
499.99981
 20
535.13516
 11
3700
 21
535.13516
  0
LINE
  8
0-d
  6
CONTINUOUS
 62
    7
 10
3700
 20
535.13516
 11
3700
 21
175.13519
  0
LINE
  8
0-8
  6
CONTINUOUS
 62
    7
 10
1300.0001
 20
5095.9971
 11
2900
 21
5095.9971
  0
LINE
  8
0-2
  6
CONTINUOUS
 62
    3
 10
1300.0001
 20
4771.7569
 11
1300.0001
 21
4534.7566
  0
LINE
  8
0-2
  6
CONTINUOUS
 62
    3
 10
2900
 20
4771.7569
 11
2900
 21
4534.7566
  0
LINE
  8
0-8
  6
CONTINUOUS
 62
    7
 10
1299.9999
 20
4852.305
 11
1300.0001
 21
5095.9971
  0
LINE
  8
0-8
  6
CONTINUOUS
 62
    7
 10
1604.5541
 20
4956.7568
 11
1013.2749
 21
4956.7568
  0
LINE
  8
0-8
  6
CONTINUOUS
 62
    7
 10
2900
 20
4852.305
 11
2900
 21
5095.9971
  0
LINE
  8
0-2
  6
CONTINUOUS
 62
    3
 10
1300.0001
 20
4515.2573
 11
1300.0001
 21
4456.7571
  0
LINE
  8
0-2
  6
CONTINUOUS
 62
    3
 10
1300.0001
 20
4437.2574
 11
1300.0001
 21
4391.7566
  0
LINE
  8
0-2
  6
CONTINUOUS
 62
    3
 10
2900
 20
4515.2573
 11
2900
 21
4456.7571
  0
LINE
  8
0-2
  6
CONTINUOUS
 62
    3
 10
2899.998
 20
4437.2574
 11
2899.998
 21
4391.7566
  0
LINE
  8
0-2
  6
CONTINUOUS
 62
    3
 10
1567.5001
 20
4388.7567
 11
1567.5001
 21
4244.7571
  0
LINE
  8
0-2
  6
CONTINUOUS
 62
    3
 10
2632.5156
 20
4579.1502
 11
2100.0152
 21
4579.1502
  0
LINE
  8
0-2
  6
CONTINUOUS
 62
    3
 10
2100.0152
 20
4601.7563
 11
2632.5151
 21
4601.7563
  0
LINE
  8
0-2
  6
CONTINUOUS
 62
    3
 10
1300.0001
 20
4771.7569
 11
2100.0001
 21
4771.7569
  0
LINE
  8
0-2
  6
CONTINUOUS
 62
    3
 10
2632.5
 20
4391.7566
 11
2900
 21
4391.7566
  0
LINE
  8
0-2
  6
CONTINUOUS
 62
    3
 10
2632.5
 20
4437.2574
 11
2900
 21
4437.2574
  0
LINE
  8
0-2
  6
CONTINUOUS
 62
    3
 10
2632.5
 20
4456.7571
 11
2900
 21
4456.7571
  0
LINE
  8
0-2
  6
CONTINUOUS
 62
    3
 10
2632.5
 20
4515.2573
 11
2900
 21
4515.2573
  0
LINE
  8
0-2
  6
CONTINUOUS
 62
    3
 10
2632.5
 20
4534.7566
 11
2900
 21
4534.7566
  0
LINE
  8
0-2
  6
CONTINUOUS
 62
    3
 10
1300.0001
 20
4391.7566
 11
2100.0001
 21
4391.7566
  0
LINE
  8
0-2
  6
CONTINUOUS
 62
    3
 10
1300.0001
 20
4437.2574
 11
2100.0001
 21
4437.2574
  0
LINE
  8
0-2
  6
CONTINUOUS
 62
    3
 10
1300.0001
 20
4456.7571
 11
2100.0001
 21
4456.7571
  0
LINE
  8
0-2
  6
CONTINUOUS
 62
    3
 10
1300.0001
 20
4515.2573
 11
2100.0001
 21
4515.2573
  0
LINE
  8
0-2
  6
CONTINUOUS
 62
    3
 10
1300.0001
 20
4534.7566
 11
2100.0001
 21
4534.7566
  0
LINE
  8
0-8
  6
CONTINUOUS
 62
    7
 10
2855.5084
 20
4056.7575
 11
3238.3188
 21
4056.7575
  0
LINE
  8
0-8
  6
CONTINUOUS
 62
    7
 10
3238.3188
 20
4391.7566
 11
3238.3188
 21
4771.7569
  0
LINE
  8
0-8
  6
CONTINUOUS
 62
    7
 10
3238.3188
 20
4771.7569
 11
3238.3188
 21
4956.7568
  0
LINE
  8
0-8
  6
CONTINUOUS
 62
    7
 10
2855.5084
 20
4956.7568
 11
3238.3188
 21
4956.7568
  0
LINE
  8
0-2
  6
CONTINUOUS
 62
    3
 10
1464.9999
 20
4056.7567
 11
1464.9999
 21
4126.7567
  0
LINE
  8
0-2
  6
CONTINUOUS
 62
    3
 10
1464.9999
 20
4056.7567
 11
2735.0002
 21
4056.7567
  0
LINE
  8
0-2
  6
CONTINUOUS
 62
    3
 10
2735.0002
 20
4056.7567
 11
2735.0002
 21
4126.7567
  0
LINE
  8
0-2
  6
CONTINUOUS
 62
    3
 10
1464.9999
 20
4126.7567
 11
2735.0002
 21
4126.7567
  0
LINE
  8
0-8
  6
CONTINUOUS
 62
    7
 10
1013.2749
 20
4056.7567
 11
1013.2749
 21
4956.7568
  0
LINE
  8
0-8
  6
CONTINUOUS
 62
    7
 10
3238.3188
 20
4056.7575
 11
3238.3188
 21
4391.7566
  0
LINE
  8
0-8
  6
CONTINUOUS
 62
    7
 10
2855.5084
 20
4126.7575
 11
3238.3188
 21
4126.7575
  0
LINE
  8
0-8
  6
CONTINUOUS
 62
    7
 10
1313.8971
 20
4056.7567
 11
1013.2749
 21
4056.7567
  0
LINE
  8
0-8
  6
CONTINUOUS
 62
    7
 10
2949.2762
 20
4771.7569
 11
3238.3188
 21
4771.7569
  0
LINE
  8
0-8
  6
CONTINUOUS
 62
    7
 10
2949.2767
 20
4391.7566
 11
3238.3188
 21
4391.7566
  0
LINE
  8
0-2
  6
CONTINUOUS
 62
    3
 10
2632.5156
 20
4579.1507
 11
2632.5156
 21
4601.7563
  0
LINE
  8
0-8
  6
CONTINUOUS
 62
    7
 10
2844.209
 20
4126.7577
 11
2844.209
 21
4601.7563
  0
LINE
  8
0-8
  6
CONTINUOUS
 62
    7
 10
2637.0232
 20
4601.7563
 11
2844.209
 21
4601.7563
  0
LINE
  8
0-2
  6
CONTINUOUS
 62
    3
 10
1625.1472
 20
4204.1502
 11
1625.1472
 21
4126.7567
  0
LINE
  8
0-8
  6
CONTINUOUS
 62
    7
 10
2730.5084
 20
4126.7577
 11
2844.209
 21
4126.7577
  0
LINE
  8
0-8
  6
CONTINUOUS
 62
    7
 10
1464.9999
 20
3791.1501
 11
2735.0002
 21
3791.1501
  0
LINE
  8
0-8
  6
CONTINUOUS
 62
    7
 10
1464.9999
 20
3985.3988
 11
1464.9999
 21
3791.1501
  0
LINE
  8
0-8
  6
CONTINUOUS
 62
    7
 10
2735.0002
 20
3985.3988
 11
2735.0002
 21
3791.1501
  0
LINE
  8
0-2
  6
CONTINUOUS
 62
    3
 10
1464.9999
 20
4126.7567
 11
1601.5488
 21
4204.1502
  0
LINE
  8
0-2
  6
CONTINUOUS
 62
    3
 10
1601.5488
 20
4204.1502
 11
1625.1468
 21
4204.1502
  0
LINE
  8
0-2
  6
CONTINUOUS
 62
    3
 10
1625.1468
 20
4204.1502
 11
1625.1468
 21
4126.7567
  0
LINE
  8
0-3
  6
CONTINUOUS
 62
    3
 10
2137.3405
 20
4460.9646
 11
2147.1673
 21
4467.0046
  0
LINE
  8
0-3
  6
CONTINUOUS
 62
    3
 10
2147.1673
 20
4467.0046
 11
2156.9471
 21
4473.1638
  0
LINE
  8
0-3
  6
CONTINUOUS
 62
    3
 10
2156.9471
 20
4473.1638
 11
2166.6351
 21
4479.5537
  0
LINE
  8
0-3
  6
CONTINUOUS
 62
    3
 10
2166.6351
 20
4479.5537
 11
2176.1222
 21
4486.2994
  0
LINE
  8
0-3
  6
CONTINUOUS
 62
    3
 10
2176.1222
 20
4486.2994
 11
2185.2364
 21
4493.5356
  0
LINE
  8
0-3
  6
CONTINUOUS
 62
    3
 10
2185.2364
 20
4493.5356
 11
2193.7854
 21
4501.3819
  0
LINE
  8
0-3
  6
CONTINUOUS
 62
    3
 10
2193.7854
 20
4501.3819
 11
2201.5843
 21
4509.9765
  0
LINE
  8
0-3
  6
CONTINUOUS
 62
    3
 10
2201.5843
 20
4509.9765
 11
2208.4428
 21
4519.442
  0
LINE
  8
0-3
  6
CONTINUOUS
 62
    3
 10
2208.4428
 20
4519.442
 11
2214.4256
 21
4529.6806
  0
LINE
  8
0-3
  6
CONTINUOUS
 62
    3
 10
2214.4256
 20
4529.6806
 11
2220.0779
 21
4540.1354
  0
LINE
  8
0-3
  6
CONTINUOUS
 62
    3
 10
2220.0779
 20
4540.1354
 11
2225.9754
 21
4550.2171
  0
LINE
  8
0-3
  6
CONTINUOUS
 62
    3
 10
2225.9754
 20
4550.2171
 11
2232.7223
 21
4559.3348
  0
LINE
  8
0-3
  6
CONTINUOUS
 62
    3
 10
2232.7223
 20
4559.3348
 11
2240.8886
 21
4566.895
  0
LINE
  8
0-3
  6
CONTINUOUS
 62
    3
 10
2240.8886
 20
4566.895
 11
2250.6553
 21
4572.7396
  0
LINE
  8
0-3
  6
CONTINUOUS
 62
    3
 10
2250.6553
 20
4572.7396
 11
2261.4271
 21
4577.5157
  0
LINE
  8
0-3
  6
CONTINUOUS
 62
    3
 10
2261.4271
 20
4577.5157
 11
2266.5268
 21
4579.5526
  0
LINE
  8
0-3
  6
CONTINUOUS
 62
    3
 10
2261.4271
 20
4577.5157
 11
2268.5207
 21
4578.643
  0
LINE
  8
0-3
  6
CONTINUOUS
 62
    3
 10
2268.5207
 20
4578.643
 11
2275.6776
 21
4579.6238
  0
LINE
  8
0-3
  6
CONTINUOUS
 62
    3
 10
2275.6776
 20
4579.6238
 11
2282.9536
 21
4580.3256
  0
LINE
  8
0-3
  6
CONTINUOUS
 62
    3
 10
2282.9536
 20
4580.3256
 11
2290.4072
 21
4580.5918
  0
LINE
  8
0-3
  6
CONTINUOUS
 62
    3
 10
2290.4072
 20
4580.5918
 11
2298.0883
 21
4580.29
  0
LINE
  8
0-3
  6
CONTINUOUS
 62
    3
 10
2298.0883
 20
4580.29
 11
2305.774
 21
4579.1705
  0
LINE
  8
0-3
  6
CONTINUOUS
 62
    3
 10
2305.774
 20
4579.1705
 11
2312.9441
 21
4576.9253
  0
LINE
  8
0-3
  6
CONTINUOUS
 62
    3
 10
2312.9441
 20
4576.9253
 11
2319.0548
 21
4573.2028
  0
LINE
  8
0-3
  6
CONTINUOUS
 62
    3
 10
2319.0548
 20
4573.2028
 11
2323.6676
 21
4567.7631
  0
LINE
  8
0-3
  6
CONTINUOUS
 62
    3
 10
2323.6676
 20
4567.7631
 11
2327.2636
 21
4561.2321
  0
LINE
  8
0-3
  6
CONTINUOUS
 62
    3
 10
2133.4826
 20
4433.9723
 11
2144.998
 21
4435.6822
  0
LINE
  8
0-3
  6
CONTINUOUS
 62
    3
 10
2144.998
 20
4435.6822
 11
2156.4431
 21
4437.6166
  0
LINE
  8
0-3
  6
CONTINUOUS
 62
    3
 10
2156.4431
 20
4437.6166
 11
2167.7612
 21
4439.9807
  0
LINE
  8
0-3
  6
CONTINUOUS
 62
    3
 10
2167.7612
 20
4439.9807
 11
2178.8767
 21
4443.0059
  0
LINE
  8
0-3
  6
CONTINUOUS
 62
    3
 10
2178.8767
 20
4443.0059
 11
2189.7311
 21
4446.9001
  0
LINE
  8
0-3
  6
CONTINUOUS
 62
    3
 10
2189.7311
 20
4446.9001
 11
2200.2637
 21
4451.7167
  0
LINE
  8
0-3
  6
CONTINUOUS
 62
    3
 10
2200.2637
 20
4451.7167
 11
2210.4297
 21
4457.3628
  0
LINE
  8
0-3
  6
CONTINUOUS
 62
    3
 10
2210.4297
 20
4457.3628
 11
2220.1727
 21
4463.774
  0
LINE
  8
0-3
  6
CONTINUOUS
 62
    3
 10
2220.1727
 20
4463.774
 11
2229.4472
 21
4470.834
  0
LINE
  8
0-3
  6
CONTINUOUS
 62
    3
 10
2229.4472
 20
4470.834
 11
2238.2088
 21
4478.4769
  0
LINE
  8
0-3
  6
CONTINUOUS
 62
    3
 10
2238.2088
 20
4478.4769
 11
2246.5245
 21
4486.5632
  0
LINE
  8
0-3
  6
CONTINUOUS
 62
    3
 10
2246.5245
 20
4486.5632
 11
2254.5616
 21
4494.9094
  0
LINE
  8
0-3
  6
CONTINUOUS
 62
    3
 10
2254.5616
 20
4494.9094
 11
2262.4963
 21
4503.3312
  0
LINE
  8
0-3
  6
CONTINUOUS
 62
    3
 10
2262.4963
 20
4503.3312
 11
2270.4982
 21
4511.6422
  0
LINE
  8
0-3
  6
CONTINUOUS
 62
    3
 10
2270.4982
 20
4511.6422
 11
2278.7491
 21
4519.6608
  0
LINE
  8
0-3
  6
CONTINUOUS
 62
    3
 10
2278.7491
 20
4519.6608
 11
2287.406
 21
4527.2275
  0
LINE
  8
0-3
  6
CONTINUOUS
 62
    3
 10
2287.406
 20
4527.2275
 11
2296.4589
 21
4534.3364
  0
LINE
  8
0-3
  6
CONTINUOUS
 62
    3
 10
2296.4589
 20
4534.3364
 11
2305.8341
 21
4541.0975
  0
LINE
  8
0-3
  6
CONTINUOUS
 62
    3
 10
2305.8341
 20
4541.0975
 11
2315.4323
 21
4547.5942
  0
LINE
  8
0-3
  6
CONTINUOUS
 62
    3
 10
2315.4323
 20
4547.5942
 11
2325.1827
 21
4553.9297
  0
LINE
  8
0-3
  6
CONTINUOUS
 62
    3
 10
2325.1827
 20
4553.9297
 11
2332.0848
 21
4558.341
  0
LINE
  8
0-3
  6
CONTINUOUS
 62
    3
 10
2332.0848
 20
4558.341
 11
2342.8558
 21
4562.8083
  0
LINE
  8
0-3
  6
CONTINUOUS
 62
    3
 10
2342.8558
 20
4562.8083
 11
2353.6877
 21
4566.9797
  0
LINE
  8
0-3
  6
CONTINUOUS
 62
    3
 10
2353.6877
 20
4566.9797
 11
2364.6488
 21
4570.5596
  0
LINE
  8
0-3
  6
CONTINUOUS
 62
    3
 10
2364.6488
 20
4570.5596
 11
2375.8007
 21
4573.2577
  0
LINE
  8
0-3
  6
CONTINUOUS
 62
    3
 10
2375.8007
 20
4573.2577
 11
2387.1716
 21
4574.9111
  0
LINE
  8
0-3
  6
CONTINUOUS
 62
    3
 10
2387.1716
 20
4574.9111
 11
2398.7057
 21
4575.6371
  0
LINE
  8
0-3
  6
CONTINUOUS
 62
    3
 10
2398.7057
 20
4575.6371
 11
2410.3374
 21
4575.5945
  0
LINE
  8
0-3
  6
CONTINUOUS
 62
    3
 10
2410.3374
 20
4575.5945
 11
2422.0029
 21
4574.9398
  0
LINE
  8
0-3
  6
CONTINUOUS
 62
    3
 10
2422.0029
 20
4574.9398
 11
2433.6474
 21
4573.8347
  0
LINE
  8
0-3
  6
CONTINUOUS
 62
    3
 10
2433.6474
 20
4573.8347
 11
2445.2031
 21
4572.4134
  0
LINE
  8
0-3
  6
CONTINUOUS
 62
    3
 10
2445.2031
 20
4572.4134
 11
2456.6564
 21
4570.6467
  0
LINE
  8
0-3
  6
CONTINUOUS
 62
    3
 10
2456.6564
 20
4570.6467
 11
2468.0124
 21
4568.495
  0
LINE
  8
0-3
  6
CONTINUOUS
 62
    3
 10
2468.0124
 20
4568.495
 11
2479.2541
 21
4565.885
  0
LINE
  8
0-3
  6
CONTINUOUS
 62
    3
 10
2479.2541
 20
4565.885
 11
2490.3881
 21
4562.7722
  0
LINE
  8
0-3
  6
CONTINUOUS
 62
    3
 10
2490.3881
 20
4562.7722
 11
2501.4096
 21
4559.0868
  0
LINE
  8
0-3
  6
CONTINUOUS
 62
    3
 10
2501.4096
 20
4559.0868
 11
2512.2742
 21
4554.7764
  0
LINE
  8
0-3
  6
CONTINUOUS
 62
    3
 10
2512.2742
 20
4554.7764
 11
2522.8809
 21
4549.793
  0
LINE
  8
0-3
  6
CONTINUOUS
 62
    3
 10
2522.8809
 20
4549.793
 11
2533.0747
 21
4544.1058
  0
LINE
  8
0-3
  6
CONTINUOUS
 62
    3
 10
2533.0747
 20
4544.1058
 11
2542.7239
 21
4537.663
  0
LINE
  8
0-3
  6
CONTINUOUS
 62
    3
 10
2542.7239
 20
4537.663
 11
2551.6874
 21
4530.4155
  0
LINE
  8
0-3
  6
CONTINUOUS
 62
    3
 10
2551.6874
 20
4530.4155
 11
2559.8418
 21
4522.343
  0
LINE
  8
0-3
  6
CONTINUOUS
 62
    3
 10
2559.8418
 20
4522.343
 11
2567.2909
 21
4513.5633
  0
LINE
  8
0-3
  6
CONTINUOUS
 62
    3
 10
2567.2909
 20
4513.5633
 11
2574.2227
 21
4504.2725
  0
LINE
  8
0-3
  6
CONTINUOUS
 62
    3
 10
2574.2227
 20
4504.2725
 11
2580.8316
 21
4494.6649
  0
LINE
  8
0-3
  6
CONTINUOUS
 62
    3
 10
2580.8316
 20
4494.6649
 11
2584.6718
 21
4488.9282
  0
LINE
  8
0-3
  6
CONTINUOUS
 62
    3
 10
2580.8316
 20
4494.6649
 11
2585.9984
 21
4483.9651
  0
LINE
  8
0-3
  6
CONTINUOUS
 62
    3
 10
2585.9984
 20
4483.9651
 11
2590.8907
 21
4473.2173
  0
LINE
  8
0-3
  6
CONTINUOUS
 62
    3
 10
2590.8907
 20
4473.2173
 11
2595.2437
 21
4462.3938
  0
LINE
  8
0-3
  6
CONTINUOUS
 62
    3
 10
2595.2437
 20
4462.3938
 11
2598.7786
 21
4451.4357
  0
LINE
  8
0-3
  6
CONTINUOUS
 62
    3
 10
2598.7786
 20
4451.4357
 11
2601.2278
 21
4440.3127
  0
LINE
  8
0-3
  6
CONTINUOUS
 62
    3
 10
2601.2278
 20
4440.3127
 11
2602.3292
 21
4428.982
  0
LINE
  8
0-3
  6
CONTINUOUS
 62
    3
 10
2602.3292
 20
4428.982
 11
2602.0137
 21
4417.4889
  0
LINE
  8
0-3
  6
CONTINUOUS
 62
    3
 10
2602.0137
 20
4417.4889
 11
2600.4726
 21
4405.9438
  0
LINE
  8
0-3
  6
CONTINUOUS
 62
    3
 10
2600.4726
 20
4405.9438
 11
2597.9057
 21
4394.4824
  0
LINE
  8
0-3
  6
CONTINUOUS
 62
    3
 10
2597.9057
 20
4394.4824
 11
2594.4888
 21
4383.2348
  0
LINE
  8
0-3
  6
CONTINUOUS
 62
    3
 10
2594.4888
 20
4383.2348
 11
2590.2783
 21
4372.3574
  0
LINE
  8
0-3
  6
CONTINUOUS
 62
    3
 10
2590.2783
 20
4372.3574
 11
2585.1615
 21
4362.0025
  0
LINE
  8
0-3
  6
CONTINUOUS
 62
    3
 10
2585.1615
 20
4362.0025
 11
2579.0151
 21
4352.3301
  0
LINE
  8
0-3
  6
CONTINUOUS
 62
    3
 10
2579.0151
 20
4352.3301
 11
2571.8525
 21
4343.3995
  0
LINE
  8
0-3
  6
CONTINUOUS
 62
    3
 10
2571.8525
 20
4343.3995
 11
2563.8889
 21
4335.0444
  0
LINE
  8
0-3
  6
CONTINUOUS
 62
    3
 10
2563.8889
 20
4335.0444
 11
2555.3782
 21
4327.0892
  0
LINE
  8
0-3
  6
CONTINUOUS
 62
    3
 10
2555.3782
 20
4327.0892
 11
2546.5565
 21
4319.3671
  0
LINE
  8
0-3
  6
CONTINUOUS
 62
    3
 10
2546.5565
 20
4319.3671
 11
2544.1776
 21
4317.3238
  0
LINE
  8
0-3
  6
CONTINUOUS
 62
    3
 10
2546.5565
 20
4319.3671
 11
2536.432
 21
4313.6904
  0
LINE
  8
0-3
  6
CONTINUOUS
 62
    3
 10
2536.432
 20
4313.6904
 11
2526.2681
 21
4308.1195
  0
LINE
  8
0-3
  6
CONTINUOUS
 62
    3
 10
2526.2681
 20
4308.1195
 11
2516.0207
 21
4302.751
  0
LINE
  8
0-3
  6
CONTINUOUS
 62
    3
 10
2516.0207
 20
4302.751
 11
2505.6324
 21
4297.6869
  0
LINE
  8
0-3
  6
CONTINUOUS
 62
    3
 10
2505.6324
 20
4297.6869
 11
2495.0788
 21
4293.0267
  0
LINE
  8
0-3
  6
CONTINUOUS
 62
    3
 10
2495.0788
 20
4293.0267
 11
2484.2984
 21
4288.8716
  0
LINE
  8
0-3
  6
CONTINUOUS
 62
    3
 10
2484.2984
 20
4288.8716
 11
2473.2913
 21
4285.2808
  0
LINE
  8
0-3
  6
CONTINUOUS
 62
    3
 10
2473.2913
 20
4285.2808
 11
2462.102
 21
4282.267
  0
LINE
  8
0-3
  6
CONTINUOUS
 62
    3
 10
2462.102
 20
4282.267
 11
2450.7735
 21
4279.8247
  0
LINE
  8
0-3
  6
CONTINUOUS
 62
    3
 10
2450.7735
 20
4279.8247
 11
2439.3403
 21
4277.9576
  0
LINE
  8
0-3
  6
CONTINUOUS
 62
    3
 10
2439.3403
 20
4277.9576
 11
2427.8581
 21
4276.6501
  0
LINE
  8
0-3
  6
CONTINUOUS
 62
    3
 10
2427.8581
 20
4276.6501
 11
2416.3373
 21
4275.8053
  0
LINE
  8
0-3
  6
CONTINUOUS
 62
    3
 10
2416.3373
 20
4275.8053
 11
2404.7868
 21
4275.3114
  0
LINE
  8
0-3
  6
CONTINUOUS
 62
    3
 10
2404.7868
 20
4275.3114
 11
2393.2106
 21
4275.0442
  0
LINE
  8
0-3
  6
CONTINUOUS
 62
    3
 10
2393.2106
 20
4275.0442
 11
2383.1759
 21
4274.9027
  0
LINE
  8
0-3
  6
CONTINUOUS
 62
    3
 10
2253.8294
 20
4273.8397
 11
2264.6569
 21
4269.4575
  0
LINE
  8
0-3
  6
CONTINUOUS
 62
    3
 10
2264.6569
 20
4269.4575
 11
2275.546
 21
4265.1253
  0
LINE
  8
0-3
  6
CONTINUOUS
 62
    3
 10
2275.546
 20
4265.1253
 11
2286.5383
 21
4261.1336
  0
LINE
  8
0-3
  6
CONTINUOUS
 62
    3
 10
2286.5383
 20
4261.1336
 11
2297.6359
 21
4257.8051
  0
LINE
  8
0-3
  6
CONTINUOUS
 62
    3
 10
2297.6359
 20
4257.8051
 11
2308.8687
 21
4255.4574
  0
LINE
  8
0-3
  6
CONTINUOUS
 62
    3
 10
2308.8687
 20
4255.4574
 11
2320.2618
 21
4254.4067
  0
LINE
  8
0-3
  6
CONTINUOUS
 62
    3
 10
2320.2618
 20
4254.4067
 11
2331.7878
 21
4254.5705
  0
LINE
  8
0-3
  6
CONTINUOUS
 62
    3
 10
2331.7878
 20
4254.5705
 11
2343.3972
 21
4255.4272
  0
LINE
  8
0-3
  6
CONTINUOUS
 62
    3
 10
2343.3972
 20
4255.4272
 11
2345.5786
 21
4255.6197
  0
LINE
  8
0-3
  6
CONTINUOUS
 62
    3
 10
2343.3972
 20
4255.4272
 11
2352.8905
 21
4257.5448
  0
LINE
  8
0-3
  6
CONTINUOUS
 62
    3
 10
2352.8905
 20
4257.5448
 11
2362.002
 21
4260.4735
  0
LINE
  8
0-3
  6
CONTINUOUS
 62
    3
 10
2362.002
 20
4260.4735
 11
2370.3625
 21
4265.0353
  0
LINE
  8
0-3
  6
CONTINUOUS
 62
    3
 10
2370.3625
 20
4265.0353
 11
2377.489
 21
4271.5791
  0
LINE
  8
0-3
  6
CONTINUOUS
 62
    3
 10
2377.489
 20
4271.5791
 11
2382.7733
 21
4279.7832
  0
LINE
  8
0-3
  6
CONTINUOUS
 62
    3
 10
2382.7733
 20
4279.7832
 11
2385.652
 21
4289.1626
  0
LINE
  8
0-3
  6
CONTINUOUS
 62
    3
 10
2385.652
 20
4289.1626
 11
2385.8643
 21
4298.8643
  0
LINE
  8
0-3
  6
CONTINUOUS
 62
    3
 10
2385.8643
 20
4298.8643
 11
2383.2966
 21
4307.9527
  0
LINE
  8
0-3
  6
CONTINUOUS
 62
    3
 10
2383.2966
 20
4307.9527
 11
2378.4993
 21
4316.2212
  0
LINE
  8
0-3
  6
CONTINUOUS
 62
    3
 10
2378.4993
 20
4316.2212
 11
2372.5733
 21
4324.0705
  0
LINE
  8
0-3
  6
CONTINUOUS
 62
    3
 10
2150.141
 20
4419.0092
 11
2161.8085
 21
4417.0222
  0
LINE
  8
0-3
  6
CONTINUOUS
 62
    3
 10
2161.8085
 20
4417.0222
 11
2173.437
 21
4415.3713
  0
LINE
  8
0-3
  6
CONTINUOUS
 62
    3
 10
2173.437
 20
4415.3713
 11
2184.981
 21
4414.3914
  0
LINE
  8
0-3
  6
CONTINUOUS
 62
    3
 10
2184.981
 20
4414.3914
 11
2196.3999
 21
4414.4088
  0
LINE
  8
0-3
  6
CONTINUOUS
 62
    3
 10
2196.3999
 20
4414.4088
 11
2207.652
 21
4415.7524
  0
LINE
  8
0-3
  6
CONTINUOUS
 62
    3
 10
2207.652
 20
4415.7524
 11
2218.7385
 21
4418.4811
  0
LINE
  8
0-3
  6
CONTINUOUS
 62
    3
 10
2218.7385
 20
4418.4811
 11
2229.6833
 21
4422.2269
  0
LINE
  8
0-3
  6
CONTINUOUS
 62
    3
 10
2229.6833
 20
4422.2269
 11
2240.5397
 21
4426.6194
  0
LINE
  8
0-3
  6
CONTINUOUS
 62
    3
 10
2240.5397
 20
4426.6194
 11
2251.3286
 21
4431.2614
  0
LINE
  8
0-3
  6
CONTINUOUS
 62
    3
 10
2251.3286
 20
4431.2614
 11
2262.1056
 21
4435.8197
  0
LINE
  8
0-3
  6
CONTINUOUS
 62
    3
 10
2262.1056
 20
4435.8197
 11
2272.8714
 21
4440.2068
  0
LINE
  8
0-3
  6
CONTINUOUS
 62
    3
 10
2272.8714
 20
4440.2068
 11
2283.6365
 21
4444.4628
  0
LINE
  8
0-3
  6
CONTINUOUS
 62
    3
 10
2283.6365
 20
4444.4628
 11
2294.3893
 21
4448.6124
  0
LINE
  8
0-3
  6
CONTINUOUS
 62
    3
 10
2294.3893
 20
4448.6124
 11
2305.1425
 21
4452.6852
  0
LINE
  8
0-3
  6
CONTINUOUS
 62
    3
 10
2305.1425
 20
4452.6852
 11
2315.8987
 21
4456.722
  0
LINE
  8
0-3
  6
CONTINUOUS
 62
    3
 10
2315.8987
 20
4456.722
 11
2315.7485
 21
4446.816
  0
LINE
  8
0-3
  6
CONTINUOUS
 62
    3
 10
2315.7485
 20
4446.816
 11
2315.606
 21
4436.9218
  0
LINE
  8
0-3
  6
CONTINUOUS
 62
    3
 10
2315.606
 20
4436.9218
 11
2315.4635
 21
4427.0143
  0
LINE
  8
0-3
  6
CONTINUOUS
 62
    3
 10
2315.4635
 20
4427.0143
 11
2315.3143
 21
4417.1182
  0
LINE
  8
0-3
  6
CONTINUOUS
 62
    3
 10
2315.3143
 20
4417.1182
 11
2315.1732
 21
4407.2231
  0
LINE
  8
0-3
  6
CONTINUOUS
 62
    3
 10
2315.1732
 20
4407.2231
 11
2315.0292
 21
4397.3161
  0
LINE
  8
0-3
  6
CONTINUOUS
 62
    3
 10
2315.0292
 20
4397.3161
 11
2314.8803
 21
4387.421
  0
LINE
  8
0-3
  6
CONTINUOUS
 62
    3
 10
2314.8803
 20
4387.421
 11
2314.7382
 21
4377.5155
  0
LINE
  8
0-3
  6
CONTINUOUS
 62
    3
 10
2314.7382
 20
4377.5155
 11
2314.5905
 21
4367.6174
  0
LINE
  8
0-3
  6
CONTINUOUS
 62
    3
 10
2314.5905
 20
4367.6174
 11
2314.4468
 21
4357.7149
  0
LINE
  8
0-3
  6
CONTINUOUS
 62
    3
 10
2372.5733
 20
4324.0705
 11
2370.2066
 21
4326.1559
  0
LINE
  8
0-3
  6
CONTINUOUS
 62
    3
 10
2370.2066
 20
4326.1559
 11
2366.804
 21
4328.6803
  0
LINE
  8
0-3
  6
CONTINUOUS
 62
    3
 10
2366.804
 20
4328.6803
 11
2362.502
 21
4331.5664
  0
LINE
  8
0-3
  6
CONTINUOUS
 62
    3
 10
2362.502
 20
4331.5664
 11
2357.4164
 21
4334.747
  0
LINE
  8
0-3
  6
CONTINUOUS
 62
    3
 10
2357.4164
 20
4334.747
 11
2351.6174
 21
4338.1577
  0
LINE
  8
0-3
  6
CONTINUOUS
 62
    3
 10
2351.6174
 20
4338.1577
 11
2345.2097
 21
4341.755
  0
LINE
  8
0-3
  6
CONTINUOUS
 62
    3
 10
2345.2097
 20
4341.755
 11
2338.2557
 21
4345.4933
  0
LINE
  8
0-3
  6
CONTINUOUS
 62
    3
 10
2338.2557
 20
4345.4933
 11
2330.8065
 21
4349.3326
  0
LINE
  8
0-3
  6
CONTINUOUS
 62
    3
 10
2330.8065
 20
4349.3326
 11
2322.9292
 21
4353.2441
  0
LINE
  8
0-3
  6
CONTINUOUS
 62
    3
 10
2322.9292
 20
4353.2441
 11
2314.6677
 21
4357.1982
  0
LINE
  8
0-3
  6
CONTINUOUS
 62
    3
 10
2314.6677
 20
4357.1982
 11
2306.0516
 21
4361.1686
  0
LINE
  8
0-3
  6
CONTINUOUS
 62
    3
 10
2306.0516
 20
4361.1686
 11
2297.1356
 21
4365.144
  0
LINE
  8
0-3
  6
CONTINUOUS
 62
    3
 10
2297.1356
 20
4365.144
 11
2287.9442
 21
4369.0991
  0
LINE
  8
0-3
  6
CONTINUOUS
 62
    3
 10
2287.9442
 20
4369.0991
 11
2278.5237
 21
4373.0225
  0
LINE
  8
0-3
  6
CONTINUOUS
 62
    3
 10
2278.5237
 20
4373.0225
 11
2268.8993
 21
4376.9053
  0
LINE
  8
0-3
  6
CONTINUOUS
 62
    3
 10
2268.8993
 20
4376.9053
 11
2259.1088
 21
4380.7277
  0
LINE
  8
0-3
  6
CONTINUOUS
 62
    3
 10
2259.1088
 20
4380.7277
 11
2249.188
 21
4384.4883
  0
LINE
  8
0-3
  6
CONTINUOUS
 62
    3
 10
2249.188
 20
4384.4883
 11
2239.1768
 21
4388.1767
  0
LINE
  8
0-3
  6
CONTINUOUS
 62
    3
 10
2239.1768
 20
4388.1767
 11
2229.1184
 21
4391.7913
  0
LINE
  8
0-3
  6
CONTINUOUS
 62
    3
 10
2229.1184
 20
4391.7913
 11
2219.0495
 21
4395.3079
  0
LINE
  8
0-3
  6
CONTINUOUS
 62
    3
 10
2219.0495
 20
4395.3079
 11
2209.0097
 21
4398.731
  0
LINE
  8
0-3
  6
CONTINUOUS
 62
    3
 10
2209.0097
 20
4398.731
 11
2199.0502
 21
4402.0571
  0
LINE
  8
0-3
  6
CONTINUOUS
 62
    3
 10
2199.0502
 20
4402.0571
 11
2189.2246
 21
4405.2654
  0
LINE
  8
0-3
  6
CONTINUOUS
 62
    3
 10
2189.2246
 20
4405.2654
 11
2179.57
 21
4408.3564
  0
LINE
  8
0-3
  6
CONTINUOUS
 62
    3
 10
2179.57
 20
4408.3564
 11
2170.1493
 21
4411.3177
  0
LINE
  8
0-3
  6
CONTINUOUS
 62
    3
 10
2170.1493
 20
4411.3177
 11
2161.0113
 21
4414.1336
  0
LINE
  8
0-3
  6
CONTINUOUS
 62
    3
 10
2161.0113
 20
4414.1336
 11
2152.2081
 21
4416.797
  0
LINE
  8
0-3
  6
CONTINUOUS
 62
    3
 10
2152.2081
 20
4416.797
 11
2143.785
 21
4419.2957
  0
LINE
  8
0-3
  6
CONTINUOUS
 62
    3
 10
2143.785
 20
4419.2957
 11
2135.7977
 21
4421.6122
  0
LINE
  8
0-3
  6
CONTINUOUS
 62
    3
 10
2315.8987
 20
4456.722
 11
2316.0353
 21
4456.7695
  0
LINE
  8
0-3
  6
CONTINUOUS
 62
    3
 10
2185.6147
 20
4222.5211
 11
2185.6147
 21
4189.238
  0
LINE
  8
0-3
  6
CONTINUOUS
 62
    3
 10
2185.6147
 20
4189.238
 11
2286.755
 21
4189.238
  0
LINE
  8
0-3
  6
CONTINUOUS
 62
    3
 10
2286.755
 20
4222.5211
 11
2286.755
 21
4189.238
  0
LINE
  8
0-3
  6
CONTINUOUS
 62
    3
 10
2185.6147
 20
4222.5211
 11
2286.755
 21
4222.5211
  0
LINE
  8
0-3
  6
CONTINUOUS
 62
    3
 10
2126.4699
 20
4483.3287
 11
2126.4699
 21
4408.7429
  0
LINE
  8
0-3
  6
CONTINUOUS
 62
    3
 10
2137.3405
 20
4460.9646
 11
2136.2119
 21
4460.3272
  0
LINE
  8
0-3
  6
CONTINUOUS
 62
    3
 10
2136.2119
 20
4460.3272
 11
2135.0571
 21
4459.6576
  0
LINE
  8
0-3
  6
CONTINUOUS
 62
    3
 10
2135.0571
 20
4459.6576
 11
2133.8879
 21
4458.9544
  0
LINE
  8
0-3
  6
CONTINUOUS
 62
    3
 10
2133.8879
 20
4458.9544
 11
2132.6935
 21
4458.2185
  0
LINE
  8
0-3
  6
CONTINUOUS
 62
    3
 10
2132.6935
 20
4458.2185
 11
2131.4759
 21
4457.4588
  0
LINE
  8
0-3
  6
CONTINUOUS
 62
    3
 10
2131.4759
 20
4457.4588
 11
2130.2365
 21
4456.6606
  0
LINE
  8
0-3
  6
CONTINUOUS
 62
    3
 10
2130.2365
 20
4456.6606
 11
2128.9772
 21
4455.8351
  0
LINE
  8
0-3
  6
CONTINUOUS
 62
    3
 10
2128.9772
 20
4455.8351
 11
2127.693
 21
4454.9726
  0
LINE
  8
0-3
  6
CONTINUOUS
 62
    3
 10
2127.693
 20
4454.9726
 11
2126.3905
 21
4454.0857
  0
LINE
  8
0-3
  6
CONTINUOUS
 62
    3
 10
2133.4826
 20
4433.9723
 11
2132.6458
 21
4433.8115
  0
LINE
  8
0-3
  6
CONTINUOUS
 62
    3
 10
2132.6458
 20
4433.8115
 11
2131.8203
 21
4433.6625
  0
LINE
  8
0-3
  6
CONTINUOUS
 62
    3
 10
2131.8203
 20
4433.6625
 11
2131.0105
 21
4433.5146
  0
LINE
  8
0-3
  6
CONTINUOUS
 62
    3
 10
2131.0105
 20
4433.5146
 11
2130.208
 21
4433.3706
  0
LINE
  8
0-3
  6
CONTINUOUS
 62
    3
 10
2130.208
 20
4433.3706
 11
2129.4226
 21
4433.2335
  0
LINE
  8
0-3
  6
CONTINUOUS
 62
    3
 10
2129.4226
 20
4433.2335
 11
2128.6447
 21
4433.1048
  0
LINE
  8
0-3
  6
CONTINUOUS
 62
    3
 10
2128.6447
 20
4433.1048
 11
2127.8816
 21
4432.9841
  0
LINE
  8
0-3
  6
CONTINUOUS
 62
    3
 10
2127.8816
 20
4432.9841
 11
2127.1276
 21
4432.8653
  0
LINE
  8
0-3
  6
CONTINUOUS
 62
    3
 10
2127.1276
 20
4432.8653
 11
2126.3905
 21
4432.7515
  0
LINE
  8
0-3
  6
CONTINUOUS
 62
    3
 10
2150.141
 20
4419.0092
 11
2146.9602
 21
4419.6827
  0
LINE
  8
0-3
  6
CONTINUOUS
 62
    3
 10
2146.9602
 20
4419.6827
 11
2143.9092
 21
4420.334
  0
LINE
  8
0-3
  6
CONTINUOUS
 62
    3
 10
2143.9092
 20
4420.334
 11
2140.9971
 21
4420.9664
  0
LINE
  8
0-3
  6
CONTINUOUS
 62
    3
 10
2140.9971
 20
4420.9664
 11
2138.2221
 21
4421.5766
  0
LINE
  8
0-3
  6
CONTINUOUS
 62
    3
 10
2138.2221
 20
4421.5766
 11
2135.5817
 21
4422.165
  0
LINE
  8
0-3
  6
CONTINUOUS
 62
    3
 10
2135.5817
 20
4422.165
 11
2133.0803
 21
4422.7371
  0
LINE
  8
0-3
  6
CONTINUOUS
 62
    3
 10
2133.0803
 20
4422.7371
 11
2130.713
 21
4423.2839
  0
LINE
  8
0-3
  6
CONTINUOUS
 62
    3
 10
2130.713
 20
4423.2839
 11
2128.4836
 21
4423.8125
  0
LINE
  8
0-3
  6
CONTINUOUS
 62
    3
 10
2128.4836
 20
4423.8125
 11
2126.3905
 21
4424.3167
  0
LINE
  8
0-3
  6
CONTINUOUS
 62
    3
 10
2135.7977
 20
4421.6122
 11
2134.5531
 21
4421.9517
  0
LINE
  8
0-3
  6
CONTINUOUS
 62
    3
 10
2134.5531
 20
4421.9517
 11
2133.3592
 21
4422.2773
  0
LINE
  8
0-3
  6
CONTINUOUS
 62
    3
 10
2133.3592
 20
4422.2773
 11
2132.2175
 21
4422.5995
  0
LINE
  8
0-3
  6
CONTINUOUS
 62
    3
 10
2132.2175
 20
4422.5995
 11
2131.1285
 21
4422.9098
  0
LINE
  8
0-3
  6
CONTINUOUS
 62
    3
 10
2131.1285
 20
4422.9098
 11
2130.0944
 21
4423.2067
  0
LINE
  8
0-3
  6
CONTINUOUS
 62
    3
 10
2130.0944
 20
4423.2067
 11
2129.1079
 21
4423.4903
  0
LINE
  8
0-3
  6
CONTINUOUS
 62
    3
 10
2129.1079
 20
4423.4903
 11
2128.1748
 21
4423.7684
  0
LINE
  8
0-3
  6
CONTINUOUS
 62
    3
 10
2128.1748
 20
4423.7684
 11
2127.2966
 21
4424.0376
  0
LINE
  8
0-3
  6
CONTINUOUS
 62
    3
 10
2127.2966
 20
4424.0376
 11
2126.4699
 21
4424.3004
  0
LINE
  8
0-3
  6
CONTINUOUS
 62
    3
 10
2116.2806
 20
4493.5222
 11
2100.0023
 21
4493.5222
  0
LINE
  8
0-3
  6
CONTINUOUS
 62
    3
 10
2116.2806
 20
4336.919
 11
2100.0023
 21
4336.919
  0
LINE
  8
0-3
  6
CONTINUOUS
 62
    3
 10
2108.5056
 20
4390.0166
 11
2114.4092
 21
4383.3521
  0
LINE
  8
0-3
  6
CONTINUOUS
 62
    3
 10
2114.4092
 20
4383.3521
 11
2120.8986
 21
4376.4282
  0
LINE
  8
0-3
  6
CONTINUOUS
 62
    3
 10
2120.8986
 20
4376.4282
 11
2127.8779
 21
4369.3267
  0
LINE
  8
0-3
  6
CONTINUOUS
 62
    3
 10
2127.8779
 20
4369.3267
 11
2135.258
 21
4362.1203
  0
LINE
  8
0-3
  6
CONTINUOUS
 62
    3
 10
2135.258
 20
4362.1203
 11
2142.9551
 21
4354.8782
  0
LINE
  8
0-3
  6
CONTINUOUS
 62
    3
 10
2142.9551
 20
4354.8782
 11
2150.89
 21
4347.6638
  0
LINE
  8
0-3
  6
CONTINUOUS
 62
    3
 10
2150.89
 20
4347.6638
 11
2158.9907
 21
4340.5346
  0
LINE
  8
0-3
  6
CONTINUOUS
 62
    3
 10
2158.9907
 20
4340.5346
 11
2167.1879
 21
4333.5429
  0
LINE
  8
0-3
  6
CONTINUOUS
 62
    3
 10
2167.1879
 20
4333.5429
 11
2175.4197
 21
4326.7354
  0
LINE
  8
0-3
  6
CONTINUOUS
 62
    3
 10
2175.4197
 20
4326.7354
 11
2183.6293
 21
4320.1545
  0
LINE
  8
0-3
  6
CONTINUOUS
 62
    3
 10
2183.6293
 20
4320.1545
 11
2191.7649
 21
4313.8373
  0
LINE
  8
0-3
  6
CONTINUOUS
 62
    3
 10
2191.7649
 20
4313.8373
 11
2199.7812
 21
4307.8127
  0
LINE
  8
0-3
  6
CONTINUOUS
 62
    3
 10
2199.7812
 20
4307.8127
 11
2207.6364
 21
4302.1087
  0
LINE
  8
0-3
  6
CONTINUOUS
 62
    3
 10
2207.6364
 20
4302.1087
 11
2215.2964
 21
4296.7427
  0
LINE
  8
0-3
  6
CONTINUOUS
 62
    3
 10
2215.2964
 20
4296.7427
 11
2222.73
 21
4291.7306
  0
LINE
  8
0-3
  6
CONTINUOUS
 62
    3
 10
2222.73
 20
4291.7306
 11
2229.9134
 21
4287.0822
  0
LINE
  8
0-3
  6
CONTINUOUS
 62
    3
 10
2229.9134
 20
4287.0822
 11
2236.8279
 21
4282.8
  0
LINE
  8
0-3
  6
CONTINUOUS
 62
    3
 10
2236.8279
 20
4282.8
 11
2243.4592
 21
4278.885
  0
LINE
  8
0-3
  6
CONTINUOUS
 62
    3
 10
2243.4592
 20
4278.885
 11
2249.7994
 21
4275.3278
  0
LINE
  8
0-3
  6
CONTINUOUS
 62
    3
 10
2249.7994
 20
4275.3278
 11
2250.2658
 21
4275.1239
  0
LINE
  8
0-3
  6
CONTINUOUS
 62
    3
 10
2250.2658
 20
4275.1239
 11
2250.7273
 21
4274.9299
  0
LINE
  8
0-3
  6
CONTINUOUS
 62
    3
 10
2250.7273
 20
4274.9299
 11
2251.1858
 21
4274.7453
  0
LINE
  8
0-3
  6
CONTINUOUS
 62
    3
 10
2251.1858
 20
4274.7453
 11
2251.6381
 21
4274.5701
  0
LINE
  8
0-3
  6
CONTINUOUS
 62
    3
 10
2251.6381
 20
4274.5701
 11
2252.086
 21
4274.4048
  0
LINE
  8
0-3
  6
CONTINUOUS
 62
    3
 10
2252.086
 20
4274.4048
 11
2252.5284
 21
4274.2489
  0
LINE
  8
0-3
  6
CONTINUOUS
 62
    3
 10
2252.5284
 20
4274.2489
 11
2252.9676
 21
4274.103
  0
LINE
  8
0-3
  6
CONTINUOUS
 62
    3
 10
2252.9676
 20
4274.103
 11
2253.4011
 21
4273.9669
  0
LINE
  8
0-3
  6
CONTINUOUS
 62
    3
 10
2253.4011
 20
4273.9669
 11
2253.8294
 21
4273.8397
  0
LINE
  8
0-3
  6
CONTINUOUS
 62
    3
 10
2108.5056
 20
4390.0166
 11
2111.9959
 21
4391.7497
  0
LINE
  8
0-3
  6
CONTINUOUS
 62
    3
 10
2111.9959
 20
4391.7497
 11
2115.1122
 21
4393.5709
  0
LINE
  8
0-3
  6
CONTINUOUS
 62
    3
 10
2115.1122
 20
4393.5709
 11
2117.8551
 21
4395.4776
  0
LINE
  8
0-3
  6
CONTINUOUS
 62
    3
 10
2117.8551
 20
4395.4776
 11
2120.2248
 21
4397.4715
  0
LINE
  8
0-3
  6
CONTINUOUS
 62
    3
 10
2120.2248
 20
4397.4715
 11
2122.2214
 21
4399.5525
  0
LINE
  8
0-3
  6
CONTINUOUS
 62
    3
 10
2122.2214
 20
4399.5525
 11
2123.8434
 21
4401.7191
  0
LINE
  8
0-3
  6
CONTINUOUS
 62
    3
 10
2123.8434
 20
4401.7191
 11
2125.0927
 21
4403.9742
  0
LINE
  8
0-3
  6
CONTINUOUS
 62
    3
 10
2125.0927
 20
4403.9742
 11
2125.9679
 21
4406.3145
  0
LINE
  8
0-3
  6
CONTINUOUS
 62
    3
 10
2125.9679
 20
4406.3145
 11
2126.4699
 21
4408.7429
  0
LINE
  8
0-3
  6
CONTINUOUS
 62
    3
 10
2126.4727
 20
4347.1135
 11
2126.4727
 21
4370.7569
  0
LINE
  8
0-3
  6
CONTINUOUS
 62
    3
 10
2258.8438
 20
4435.0883
 11
2238.773
 21
4479.3246
  0
LINE
  8
0-3
  6
CONTINUOUS
 62
    3
 10
2219.4259
 20
4143.1432
 11
2100.0023
 21
4143.1432
  0
LINE
  8
0-3
  6
CONTINUOUS
 62
    3
 10
2239.3884
 20
4163.1064
 11
2239.3884
 21
4189.238
  0
LINE
  8
0-3
  6
CONTINUOUS
 62
    3
 10
2209.4447
 20
4125.1939
 11
2100.0023
 21
4125.1939
  0
LINE
  8
0-3
  6
CONTINUOUS
 62
    3
 10
2219.4259
 20
4135.1751
 11
2219.4259
 21
4143.1432
  0
LINE
  8
0-3
  6
CONTINUOUS
 62
    3
 10
2194.9838
 20
4311.4179
 11
2100.0023
 21
4311.4179
  0
LINE
  8
0-3
  6
CONTINUOUS
 62
    3
 10
2239.3884
 20
4222.5211
 11
2239.3884
 21
4281.2886
  0
LINE
  8
0-2
  6
CONTINUOUS
 62
    3
 10
2234.7466
 20
4561.2094
 11
2100.0152
 21
4561.2094
  0
LINE
  8
0-2
  6
CONTINUOUS
 62
    3
 10
2632.5156
 20
4561.2094
 11
2493.7835
 21
4561.2094
  0
LINE
  8
0-2
  6
CONTINUOUS
 62
    3
 10
1567.5001
 20
4244.7571
 11
2100.0001
 21
4244.7571
  0
LINE
  8
0-2
  6
CONTINUOUS
 62
    3
 10
1567.5001
 20
4225.2568
 11
2100.0001
 21
4225.2568
  0
LINE
  8
0-2
  6
CONTINUOUS
 62
    3
 10
2239.3884
 20
4244.7571
 11
2632.5
 21
4244.7571
  0
LINE
  8
0-2
  6
CONTINUOUS
 62
    3
 10
2239.3884
 20
4225.2568
 11
2632.5
 21
4225.2568
  0
LINE
  8
0-2
  6
CONTINUOUS
 62
    3
 10
1567.5001
 20
4225.2568
 11
1567.5001
 21
4184.8519
  0
LINE
  8
0-2
  6
CONTINUOUS
 62
    3
 10
2632.5
 20
4561.2094
 11
2632.5
 21
4244.7571
  0
LINE
  8
0-2
  6
CONTINUOUS
 62
    3
 10
2632.5
 20
4225.2568
 11
2632.5
 21
4184.8519
  0
LINE
  8
0-2
  6
CONTINUOUS
 62
    3
 10
2253.6953
 20
4771.7569
 11
2900
 21
4771.7569
  0
LINE
  8
0-2
  6
CONTINUOUS
 62
    3
 10
2632.5
 20
4225.2568
 11
2632.5
 21
4126.7567
  0
LINE
  8
0-2
  6
CONTINUOUS
 62
    3
 10
2735.0002
 20
4126.7567
 11
2632.5
 21
4184.8519
  0
LINE
  8
0-2
  6
CONTINUOUS
 62
    3
 10
2100.0001
 20
4956.7568
 11
1271.8744
 21
4765.2527
  0
LINE
  8
0-2
  6
CONTINUOUS
 62
    3
 10
2100.0001
 20
4956.7568
 11
2928.1258
 21
4765.2527
  0
LINE
  8
0-2
  6
CONTINUOUS
 62
    3
 10
2438.5302
 20
4878.4713
 11
2100.0001
 21
4683.02
  0
LINE
  8
0-3
  6
CONTINUOUS
 62
    2
 10
2100.0152
 20
4601.7563
 11
2572.4147
 21
4847.5106
  0
LINE
  8
0-2
  6
CONTINUOUS
 62
    3
 10
2438.5302
 20
4878.4713
 11
2100.0001
 21
4878.4713
  0
LINE
  8
0-1
  6
CENTER2
 62
    7
 10
2100.0001
 20
4056.7567
 11
2100.0001
 21
4956.7568
  0
LINE
  8
0-2
  6
CONTINUOUS
 62
    3
 10
2900
 20
4515.257
 11
2901.6135
 21
4515.4052
  0
LINE
  8
0-2
  6
CONTINUOUS
 62
    3
 10
2901.6135
 20
4515.4052
 11
2903.1779
 21
4515.845
  0
LINE
  8
0-2
  6
CONTINUOUS
 62
    3
 10
2903.1779
 20
4515.845
 11
2904.6458
 21
4516.5633
  0
LINE
  8
0-2
  6
CONTINUOUS
 62
    3
 10
2904.6458
 20
4516.5633
 11
2905.9726
 21
4517.5381
  0
LINE
  8
0-2
  6
CONTINUOUS
 62
    3
 10
2905.9726
 20
4517.5381
 11
2907.1178
 21
4518.7398
  0
LINE
  8
0-2
  6
CONTINUOUS
 62
    3
 10
2907.1178
 20
4518.7398
 11
2908.0468
 21
4520.132
  0
LINE
  8
0-2
  6
CONTINUOUS
 62
    3
 10
2908.0468
 20
4520.132
 11
2908.7313
 21
4521.6723
  0
LINE
  8
0-2
  6
CONTINUOUS
 62
    3
 10
2908.7313
 20
4521.6723
 11
2909.1505
 21
4523.3139
  0
LINE
  8
0-2
  6
CONTINUOUS
 62
    3
 10
2909.1505
 20
4523.3139
 11
2909.2917
 21
4525.0069
  0
LINE
  8
0-2
  6
CONTINUOUS
 62
    3
 10
2909.2917
 20
4525.0069
 11
2909.1505
 21
4526.7
  0
LINE
  8
0-2
  6
CONTINUOUS
 62
    3
 10
2909.1505
 20
4526.7
 11
2908.7313
 21
4528.3416
  0
LINE
  8
0-2
  6
CONTINUOUS
 62
    3
 10
2908.7313
 20
4528.3416
 11
2908.0468
 21
4529.8819
  0
LINE
  8
0-2
  6
CONTINUOUS
 62
    3
 10
2908.0468
 20
4529.8819
 11
2907.1178
 21
4531.2741
  0
LINE
  8
0-2
  6
CONTINUOUS
 62
    3
 10
2907.1178
 20
4531.2741
 11
2905.9726
 21
4532.4758
  0
LINE
  8
0-2
  6
CONTINUOUS
 62
    3
 10
2905.9726
 20
4532.4758
 11
2904.6458
 21
4533.4506
  0
LINE
  8
0-2
  6
CONTINUOUS
 62
    3
 10
2904.6458
 20
4533.4506
 11
2903.1779
 21
4534.1689
  0
LINE
  8
0-2
  6
CONTINUOUS
 62
    3
 10
2903.1779
 20
4534.1689
 11
2901.6135
 21
4534.6087
  0
LINE
  8
0-2
  6
CONTINUOUS
 62
    3
 10
2901.6135
 20
4534.6087
 11
2900
 21
4534.7568
  0
LINE
  8
0-2
  6
CONTINUOUS
 62
    3
 10
2900
 20
4437.2571
 11
2901.6135
 21
4437.4052
  0
LINE
  8
0-2
  6
CONTINUOUS
 62
    3
 10
2901.6135
 20
4437.4052
 11
2903.1779
 21
4437.8451
  0
LINE
  8
0-2
  6
CONTINUOUS
 62
    3
 10
2903.1779
 20
4437.8451
 11
2904.6458
 21
4438.5633
  0
LINE
  8
0-2
  6
CONTINUOUS
 62
    3
 10
2904.6458
 20
4438.5633
 11
2905.9726
 21
4439.5381
  0
LINE
  8
0-2
  6
CONTINUOUS
 62
    3
 10
2905.9726
 20
4439.5381
 11
2907.1178
 21
4440.7399
  0
LINE
  8
0-2
  6
CONTINUOUS
 62
    3
 10
2907.1178
 20
4440.7399
 11
2908.0468
 21
4442.132
  0
LINE
  8
0-2
  6
CONTINUOUS
 62
    3
 10
2908.0468
 20
4442.132
 11
2908.7313
 21
4443.6723
  0
LINE
  8
0-2
  6
CONTINUOUS
 62
    3
 10
2908.7313
 20
4443.6723
 11
2909.1505
 21
4445.3139
  0
LINE
  8
0-2
  6
CONTINUOUS
 62
    3
 10
2909.1505
 20
4445.3139
 11
2909.2917
 21
4447.007
  0
LINE
  8
0-2
  6
CONTINUOUS
 62
    3
 10
2909.2917
 20
4447.007
 11
2909.1505
 21
4448.7
  0
LINE
  8
0-2
  6
CONTINUOUS
 62
    3
 10
2909.1505
 20
4448.7
 11
2908.7313
 21
4450.3416
  0
LINE
  8
0-2
  6
CONTINUOUS
 62
    3
 10
2908.7313
 20
4450.3416
 11
2908.0468
 21
4451.8819
  0
LINE
  8
0-2
  6
CONTINUOUS
 62
    3
 10
2908.0468
 20
4451.8819
 11
2907.1178
 21
4453.2741
  0
LINE
  8
0-2
  6
CONTINUOUS
 62
    3
 10
2907.1178
 20
4453.2741
 11
2905.9726
 21
4454.4758
  0
LINE
  8
0-2
  6
CONTINUOUS
 62
    3
 10
2905.9726
 20
4454.4758
 11
2904.6458
 21
4455.4506
  0
LINE
  8
0-2
  6
CONTINUOUS
 62
    3
 10
2904.6458
 20
4455.4506
 11
2903.1779
 21
4456.1689
  0
LINE
  8
0-2
  6
CONTINUOUS
 62
    3
 10
2903.1779
 20
4456.1689
 11
2901.6135
 21
4456.6088
  0
LINE
  8
0-2
  6
CONTINUOUS
 62
    3
 10
2901.6135
 20
4456.6088
 11
2900
 21
4456.7569
  0
LINE
  8
0-2
  6
CONTINUOUS
 62
    3
 10
1300.0001
 20
4534.7568
 11
1298.3866
 21
4534.6087
  0
LINE
  8
0-2
  6
CONTINUOUS
 62
    3
 10
1298.3866
 20
4534.6087
 11
1296.8222
 21
4534.1689
  0
LINE
  8
0-2
  6
CONTINUOUS
 62
    3
 10
1296.8222
 20
4534.1689
 11
1295.3543
 21
4533.4506
  0
LINE
  8
0-2
  6
CONTINUOUS
 62
    3
 10
1295.3543
 20
4533.4506
 11
1294.0275
 21
4532.4758
  0
LINE
  8
0-2
  6
CONTINUOUS
 62
    3
 10
1294.0275
 20
4532.4758
 11
1292.8823
 21
4531.2741
  0
LINE
  8
0-2
  6
CONTINUOUS
 62
    3
 10
1292.8823
 20
4531.2741
 11
1291.9533
 21
4529.8819
  0
LINE
  8
0-2
  6
CONTINUOUS
 62
    3
 10
1291.9533
 20
4529.8819
 11
1291.2688
 21
4528.3416
  0
LINE
  8
0-2
  6
CONTINUOUS
 62
    3
 10
1291.2688
 20
4528.3416
 11
1290.8496
 21
4526.7
  0
LINE
  8
0-2
  6
CONTINUOUS
 62
    3
 10
1290.8496
 20
4526.7
 11
1290.7084
 21
4525.0069
  0
LINE
  8
0-2
  6
CONTINUOUS
 62
    3
 10
1290.7084
 20
4525.0069
 11
1290.8496
 21
4523.3139
  0
LINE
  8
0-2
  6
CONTINUOUS
 62
    3
 10
1290.8496
 20
4523.3139
 11
1291.2688
 21
4521.6723
  0
LINE
  8
0-2
  6
CONTINUOUS
 62
    3
 10
1291.2688
 20
4521.6723
 11
1291.9533
 21
4520.132
  0
LINE
  8
0-2
  6
CONTINUOUS
 62
    3
 10
1291.9533
 20
4520.132
 11
1292.8823
 21
4518.7398
  0
LINE
  8
0-2
  6
CONTINUOUS
 62
    3
 10
1292.8823
 20
4518.7398
 11
1294.0275
 21
4517.5381
  0
LINE
  8
0-2
  6
CONTINUOUS
 62
    3
 10
1294.0275
 20
4517.5381
 11
1295.3543
 21
4516.5633
  0
LINE
  8
0-2
  6
CONTINUOUS
 62
    3
 10
1295.3543
 20
4516.5633
 11
1296.8222
 21
4515.845
  0
LINE
  8
0-2
  6
CONTINUOUS
 62
    3
 10
1296.8222
 20
4515.845
 11
1298.3866
 21
4515.4052
  0
LINE
  8
0-2
  6
CONTINUOUS
 62
    3
 10
1298.3866
 20
4515.4052
 11
1300.0001
 21
4515.257
  0
LINE
  8
0-2
  6
CONTINUOUS
 62
    3
 10
1300.0001
 20
4456.7569
 11
1298.3866
 21
4456.6088
  0
LINE
  8
0-2
  6
CONTINUOUS
 62
    3
 10
1298.3866
 20
4456.6088
 11
1296.8222
 21
4456.1689
  0
LINE
  8
0-2
  6
CONTINUOUS
 62
    3
 10
1296.8222
 20
4456.1689
 11
1295.3543
 21
4455.4506
  0
LINE
  8
0-2
  6
CONTINUOUS
 62
    3
 10
1295.3543
 20
4455.4506
 11
1294.0275
 21
4454.4758
  0
LINE
  8
0-2
  6
CONTINUOUS
 62
    3
 10
1294.0275
 20
4454.4758
 11
1292.8823
 21
4453.2741
  0
LINE
  8
0-2
  6
CONTINUOUS
 62
    3
 10
1292.8823
 20
4453.2741
 11
1291.9533
 21
4451.8819
  0
LINE
  8
0-2
  6
CONTINUOUS
 62
    3
 10
1291.9533
 20
4451.8819
 11
1291.2688
 21
4450.3416
  0
LINE
  8
0-2
  6
CONTINUOUS
 62
    3
 10
1291.2688
 20
4450.3416
 11
1290.8496
 21
4448.7
  0
LINE
  8
0-2
  6
CONTINUOUS
 62
    3
 10
1290.8496
 20
4448.7
 11
1290.7084
 21
4447.007
  0
LINE
  8
0-2
  6
CONTINUOUS
 62
    3
 10
1290.7084
 20
4447.007
 11
1290.8496
 21
4445.3139
  0
LINE
  8
0-2
  6
CONTINUOUS
 62
    3
 10
1290.8496
 20
4445.3139
 11
1291.2688
 21
4443.6723
  0
LINE
  8
0-2
  6
CONTINUOUS
 62
    3
 10
1291.2688
 20
4443.6723
 11
1291.9533
 21
4442.132
  0
LINE
  8
0-2
  6
CONTINUOUS
 62
    3
 10
1291.9533
 20
4442.132
 11
1292.8823
 21
4440.7399
  0
LINE
  8
0-2
  6
CONTINUOUS
 62
    3
 10
1292.8823
 20
4440.7399
 11
1294.0275
 21
4439.5381
  0
LINE
  8
0-2
  6
CONTINUOUS
 62
    3
 10
1294.0275
 20
4439.5381
 11
1295.3543
 21
4438.5633
  0
LINE
  8
0-2
  6
CONTINUOUS
 62
    3
 10
1295.3543
 20
4438.5633
 11
1296.8222
 21
4437.8451
  0
LINE
  8
0-2
  6
CONTINUOUS
 62
    3
 10
1296.8222
 20
4437.8451
 11
1298.3866
 21
4437.4052
  0
LINE
  8
0-2
  6
CONTINUOUS
 62
    3
 10
1298.3866
 20
4437.4052
 11
1300.0001
 21
4437.2571
  0
LINE
  8
0-2
  6
CONTINUOUS
 62
    3
 10
2632.5
 20
4225.2566
 11
2634.1135
 21
4225.4047
  0
LINE
  8
0-2
  6
CONTINUOUS
 62
    3
 10
2634.1135
 20
4225.4047
 11
2635.6779
 21
4225.8446
  0
LINE
  8
0-2
  6
CONTINUOUS
 62
    3
 10
2635.6779
 20
4225.8446
 11
2637.1458
 21
4226.5628
  0
LINE
  8
0-2
  6
CONTINUOUS
 62
    3
 10
2637.1458
 20
4226.5628
 11
2638.4725
 21
4227.5376
  0
LINE
  8
0-2
  6
CONTINUOUS
 62
    3
 10
2638.4725
 20
4227.5376
 11
2639.6178
 21
4228.7394
  0
LINE
  8
0-2
  6
CONTINUOUS
 62
    3
 10
2639.6178
 20
4228.7394
 11
2640.5468
 21
4230.1315
  0
LINE
  8
0-2
  6
CONTINUOUS
 62
    3
 10
2640.5468
 20
4230.1315
 11
2641.2313
 21
4231.6718
  0
LINE
  8
0-2
  6
CONTINUOUS
 62
    3
 10
2641.2313
 20
4231.6718
 11
2641.6505
 21
4233.3134
  0
LINE
  8
0-2
  6
CONTINUOUS
 62
    3
 10
2641.6505
 20
4233.3134
 11
2641.7916
 21
4235.0065
  0
LINE
  8
0-2
  6
CONTINUOUS
 62
    3
 10
2641.7916
 20
4235.0065
 11
2641.6505
 21
4236.6995
  0
LINE
  8
0-2
  6
CONTINUOUS
 62
    3
 10
2641.6505
 20
4236.6995
 11
2641.2313
 21
4238.3411
  0
LINE
  8
0-2
  6
CONTINUOUS
 62
    3
 10
2641.2313
 20
4238.3411
 11
2640.5468
 21
4239.8814
  0
LINE
  8
0-2
  6
CONTINUOUS
 62
    3
 10
2640.5468
 20
4239.8814
 11
2639.6178
 21
4241.2736
  0
LINE
  8
0-2
  6
CONTINUOUS
 62
    3
 10
2639.6178
 20
4241.2736
 11
2638.4725
 21
4242.4753
  0
LINE
  8
0-2
  6
CONTINUOUS
 62
    3
 10
2638.4725
 20
4242.4753
 11
2637.1458
 21
4243.4501
  0
LINE
  8
0-2
  6
CONTINUOUS
 62
    3
 10
2637.1458
 20
4243.4501
 11
2635.6779
 21
4244.1684
  0
LINE
  8
0-2
  6
CONTINUOUS
 62
    3
 10
2635.6779
 20
4244.1684
 11
2634.1135
 21
4244.6082
  0
LINE
  8
0-2
  6
CONTINUOUS
 62
    3
 10
2634.1135
 20
4244.6082
 11
2632.5
 21
4244.7564
  0
ARC
  8
0-2
  6
CONTINUOUS
 62
    3
 10
2632.5156
 20
4570.1801
 40
8.9706141
 50
270
 51
90
  0
LINE
  8
0-2
  6
CONTINUOUS
 62
    3
 10
2632.5
 20
4225.2566
 11
2634.1135
 21
4225.4047
  0
LINE
  8
0-2
  6
CONTINUOUS
 62
    3
 10
2634.1135
 20
4225.4047
 11
2635.6779
 21
4225.8446
  0
LINE
  8
0-2
  6
CONTINUOUS
 62
    3
 10
2635.6779
 20
4225.8446
 11
2637.1458
 21
4226.5628
  0
LINE
  8
0-2
  6
CONTINUOUS
 62
    3
 10
2637.1458
 20
4226.5628
 11
2638.4725
 21
4227.5376
  0
LINE
  8
0-2
  6
CONTINUOUS
 62
    3
 10
2638.4725
 20
4227.5376
 11
2639.6178
 21
4228.7394
  0
LINE
  8
0-2
  6
CONTINUOUS
 62
    3
 10
2639.6178
 20
4228.7394
 11
2640.5468
 21
4230.1315
  0
LINE
  8
0-2
  6
CONTINUOUS
 62
    3
 10
2640.5468
 20
4230.1315
 11
2641.2313
 21
4231.6718
  0
LINE
  8
0-2
  6
CONTINUOUS
 62
    3
 10
2641.2313
 20
4231.6718
 11
2641.6505
 21
4233.3134
  0
LINE
  8
0-2
  6
CONTINUOUS
 62
    3
 10
2641.6505
 20
4233.3134
 11
2641.7916
 21
4235.0065
  0
LINE
  8
0-2
  6
CONTINUOUS
 62
    3
 10
2641.7916
 20
4235.0065
 11
2641.6505
 21
4236.6995
  0
LINE
  8
0-2
  6
CONTINUOUS
 62
    3
 10
2641.6505
 20
4236.6995
 11
2641.2313
 21
4238.3411
  0
LINE
  8
0-2
  6
CONTINUOUS
 62
    3
 10
2641.2313
 20
4238.3411
 11
2640.5468
 21
4239.8814
  0
LINE
  8
0-2
  6
CONTINUOUS
 62
    3
 10
2640.5468
 20
4239.8814
 11
2639.6178
 21
4241.2736
  0
LINE
  8
0-2
  6
CONTINUOUS
 62
    3
 10
2639.6178
 20
4241.2736
 11
2638.4725
 21
4242.4753
  0
LINE
  8
0-2
  6
CONTINUOUS
 62
    3
 10
2638.4725
 20
4242.4753
 11
2637.1458
 21
4243.4501
  0
LINE
  8
0-2
  6
CONTINUOUS
 62
    3
 10
2637.1458
 20
4243.4501
 11
2635.6779
 21
4244.1684
  0
LINE
  8
0-2
  6
CONTINUOUS
 62
    3
 10
2635.6779
 20
4244.1684
 11
2634.1135
 21
4244.6082
  0
LINE
  8
0-2
  6
CONTINUOUS
 62
    3
 10
2634.1135
 20
4244.6082
 11
2632.5
 21
4244.7564
  0
LINE
  8
0-2
  6
CONTINUOUS
 62
    3
 10
1567.5001
 20
4244.7564
 11
1565.8866
 21
4244.6082
  0
LINE
  8
0-2
  6
CONTINUOUS
 62
    3
 10
1565.8866
 20
4244.6082
 11
1564.3222
 21
4244.1684
  0
LINE
  8
0-2
  6
CONTINUOUS
 62
    3
 10
1564.3222
 20
4244.1684
 11
1562.8543
 21
4243.4501
  0
LINE
  8
0-2
  6
CONTINUOUS
 62
    3
 10
1562.8543
 20
4243.4501
 11
1561.5276
 21
4242.4753
  0
LINE
  8
0-2
  6
CONTINUOUS
 62
    3
 10
1561.5276
 20
4242.4753
 11
1560.3823
 21
4241.2736
  0
LINE
  8
0-2
  6
CONTINUOUS
 62
    3
 10
1560.3823
 20
4241.2736
 11
1559.4533
 21
4239.8814
  0
LINE
  8
0-2
  6
CONTINUOUS
 62
    3
 10
1559.4533
 20
4239.8814
 11
1558.7688
 21
4238.3411
  0
LINE
  8
0-2
  6
CONTINUOUS
 62
    3
 10
1558.7688
 20
4238.3411
 11
1558.3496
 21
4236.6995
  0
LINE
  8
0-2
  6
CONTINUOUS
 62
    3
 10
1558.3496
 20
4236.6995
 11
1558.2085
 21
4235.0065
  0
LINE
  8
0-2
  6
CONTINUOUS
 62
    3
 10
1558.2085
 20
4235.0065
 11
1558.3496
 21
4233.3134
  0
LINE
  8
0-2
  6
CONTINUOUS
 62
    3
 10
1558.3496
 20
4233.3134
 11
1558.7688
 21
4231.6718
  0
LINE
  8
0-2
  6
CONTINUOUS
 62
    3
 10
1558.7688
 20
4231.6718
 11
1559.4533
 21
4230.1315
  0
LINE
  8
0-2
  6
CONTINUOUS
 62
    3
 10
1559.4533
 20
4230.1315
 11
1560.3823
 21
4228.7394
  0
LINE
  8
0-2
  6
CONTINUOUS
 62
    3
 10
1560.3823
 20
4228.7394
 11
1561.5276
 21
4227.5376
  0
LINE
  8
0-2
  6
CONTINUOUS
 62
    3
 10
1561.5276
 20
4227.5376
 11
1562.8543
 21
4226.5628
  0
LINE
  8
0-2
  6
CONTINUOUS
 62
    3
 10
1562.8543
 20
4226.5628
 11
1564.3222
 21
4225.8446
  0
LINE
  8
0-2
  6
CONTINUOUS
 62
    3
 10
1564.3222
 20
4225.8446
 11
1565.8866
 21
4225.4047
  0
LINE
  8
0-2
  6
CONTINUOUS
 62
    3
 10
1565.8866
 20
4225.4047
 11
1567.5001
 21
4225.2566
  0
LINE
  8
0-2
  6
CONTINUOUS
 62
    3
 10
1567.5001
 20
4244.7564
 11
1565.8866
 21
4244.6082
  0
LINE
  8
0-2
  6
CONTINUOUS
 62
    3
 10
1565.8866
 20
4244.6082
 11
1564.3222
 21
4244.1684
  0
LINE
  8
0-2
  6
CONTINUOUS
 62
    3
 10
1564.3222
 20
4244.1684
 11
1562.8543
 21
4243.4501
  0
LINE
  8
0-2
  6
CONTINUOUS
 62
    3
 10
1562.8543
 20
4243.4501
 11
1561.5276
 21
4242.4753
  0
LINE
  8
0-2
  6
CONTINUOUS
 62
    3
 10
1561.5276
 20
4242.4753
 11
1560.3823
 21
4241.2736
  0
LINE
  8
0-2
  6
CONTINUOUS
 62
    3
 10
1560.3823
 20
4241.2736
 11
1559.4533
 21
4239.8814
  0
LINE
  8
0-2
  6
CONTINUOUS
 62
    3
 10
1559.4533
 20
4239.8814
 11
1558.7688
 21
4238.3411
  0
LINE
  8
0-2
  6
CONTINUOUS
 62
    3
 10
1558.7688
 20
4238.3411
 11
1558.3496
 21
4236.6995
  0
LINE
  8
0-2
  6
CONTINUOUS
 62
    3
 10
1558.3496
 20
4236.6995
 11
1558.2085
 21
4235.0065
  0
LINE
  8
0-2
  6
CONTINUOUS
 62
    3
 10
1558.2085
 20
4235.0065
 11
1558.3496
 21
4233.3134
  0
LINE
  8
0-2
  6
CONTINUOUS
 62
    3
 10
1558.3496
 20
4233.3134
 11
1558.7688
 21
4231.6718
  0
LINE
  8
0-2
  6
CONTINUOUS
 62
    3
 10
1558.7688
 20
4231.6718
 11
1559.4533
 21
4230.1315
  0
LINE
  8
0-2
  6
CONTINUOUS
 62
    3
 10
1559.4533
 20
4230.1315
 11
1560.3823
 21
4228.7394
  0
LINE
  8
0-2
  6
CONTINUOUS
 62
    3
 10
1560.3823
 20
4228.7394
 11
1561.5276
 21
4227.5376
  0
LINE
  8
0-2
  6
CONTINUOUS
 62
    3
 10
1561.5276
 20
4227.5376
 11
1562.8543
 21
4226.5628
  0
LINE
  8
0-2
  6
CONTINUOUS
 62
    3
 10
1562.8543
 20
4226.5628
 11
1564.3222
 21
4225.8446
  0
LINE
  8
0-2
  6
CONTINUOUS
 62
    3
 10
1564.3222
 20
4225.8446
 11
1565.8866
 21
4225.4047
  0
LINE
  8
0-2
  6
CONTINUOUS
 62
    3
 10
1565.8866
 20
4225.4047
 11
1567.5001
 21
4225.2566
  0
ARC
  8
0-3
  6
CONTINUOUS
 62
    3
 10
2116.2806
 20
4347.1135
 40
10.192053
 50
270
 51
0
  0
ARC
  8
0-3
  6
CONTINUOUS
 62
    3
 10
2116.2806
 20
4483.3287
 40
10.192053
 50
0
 51
90
  0
ARC
  8
0-3
  6
CONTINUOUS
 62
    3
 10
2219.4259
 20
4163.1064
 40
19.962931
 50
270
 51
0
  0
ARC
  8
0-3
  6
CONTINUOUS
 62
    3
 10
2209.4447
 20
4135.1751
 40
9.9814658
 50
270
 51
0
  0
ARC
  8
0-3
  6
DASHED1
 62
    2
 10
2100.0152
 20
4601.7563
 40
532.49986
 50
0
 51
27.484603
  0
TEXT
  8
0-d
 10
509.99972
 20
310.13515
 40
50
 41
1
 50
0
  1
図
  0
TEXT
  8
0-d
 10
509.99972
 20
190.13521
 40
50
 41
1
 50
0
  1
番
  0
TEXT
  8
0-d
 10
1309.9998
 20
310.13515
 40
50
 41
1
 50
0
  1
承
  0
TEXT
  8
0-d
 10
1309.9998
 20
190.13521
 40
50
 41
1
 50
0
  1
認
  0
TEXT
  8
0-d
 10
2039.9997
 20
470.13525
 40
50
 41
1
 50
0
  1
尺
  0
TEXT
  8
0-d
 10
2039.9997
 20
390.13529
 40
50
 41
1
 50
359.99986
  1
度
  0
TEXT
  8
0-d
 10
1709.9997
 20
310.13515
 40
50
 41
1
 50
0
  1
製
  0
TEXT
  8
0-d
 10
1709.9997
 20
190.13521
 40
50
 41
1
 50
0
  1
図
  0
TEXT
  8
0-d
 10
3110
 20
470.13525
 40
50
 41
1
 50
0
  1
日
  0
TEXT
  8
0-d
 10
3110
 20
390.13529
 40
50
 41
1
 50
359.99986
  1
付
  0
TEXT
  8
0-d
 10
2222.852
 20
322.09976
 40
40
 41
1
 50
0
  1
株式
  0
TEXT
  8
0-d
 10
2222.852
 20
278.83889
 40
40
 41
1
 50
0.0000152
  1
会社
  0
TEXT
  8
0-d
 10
2348.4485
 20
281.62989
 40
80
 41
1
 50
0
  1
スズキベンチレーター
  0
TEXT
  8
0-d
 10
2475.8354
 20
183.18397
 40
40
 41
1
 50
0
  1
TEL(054)296-7000  FAX(054)296-7001
  0
TEXT
  8
0-d
 10
2168.6978
 20
415.33667
 40
80
 41
1
 50
0
  1
１／２０
  0
TEXT
  8
0-8
 10
3223.3185
 20
4071.1325
 40
60
 41
1
 50
90
  1
70
  0
TEXT
  8
0-8
 10
3223.3185
 20
4844.8818
 40
60
 41
1
 50
90
  1
185
  0
TEXT
  8
0-8
 10
3223.3185
 20
4574.8819
 40
60
 41
1
 50
90
  1
380
  0
TEXT
  8
0-8
 10
3223.3185
 20
4289.8817
 40
60
 41
1
 50
90
  1
265
  0
TEXT
  8
0-8
 10
998.27523
 20
4377.3819
 40
60
 41
1
 50
90
  1
900
  0
TEXT
  8
0-8
 10
2045.6252
 20
5110.9974
 40
60
 41
1
 50
0
  1
1,600
  0
TEXT
  8
0-8
 10
2829.209
 20
4314.882
 40
60
 41
1
 50
90
  1
475
  0
TEXT
  8
0-d
 10
510.00006
 20
5545.4028
 40
100
 41
1
 50
0
  1
ＳＴ－１０５　架台型（ダンパー付）断面
  0
TEXT
  8
0-d
 10
562.32181
 20
415.28022
 40
60
 41
1
 50
0
  1
ＳＴ－１０５　架台型（ダンパー付）断面
  0
TEXT
  8
0-d
 10
596.6753
 20
287.90676
 40
60
 41
1
 50
0
  1
105-G04b
  0
TEXT
  8
0-8
 10
1917.3885
 20
3801.3781
 40
60
 41
1
 50
359.99992
  1
1,270x1,270
  0
TEXT
  8
0-d
 10
2471.3583
 20
232.42738
 40
40
 41
1
 50
0
  1
〒421-2114　静岡市葵区安倍口新田１５２番地
  0
POINT
  8
0-8
 62
    2
 10
1013.2749
 20
4056.7567
  0
POINT
  8
0-8
 62
    2
 10
1013.2749
 20
4956.7568
  0
POINT
  8
0-8
 62
    2
 10
1300.0001
 20
5095.9971
  0
POINT
  8
0-8
 62
    2
 10
2900
 20
5095.9971
  0
POINT
  8
0-8
 62
    2
 10
3238.3188
 20
4056.7575
  0
POINT
  8
0-8
 62
    2
 10
3238.3188
 20
4391.7566
  0
POINT
  8
0-8
 62
    2
 10
3238.3188
 20
4771.7569
  0
POINT
  8
0-8
 62
    2
 10
3238.3188
 20
4956.7568
  0
POINT
  8
0-8
 62
    2
 10
3238.3188
 20
4126.7575
  0
POINT
  8
0-8
 62
    2
 10
2844.209
 20
4126.7577
  0
POINT
  8
0-8
 62
    2
 10
2844.209
 20
4601.7563
  0
POINT
  8
0-8
 62
    2
 10
1464.9999
 20
3791.1501
  0
POINT
  8
0-8
 62
    2
 10
2735.0002
 20
3791.1501
  0
ENDSEC
  0
EOF
