  0
SECTION
  2
HEADER
  9
$EXTMIN
 10
0
 20
0
  9
$EXTMAX
 10
8400
 20
5940
  0
ENDSEC
  0
SECTION
  2
TABLES
  0
TABLE
  2
LTYPE
 70
     9
  0
LTYPE
  2
CONTINUOUS
 70
    64
  3
実線
 72
    65
 73
     0
 40
0.0
  0
LTYPE
  2
DASHED1
 70
    64
  3
--  --  --  --  --  --  --  --  
 72
    65
 73
     2
 40
2.5
 49
1.25
 49
-1.25
  0
LTYPE
  2
DASHED2
 70
    64
  3
----    ----    ----    ----    
 72
    65
 73
     2
 40
5.0
 49
2.5
 49
-2.5
  0
LTYPE
  2
DASHED3
 70
    64
  3
------  ------  ------  ------  
 72
    65
 73
     2
 40
5.0
 49
3.75
 49
-1.25
  0
LTYPE
  2
CENTER1
 70
    64
  3
----- - ----- - ----- - ----- - 
 72
    65
 73
     4
 40
10.0
 49
6.25
 49
-1.25
 49
1.25
 49
-1.25
  0
LTYPE
  2
CENTER2
 70
    64
  3
----------  --  ----------  --  
 72
    65
 73
     4
 40
20.0
 49
12.5
 49
-2.5
 49
2.5
 49
-2.5
  0
LTYPE
  2
PHANTOM1
 70
    64
  3
--- - - --- - - --- - - --- - - 
 72
    65
 73
     6
 40
10.0
 49
3.25
 49
-1.25
 49
1.25
 49
-1.25
 49
1.25
 49
-1.25
  0
LTYPE
  2
PHANTOM2
 70
    64
  3
--------  -  -  --------  -  -  
 72
    65
 73
     6
 40
20.0
 49
10.0
 49
-2.5
 49
1.25
 49
-2.5
 49
1.25
 49
-2.5
  0
LTYPE
  2
DOT
 70
    64
  3
-   -   -   -   -   -   -   -   
 72
    65
 73
     2
 40
2.5
 49
0.625
 49
-1.875
  0
ENDTAB
  0
TABLE
  2
STYLE
 70
    1
  0
STYLE
  2
STANDARD
 70
    64
 40
0.0
 41
1.0
 42
0.0
 50
0.0
 71
     0
  3
TXT
  4
BIGFONT
  0
ENDTAB
  0
TABLE
  2
LAYER
 70
    5
  0
LAYER
  2
0-1
 70
   64
 62
    7
  6
CONTINUOUS
  0
LAYER
  2
0-2
 70
   64
 62
    7
  6
CONTINUOUS
  0
LAYER
  2
0-8
 70
   64
 62
    7
  6
CONTINUOUS
  0
LAYER
  2
0-d
 70
   64
 62
    7
  6
CONTINUOUS
  0
LAYER
  2
ADD_LINE
 70
   64
 62
    7
  6
CONTINUOUS
  0
ENDTAB
  0
ENDSEC
  0
SECTION
  2
ENTITIES
  0
LINE
  8
0-d
  6
CONTINUOUS
 62
    7
 10
500.00006
 20
5515.4027
 11
3700.0002
 21
5515.4027
  0
LINE
  8
0-d
  6
CONTINUOUS
 62
    7
 10
500.00006
 20
5535.4028
 11
3700.0002
 21
5535.4028
  0
LINE
  8
0-d
  6
CONTINUOUS
 62
    7
 10
499.99981
 20
375.13524
 11
3700
 21
375.13524
  0
LINE
  8
0-d
  6
CONTINUOUS
 62
    7
 10
499.99981
 20
175.13519
 11
499.99981
 21
535.13516
  0
LINE
  8
0-d
  6
CONTINUOUS
 62
    7
 10
499.99981
 20
175.13519
 11
3700
 21
175.13519
  0
LINE
  8
0-d
  6
CONTINUOUS
 62
    7
 10
2100.0001
 20
535.13516
 11
2100.0001
 21
175.13519
  0
LINE
  8
0-d
  6
CONTINUOUS
 62
    7
 10
1300
 20
175.13519
 11
1300
 21
375.13524
  0
LINE
  8
0-d
  6
CONTINUOUS
 62
    7
 10
2100.0001
 20
375.13524
 11
2100.0001
 21
535.13516
  0
LINE
  8
0-d
  6
CONTINUOUS
 62
    7
 10
1700
 20
175.13519
 11
1700
 21
375.13524
  0
LINE
  8
0-d
  6
CONTINUOUS
 62
    7
 10
569.99968
 20
175.13519
 11
569.99968
 21
375.13524
  0
LINE
  8
0-d
  6
CONTINUOUS
 62
    7
 10
1369.9996
 20
175.13519
 11
1369.9996
 21
375.13524
  0
LINE
  8
0-d
  6
CONTINUOUS
 62
    7
 10
1769.9996
 20
175.13519
 11
1769.9996
 21
375.13524
  0
LINE
  8
0-d
  6
CONTINUOUS
 62
    7
 10
2029.9999
 20
375.13524
 11
2029.9999
 21
535.13516
  0
LINE
  8
0-d
  6
CONTINUOUS
 62
    7
 10
3099.9999
 20
375.13524
 11
3099.9999
 21
535.13516
  0
LINE
  8
0-d
  6
CONTINUOUS
 62
    7
 10
3169.9997
 20
375.13524
 11
3169.9997
 21
535.13516
  0
LINE
  8
0-d
  6
CONTINUOUS
 62
    7
 10
499.99981
 20
535.13516
 11
3700
 21
535.13516
  0
LINE
  8
0-d
  6
CONTINUOUS
 62
    7
 10
3700
 20
535.13516
 11
3700
 21
175.13519
  0
LINE
  8
0-8
  6
CONTINUOUS
 62
    7
 10
1300.0001
 20
5095.9971
 11
2900
 21
5095.9971
  0
LINE
  8
0-2
  6
CONTINUOUS
 62
    3
 10
1300.0001
 20
4771.7569
 11
1300.0001
 21
4534.7566
  0
LINE
  8
0-8
  6
CONTINUOUS
 62
    7
 10
1299.9999
 20
4852.305
 11
1300.0001
 21
5095.9971
  0
LINE
  8
0-8
  6
CONTINUOUS
 62
    7
 10
1604.5541
 20
4956.7568
 11
1013.2749
 21
4956.7568
  0
LINE
  8
0-8
  6
CONTINUOUS
 62
    7
 10
2900
 20
4852.305
 11
2900
 21
5095.9971
  0
LINE
  8
0-2
  6
CONTINUOUS
 62
    3
 10
1300.0001
 20
4515.2573
 11
1300.0001
 21
4456.7571
  0
LINE
  8
0-2
  6
CONTINUOUS
 62
    3
 10
1300.0001
 20
4437.2574
 11
1300.0001
 21
4391.7566
  0
LINE
  8
0-2
  6
CONTINUOUS
 62
    3
 10
1567.5001
 20
4388.7567
 11
1567.5001
 21
4244.7571
  0
LINE
  8
0-2
  6
CONTINUOUS
 62
    3
 10
1300.0001
 20
4771.7569
 11
2100.0001
 21
4771.7569
  0
LINE
  8
0-2
  6
CONTINUOUS
 62
    3
 10
1300.0001
 20
4391.7566
 11
2100.0001
 21
4391.7566
  0
LINE
  8
0-2
  6
CONTINUOUS
 62
    3
 10
1300.0001
 20
4437.2574
 11
2100.0001
 21
4437.2574
  0
LINE
  8
0-2
  6
CONTINUOUS
 62
    3
 10
1300.0001
 20
4456.7571
 11
2100.0001
 21
4456.7571
  0
LINE
  8
0-2
  6
CONTINUOUS
 62
    3
 10
1300.0001
 20
4515.2573
 11
2100.0001
 21
4515.2573
  0
LINE
  8
0-2
  6
CONTINUOUS
 62
    3
 10
1300.0001
 20
4534.7566
 11
2100.0001
 21
4534.7566
  0
LINE
  8
0-8
  6
CONTINUOUS
 62
    7
 10
2855.5084
 20
4056.7575
 11
3238.3188
 21
4056.7575
  0
LINE
  8
0-8
  6
CONTINUOUS
 62
    7
 10
3238.3188
 20
4391.7566
 11
3238.3188
 21
4771.7569
  0
LINE
  8
0-8
  6
CONTINUOUS
 62
    7
 10
3238.3188
 20
4771.7569
 11
3238.3188
 21
4956.7568
  0
LINE
  8
0-8
  6
CONTINUOUS
 62
    7
 10
2855.5084
 20
4956.7568
 11
3238.3188
 21
4956.7568
  0
LINE
  8
0-2
  6
CONTINUOUS
 62
    3
 10
1464.9999
 20
4056.7567
 11
1464.9999
 21
4126.7567
  0
LINE
  8
0-2
  6
CONTINUOUS
 62
    3
 10
1464.9999
 20
4056.7567
 11
2735.0002
 21
4056.7567
  0
LINE
  8
0-2
  6
CONTINUOUS
 62
    3
 10
1464.9999
 20
4126.7567
 11
2735.0002
 21
4126.7567
  0
LINE
  8
0-8
  6
CONTINUOUS
 62
    7
 10
1013.2749
 20
4056.7567
 11
1013.2749
 21
4956.7568
  0
LINE
  8
0-8
  6
CONTINUOUS
 62
    7
 10
3238.3188
 20
4056.7575
 11
3238.3188
 21
4391.7566
  0
LINE
  8
0-8
  6
CONTINUOUS
 62
    7
 10
2855.5084
 20
4126.7575
 11
3238.3188
 21
4126.7575
  0
LINE
  8
0-8
  6
CONTINUOUS
 62
    7
 10
1313.8971
 20
4056.7567
 11
1013.2749
 21
4056.7567
  0
LINE
  8
0-8
  6
CONTINUOUS
 62
    7
 10
2949.2762
 20
4771.7569
 11
3238.3188
 21
4771.7569
  0
LINE
  8
0-8
  6
CONTINUOUS
 62
    7
 10
2949.2767
 20
4391.7566
 11
3238.3188
 21
4391.7566
  0
LINE
  8
0-2
  6
CONTINUOUS
 62
    3
 10
1625.1472
 20
4204.1502
 11
1625.1472
 21
4126.7567
  0
LINE
  8
0-8
  6
CONTINUOUS
 62
    7
 10
1464.9999
 20
3791.1501
 11
2735.0002
 21
3791.1501
  0
LINE
  8
0-8
  6
CONTINUOUS
 62
    7
 10
1464.9999
 20
3985.3988
 11
1464.9999
 21
3791.1501
  0
LINE
  8
0-8
  6
CONTINUOUS
 62
    7
 10
2735.0002
 20
3985.3988
 11
2735.0002
 21
3791.1501
  0
LINE
  8
0-2
  6
CONTINUOUS
 62
    3
 10
1464.9999
 20
4126.7567
 11
1601.5488
 21
4204.1502
  0
LINE
  8
0-2
  6
CONTINUOUS
 62
    3
 10
1601.5488
 20
4204.1502
 11
1625.1468
 21
4204.1502
  0
LINE
  8
0-2
  6
CONTINUOUS
 62
    3
 10
1625.1468
 20
4204.1502
 11
1625.1468
 21
4126.7567
  0
LINE
  8
0-2
  6
CONTINUOUS
 62
    3
 10
1567.5001
 20
4244.7571
 11
2100.0001
 21
4244.7571
  0
LINE
  8
0-2
  6
CONTINUOUS
 62
    3
 10
1567.5001
 20
4225.2568
 11
2100.0001
 21
4225.2568
  0
LINE
  8
0-2
  6
CONTINUOUS
 62
    3
 10
1567.5001
 20
4225.2568
 11
1567.5001
 21
4184.8519
  0
LINE
  8
0-2
  6
CONTINUOUS
 62
    3
 10
2100.0001
 20
4956.7568
 11
1271.8744
 21
4765.2527
  0
LINE
  8
0-2
  6
CONTINUOUS
 62
    3
 10
2900
 20
4771.7569
 11
2900
 21
4534.7566
  0
LINE
  8
0-2
  6
CONTINUOUS
 62
    3
 10
2900
 20
4515.2573
 11
2900
 21
4456.7571
  0
LINE
  8
0-2
  6
CONTINUOUS
 62
    3
 10
2900
 20
4437.2574
 11
2900
 21
4391.7566
  0
LINE
  8
0-2
  6
CONTINUOUS
 62
    3
 10
2632.5
 20
4388.7567
 11
2632.5
 21
4244.7571
  0
LINE
  8
0-2
  6
CONTINUOUS
 62
    3
 10
2900
 20
4771.7569
 11
2100.0001
 21
4771.7569
  0
LINE
  8
0-2
  6
CONTINUOUS
 62
    3
 10
2900
 20
4391.7566
 11
2100.0001
 21
4391.7566
  0
LINE
  8
0-2
  6
CONTINUOUS
 62
    3
 10
2900
 20
4437.2574
 11
2100.0001
 21
4437.2574
  0
LINE
  8
0-2
  6
CONTINUOUS
 62
    3
 10
2900
 20
4456.7571
 11
2100.0001
 21
4456.7571
  0
LINE
  8
0-2
  6
CONTINUOUS
 62
    3
 10
2900
 20
4515.2573
 11
2100.0001
 21
4515.2573
  0
LINE
  8
0-2
  6
CONTINUOUS
 62
    3
 10
2900
 20
4534.7566
 11
2100.0001
 21
4534.7566
  0
LINE
  8
0-2
  6
CONTINUOUS
 62
    3
 10
2735.0002
 20
4056.7567
 11
2735.0002
 21
4126.7567
  0
LINE
  8
0-2
  6
CONTINUOUS
 62
    3
 10
2574.8529
 20
4204.1502
 11
2574.8529
 21
4126.7567
  0
LINE
  8
0-2
  6
CONTINUOUS
 62
    3
 10
2735.0002
 20
4126.7567
 11
2598.4513
 21
4204.1502
  0
LINE
  8
0-2
  6
CONTINUOUS
 62
    3
 10
2598.4513
 20
4204.1502
 11
2574.8532
 21
4204.1502
  0
LINE
  8
0-2
  6
CONTINUOUS
 62
    3
 10
2574.8532
 20
4204.1502
 11
2574.8532
 21
4126.7567
  0
LINE
  8
0-2
  6
CONTINUOUS
 62
    3
 10
2632.5
 20
4244.7571
 11
2100.0001
 21
4244.7571
  0
LINE
  8
0-2
  6
CONTINUOUS
 62
    3
 10
2632.5
 20
4225.2568
 11
2100.0001
 21
4225.2568
  0
LINE
  8
0-2
  6
CONTINUOUS
 62
    3
 10
2632.5
 20
4225.2568
 11
2632.5
 21
4184.8519
  0
LINE
  8
0-2
  6
CONTINUOUS
 62
    3
 10
2100.0001
 20
4956.7568
 11
2928.1258
 21
4765.2527
  0
LINE
  8
0-1
  6
CENTER2
 62
    7
 10
2100.0001
 20
4056.7567
 11
2100.0001
 21
4956.7568
  0
LINE
  8
0-2
  6
CONTINUOUS
 62
    3
 10
1300.0001
 20
4534.7568
 11
1298.3866
 21
4534.6087
  0
LINE
  8
0-2
  6
CONTINUOUS
 62
    3
 10
1298.3866
 20
4534.6087
 11
1296.8222
 21
4534.1689
  0
LINE
  8
0-2
  6
CONTINUOUS
 62
    3
 10
1296.8222
 20
4534.1689
 11
1295.3543
 21
4533.4506
  0
LINE
  8
0-2
  6
CONTINUOUS
 62
    3
 10
1295.3543
 20
4533.4506
 11
1294.0275
 21
4532.4758
  0
LINE
  8
0-2
  6
CONTINUOUS
 62
    3
 10
1294.0275
 20
4532.4758
 11
1292.8823
 21
4531.2741
  0
LINE
  8
0-2
  6
CONTINUOUS
 62
    3
 10
1292.8823
 20
4531.2741
 11
1291.9533
 21
4529.8819
  0
LINE
  8
0-2
  6
CONTINUOUS
 62
    3
 10
1291.9533
 20
4529.8819
 11
1291.2688
 21
4528.3416
  0
LINE
  8
0-2
  6
CONTINUOUS
 62
    3
 10
1291.2688
 20
4528.3416
 11
1290.8496
 21
4526.7
  0
LINE
  8
0-2
  6
CONTINUOUS
 62
    3
 10
1290.8496
 20
4526.7
 11
1290.7084
 21
4525.0069
  0
LINE
  8
0-2
  6
CONTINUOUS
 62
    3
 10
1290.7084
 20
4525.0069
 11
1290.8496
 21
4523.3139
  0
LINE
  8
0-2
  6
CONTINUOUS
 62
    3
 10
1290.8496
 20
4523.3139
 11
1291.2688
 21
4521.6723
  0
LINE
  8
0-2
  6
CONTINUOUS
 62
    3
 10
1291.2688
 20
4521.6723
 11
1291.9533
 21
4520.132
  0
LINE
  8
0-2
  6
CONTINUOUS
 62
    3
 10
1291.9533
 20
4520.132
 11
1292.8823
 21
4518.7398
  0
LINE
  8
0-2
  6
CONTINUOUS
 62
    3
 10
1292.8823
 20
4518.7398
 11
1294.0275
 21
4517.5381
  0
LINE
  8
0-2
  6
CONTINUOUS
 62
    3
 10
1294.0275
 20
4517.5381
 11
1295.3543
 21
4516.5633
  0
LINE
  8
0-2
  6
CONTINUOUS
 62
    3
 10
1295.3543
 20
4516.5633
 11
1296.8222
 21
4515.845
  0
LINE
  8
0-2
  6
CONTINUOUS
 62
    3
 10
1296.8222
 20
4515.845
 11
1298.3866
 21
4515.4052
  0
LINE
  8
0-2
  6
CONTINUOUS
 62
    3
 10
1298.3866
 20
4515.4052
 11
1300.0001
 21
4515.257
  0
LINE
  8
0-2
  6
CONTINUOUS
 62
    3
 10
1300.0001
 20
4456.7569
 11
1298.3866
 21
4456.6088
  0
LINE
  8
0-2
  6
CONTINUOUS
 62
    3
 10
1298.3866
 20
4456.6088
 11
1296.8222
 21
4456.1689
  0
LINE
  8
0-2
  6
CONTINUOUS
 62
    3
 10
1296.8222
 20
4456.1689
 11
1295.3543
 21
4455.4506
  0
LINE
  8
0-2
  6
CONTINUOUS
 62
    3
 10
1295.3543
 20
4455.4506
 11
1294.0275
 21
4454.4758
  0
LINE
  8
0-2
  6
CONTINUOUS
 62
    3
 10
1294.0275
 20
4454.4758
 11
1292.8823
 21
4453.2741
  0
LINE
  8
0-2
  6
CONTINUOUS
 62
    3
 10
1292.8823
 20
4453.2741
 11
1291.9533
 21
4451.8819
  0
LINE
  8
0-2
  6
CONTINUOUS
 62
    3
 10
1291.9533
 20
4451.8819
 11
1291.2688
 21
4450.3416
  0
LINE
  8
0-2
  6
CONTINUOUS
 62
    3
 10
1291.2688
 20
4450.3416
 11
1290.8496
 21
4448.7
  0
LINE
  8
0-2
  6
CONTINUOUS
 62
    3
 10
1290.8496
 20
4448.7
 11
1290.7084
 21
4447.007
  0
LINE
  8
0-2
  6
CONTINUOUS
 62
    3
 10
1290.7084
 20
4447.007
 11
1290.8496
 21
4445.3139
  0
LINE
  8
0-2
  6
CONTINUOUS
 62
    3
 10
1290.8496
 20
4445.3139
 11
1291.2688
 21
4443.6723
  0
LINE
  8
0-2
  6
CONTINUOUS
 62
    3
 10
1291.2688
 20
4443.6723
 11
1291.9533
 21
4442.132
  0
LINE
  8
0-2
  6
CONTINUOUS
 62
    3
 10
1291.9533
 20
4442.132
 11
1292.8823
 21
4440.7399
  0
LINE
  8
0-2
  6
CONTINUOUS
 62
    3
 10
1292.8823
 20
4440.7399
 11
1294.0275
 21
4439.5381
  0
LINE
  8
0-2
  6
CONTINUOUS
 62
    3
 10
1294.0275
 20
4439.5381
 11
1295.3543
 21
4438.5633
  0
LINE
  8
0-2
  6
CONTINUOUS
 62
    3
 10
1295.3543
 20
4438.5633
 11
1296.8222
 21
4437.8451
  0
LINE
  8
0-2
  6
CONTINUOUS
 62
    3
 10
1296.8222
 20
4437.8451
 11
1298.3866
 21
4437.4052
  0
LINE
  8
0-2
  6
CONTINUOUS
 62
    3
 10
1298.3866
 20
4437.4052
 11
1300.0001
 21
4437.2571
  0
LINE
  8
0-2
  6
CONTINUOUS
 62
    3
 10
1567.5001
 20
4244.7564
 11
1565.8866
 21
4244.6082
  0
LINE
  8
0-2
  6
CONTINUOUS
 62
    3
 10
1565.8866
 20
4244.6082
 11
1564.3222
 21
4244.1684
  0
LINE
  8
0-2
  6
CONTINUOUS
 62
    3
 10
1564.3222
 20
4244.1684
 11
1562.8543
 21
4243.4501
  0
LINE
  8
0-2
  6
CONTINUOUS
 62
    3
 10
1562.8543
 20
4243.4501
 11
1561.5276
 21
4242.4753
  0
LINE
  8
0-2
  6
CONTINUOUS
 62
    3
 10
1561.5276
 20
4242.4753
 11
1560.3823
 21
4241.2736
  0
LINE
  8
0-2
  6
CONTINUOUS
 62
    3
 10
1560.3823
 20
4241.2736
 11
1559.4533
 21
4239.8814
  0
LINE
  8
0-2
  6
CONTINUOUS
 62
    3
 10
1559.4533
 20
4239.8814
 11
1558.7688
 21
4238.3411
  0
LINE
  8
0-2
  6
CONTINUOUS
 62
    3
 10
1558.7688
 20
4238.3411
 11
1558.3496
 21
4236.6995
  0
LINE
  8
0-2
  6
CONTINUOUS
 62
    3
 10
1558.3496
 20
4236.6995
 11
1558.2085
 21
4235.0065
  0
LINE
  8
0-2
  6
CONTINUOUS
 62
    3
 10
1558.2085
 20
4235.0065
 11
1558.3496
 21
4233.3134
  0
LINE
  8
0-2
  6
CONTINUOUS
 62
    3
 10
1558.3496
 20
4233.3134
 11
1558.7688
 21
4231.6718
  0
LINE
  8
0-2
  6
CONTINUOUS
 62
    3
 10
1558.7688
 20
4231.6718
 11
1559.4533
 21
4230.1315
  0
LINE
  8
0-2
  6
CONTINUOUS
 62
    3
 10
1559.4533
 20
4230.1315
 11
1560.3823
 21
4228.7394
  0
LINE
  8
0-2
  6
CONTINUOUS
 62
    3
 10
1560.3823
 20
4228.7394
 11
1561.5276
 21
4227.5376
  0
LINE
  8
0-2
  6
CONTINUOUS
 62
    3
 10
1561.5276
 20
4227.5376
 11
1562.8543
 21
4226.5628
  0
LINE
  8
0-2
  6
CONTINUOUS
 62
    3
 10
1562.8543
 20
4226.5628
 11
1564.3222
 21
4225.8446
  0
LINE
  8
0-2
  6
CONTINUOUS
 62
    3
 10
1564.3222
 20
4225.8446
 11
1565.8866
 21
4225.4047
  0
LINE
  8
0-2
  6
CONTINUOUS
 62
    3
 10
1565.8866
 20
4225.4047
 11
1567.5001
 21
4225.2566
  0
LINE
  8
0-2
  6
CONTINUOUS
 62
    3
 10
1567.5001
 20
4244.7564
 11
1565.8866
 21
4244.6082
  0
LINE
  8
0-2
  6
CONTINUOUS
 62
    3
 10
1565.8866
 20
4244.6082
 11
1564.3222
 21
4244.1684
  0
LINE
  8
0-2
  6
CONTINUOUS
 62
    3
 10
1564.3222
 20
4244.1684
 11
1562.8543
 21
4243.4501
  0
LINE
  8
0-2
  6
CONTINUOUS
 62
    3
 10
1562.8543
 20
4243.4501
 11
1561.5276
 21
4242.4753
  0
LINE
  8
0-2
  6
CONTINUOUS
 62
    3
 10
1561.5276
 20
4242.4753
 11
1560.3823
 21
4241.2736
  0
LINE
  8
0-2
  6
CONTINUOUS
 62
    3
 10
1560.3823
 20
4241.2736
 11
1559.4533
 21
4239.8814
  0
LINE
  8
0-2
  6
CONTINUOUS
 62
    3
 10
1559.4533
 20
4239.8814
 11
1558.7688
 21
4238.3411
  0
LINE
  8
0-2
  6
CONTINUOUS
 62
    3
 10
1558.7688
 20
4238.3411
 11
1558.3496
 21
4236.6995
  0
LINE
  8
0-2
  6
CONTINUOUS
 62
    3
 10
1558.3496
 20
4236.6995
 11
1558.2085
 21
4235.0065
  0
LINE
  8
0-2
  6
CONTINUOUS
 62
    3
 10
1558.2085
 20
4235.0065
 11
1558.3496
 21
4233.3134
  0
LINE
  8
0-2
  6
CONTINUOUS
 62
    3
 10
1558.3496
 20
4233.3134
 11
1558.7688
 21
4231.6718
  0
LINE
  8
0-2
  6
CONTINUOUS
 62
    3
 10
1558.7688
 20
4231.6718
 11
1559.4533
 21
4230.1315
  0
LINE
  8
0-2
  6
CONTINUOUS
 62
    3
 10
1559.4533
 20
4230.1315
 11
1560.3823
 21
4228.7394
  0
LINE
  8
0-2
  6
CONTINUOUS
 62
    3
 10
1560.3823
 20
4228.7394
 11
1561.5276
 21
4227.5376
  0
LINE
  8
0-2
  6
CONTINUOUS
 62
    3
 10
1561.5276
 20
4227.5376
 11
1562.8543
 21
4226.5628
  0
LINE
  8
0-2
  6
CONTINUOUS
 62
    3
 10
1562.8543
 20
4226.5628
 11
1564.3222
 21
4225.8446
  0
LINE
  8
0-2
  6
CONTINUOUS
 62
    3
 10
1564.3222
 20
4225.8446
 11
1565.8866
 21
4225.4047
  0
LINE
  8
0-2
  6
CONTINUOUS
 62
    3
 10
1565.8866
 20
4225.4047
 11
1567.5001
 21
4225.2566
  0
LINE
  8
0-2
  6
CONTINUOUS
 62
    3
 10
2900
 20
4515.257
 11
2901.6135
 21
4515.4052
  0
LINE
  8
0-2
  6
CONTINUOUS
 62
    3
 10
2901.6135
 20
4515.4052
 11
2903.1779
 21
4515.845
  0
LINE
  8
0-2
  6
CONTINUOUS
 62
    3
 10
2903.1779
 20
4515.845
 11
2904.6458
 21
4516.5633
  0
LINE
  8
0-2
  6
CONTINUOUS
 62
    3
 10
2904.6458
 20
4516.5633
 11
2905.9726
 21
4517.5381
  0
LINE
  8
0-2
  6
CONTINUOUS
 62
    3
 10
2905.9726
 20
4517.5381
 11
2907.1178
 21
4518.7398
  0
LINE
  8
0-2
  6
CONTINUOUS
 62
    3
 10
2907.1178
 20
4518.7398
 11
2908.0468
 21
4520.132
  0
LINE
  8
0-2
  6
CONTINUOUS
 62
    3
 10
2908.0468
 20
4520.132
 11
2908.7313
 21
4521.6723
  0
LINE
  8
0-2
  6
CONTINUOUS
 62
    3
 10
2908.7313
 20
4521.6723
 11
2909.1505
 21
4523.3139
  0
LINE
  8
0-2
  6
CONTINUOUS
 62
    3
 10
2909.1505
 20
4523.3139
 11
2909.2917
 21
4525.0069
  0
LINE
  8
0-2
  6
CONTINUOUS
 62
    3
 10
2909.2917
 20
4525.0069
 11
2909.1505
 21
4526.7
  0
LINE
  8
0-2
  6
CONTINUOUS
 62
    3
 10
2909.1505
 20
4526.7
 11
2908.7313
 21
4528.3416
  0
LINE
  8
0-2
  6
CONTINUOUS
 62
    3
 10
2908.7313
 20
4528.3416
 11
2908.0468
 21
4529.8819
  0
LINE
  8
0-2
  6
CONTINUOUS
 62
    3
 10
2908.0468
 20
4529.8819
 11
2907.1178
 21
4531.2741
  0
LINE
  8
0-2
  6
CONTINUOUS
 62
    3
 10
2907.1178
 20
4531.2741
 11
2905.9726
 21
4532.4758
  0
LINE
  8
0-2
  6
CONTINUOUS
 62
    3
 10
2905.9726
 20
4532.4758
 11
2904.6458
 21
4533.4506
  0
LINE
  8
0-2
  6
CONTINUOUS
 62
    3
 10
2904.6458
 20
4533.4506
 11
2903.1779
 21
4534.1689
  0
LINE
  8
0-2
  6
CONTINUOUS
 62
    3
 10
2903.1779
 20
4534.1689
 11
2901.6135
 21
4534.6087
  0
LINE
  8
0-2
  6
CONTINUOUS
 62
    3
 10
2901.6135
 20
4534.6087
 11
2900
 21
4534.7568
  0
LINE
  8
0-2
  6
CONTINUOUS
 62
    3
 10
2900
 20
4437.2571
 11
2901.6135
 21
4437.4052
  0
LINE
  8
0-2
  6
CONTINUOUS
 62
    3
 10
2901.6135
 20
4437.4052
 11
2903.1779
 21
4437.8451
  0
LINE
  8
0-2
  6
CONTINUOUS
 62
    3
 10
2903.1779
 20
4437.8451
 11
2904.6458
 21
4438.5633
  0
LINE
  8
0-2
  6
CONTINUOUS
 62
    3
 10
2904.6458
 20
4438.5633
 11
2905.9726
 21
4439.5381
  0
LINE
  8
0-2
  6
CONTINUOUS
 62
    3
 10
2905.9726
 20
4439.5381
 11
2907.1178
 21
4440.7399
  0
LINE
  8
0-2
  6
CONTINUOUS
 62
    3
 10
2907.1178
 20
4440.7399
 11
2908.0468
 21
4442.132
  0
LINE
  8
0-2
  6
CONTINUOUS
 62
    3
 10
2908.0468
 20
4442.132
 11
2908.7313
 21
4443.6723
  0
LINE
  8
0-2
  6
CONTINUOUS
 62
    3
 10
2908.7313
 20
4443.6723
 11
2909.1505
 21
4445.3139
  0
LINE
  8
0-2
  6
CONTINUOUS
 62
    3
 10
2909.1505
 20
4445.3139
 11
2909.2917
 21
4447.007
  0
LINE
  8
0-2
  6
CONTINUOUS
 62
    3
 10
2909.2917
 20
4447.007
 11
2909.1505
 21
4448.7
  0
LINE
  8
0-2
  6
CONTINUOUS
 62
    3
 10
2909.1505
 20
4448.7
 11
2908.7313
 21
4450.3416
  0
LINE
  8
0-2
  6
CONTINUOUS
 62
    3
 10
2908.7313
 20
4450.3416
 11
2908.0468
 21
4451.8819
  0
LINE
  8
0-2
  6
CONTINUOUS
 62
    3
 10
2908.0468
 20
4451.8819
 11
2907.1178
 21
4453.2741
  0
LINE
  8
0-2
  6
CONTINUOUS
 62
    3
 10
2907.1178
 20
4453.2741
 11
2905.9726
 21
4454.4758
  0
LINE
  8
0-2
  6
CONTINUOUS
 62
    3
 10
2905.9726
 20
4454.4758
 11
2904.6458
 21
4455.4506
  0
LINE
  8
0-2
  6
CONTINUOUS
 62
    3
 10
2904.6458
 20
4455.4506
 11
2903.1779
 21
4456.1689
  0
LINE
  8
0-2
  6
CONTINUOUS
 62
    3
 10
2903.1779
 20
4456.1689
 11
2901.6135
 21
4456.6088
  0
LINE
  8
0-2
  6
CONTINUOUS
 62
    3
 10
2901.6135
 20
4456.6088
 11
2900
 21
4456.7569
  0
LINE
  8
0-2
  6
CONTINUOUS
 62
    3
 10
2632.5
 20
4225.2566
 11
2634.1135
 21
4225.4047
  0
LINE
  8
0-2
  6
CONTINUOUS
 62
    3
 10
2634.1135
 20
4225.4047
 11
2635.6779
 21
4225.8446
  0
LINE
  8
0-2
  6
CONTINUOUS
 62
    3
 10
2635.6779
 20
4225.8446
 11
2637.1458
 21
4226.5628
  0
LINE
  8
0-2
  6
CONTINUOUS
 62
    3
 10
2637.1458
 20
4226.5628
 11
2638.4725
 21
4227.5376
  0
LINE
  8
0-2
  6
CONTINUOUS
 62
    3
 10
2638.4725
 20
4227.5376
 11
2639.6178
 21
4228.7394
  0
LINE
  8
0-2
  6
CONTINUOUS
 62
    3
 10
2639.6178
 20
4228.7394
 11
2640.5468
 21
4230.1315
  0
LINE
  8
0-2
  6
CONTINUOUS
 62
    3
 10
2640.5468
 20
4230.1315
 11
2641.2313
 21
4231.6718
  0
LINE
  8
0-2
  6
CONTINUOUS
 62
    3
 10
2641.2313
 20
4231.6718
 11
2641.6505
 21
4233.3134
  0
LINE
  8
0-2
  6
CONTINUOUS
 62
    3
 10
2641.6505
 20
4233.3134
 11
2641.7916
 21
4235.0065
  0
LINE
  8
0-2
  6
CONTINUOUS
 62
    3
 10
2641.7916
 20
4235.0065
 11
2641.6505
 21
4236.6995
  0
LINE
  8
0-2
  6
CONTINUOUS
 62
    3
 10
2641.6505
 20
4236.6995
 11
2641.2313
 21
4238.3411
  0
LINE
  8
0-2
  6
CONTINUOUS
 62
    3
 10
2641.2313
 20
4238.3411
 11
2640.5468
 21
4239.8814
  0
LINE
  8
0-2
  6
CONTINUOUS
 62
    3
 10
2640.5468
 20
4239.8814
 11
2639.6178
 21
4241.2736
  0
LINE
  8
0-2
  6
CONTINUOUS
 62
    3
 10
2639.6178
 20
4241.2736
 11
2638.4725
 21
4242.4753
  0
LINE
  8
0-2
  6
CONTINUOUS
 62
    3
 10
2638.4725
 20
4242.4753
 11
2637.1458
 21
4243.4501
  0
LINE
  8
0-2
  6
CONTINUOUS
 62
    3
 10
2637.1458
 20
4243.4501
 11
2635.6779
 21
4244.1684
  0
LINE
  8
0-2
  6
CONTINUOUS
 62
    3
 10
2635.6779
 20
4244.1684
 11
2634.1135
 21
4244.6082
  0
LINE
  8
0-2
  6
CONTINUOUS
 62
    3
 10
2634.1135
 20
4244.6082
 11
2632.5
 21
4244.7564
  0
LINE
  8
0-2
  6
CONTINUOUS
 62
    3
 10
2632.5
 20
4225.2566
 11
2634.1135
 21
4225.4047
  0
LINE
  8
0-2
  6
CONTINUOUS
 62
    3
 10
2634.1135
 20
4225.4047
 11
2635.6779
 21
4225.8446
  0
LINE
  8
0-2
  6
CONTINUOUS
 62
    3
 10
2635.6779
 20
4225.8446
 11
2637.1458
 21
4226.5628
  0
LINE
  8
0-2
  6
CONTINUOUS
 62
    3
 10
2637.1458
 20
4226.5628
 11
2638.4725
 21
4227.5376
  0
LINE
  8
0-2
  6
CONTINUOUS
 62
    3
 10
2638.4725
 20
4227.5376
 11
2639.6178
 21
4228.7394
  0
LINE
  8
0-2
  6
CONTINUOUS
 62
    3
 10
2639.6178
 20
4228.7394
 11
2640.5468
 21
4230.1315
  0
LINE
  8
0-2
  6
CONTINUOUS
 62
    3
 10
2640.5468
 20
4230.1315
 11
2641.2313
 21
4231.6718
  0
LINE
  8
0-2
  6
CONTINUOUS
 62
    3
 10
2641.2313
 20
4231.6718
 11
2641.6505
 21
4233.3134
  0
LINE
  8
0-2
  6
CONTINUOUS
 62
    3
 10
2641.6505
 20
4233.3134
 11
2641.7916
 21
4235.0065
  0
LINE
  8
0-2
  6
CONTINUOUS
 62
    3
 10
2641.7916
 20
4235.0065
 11
2641.6505
 21
4236.6995
  0
LINE
  8
0-2
  6
CONTINUOUS
 62
    3
 10
2641.6505
 20
4236.6995
 11
2641.2313
 21
4238.3411
  0
LINE
  8
0-2
  6
CONTINUOUS
 62
    3
 10
2641.2313
 20
4238.3411
 11
2640.5468
 21
4239.8814
  0
LINE
  8
0-2
  6
CONTINUOUS
 62
    3
 10
2640.5468
 20
4239.8814
 11
2639.6178
 21
4241.2736
  0
LINE
  8
0-2
  6
CONTINUOUS
 62
    3
 10
2639.6178
 20
4241.2736
 11
2638.4725
 21
4242.4753
  0
LINE
  8
0-2
  6
CONTINUOUS
 62
    3
 10
2638.4725
 20
4242.4753
 11
2637.1458
 21
4243.4501
  0
LINE
  8
0-2
  6
CONTINUOUS
 62
    3
 10
2637.1458
 20
4243.4501
 11
2635.6779
 21
4244.1684
  0
LINE
  8
0-2
  6
CONTINUOUS
 62
    3
 10
2635.6779
 20
4244.1684
 11
2634.1135
 21
4244.6082
  0
LINE
  8
0-2
  6
CONTINUOUS
 62
    3
 10
2634.1135
 20
4244.6082
 11
2632.5
 21
4244.7564
  0
TEXT
  8
0-d
 10
509.99972
 20
310.13515
 40
50
 41
1
 50
0
  1
図
  0
TEXT
  8
0-d
 10
509.99972
 20
190.13521
 40
50
 41
1
 50
0
  1
番
  0
TEXT
  8
0-d
 10
1309.9998
 20
310.13515
 40
50
 41
1
 50
0
  1
承
  0
TEXT
  8
0-d
 10
1309.9998
 20
190.13521
 40
50
 41
1
 50
0
  1
認
  0
TEXT
  8
0-d
 10
2039.9997
 20
470.13525
 40
50
 41
1
 50
0
  1
尺
  0
TEXT
  8
0-d
 10
2039.9997
 20
390.13529
 40
50
 41
1
 50
359.99986
  1
度
  0
TEXT
  8
0-d
 10
1709.9997
 20
310.13515
 40
50
 41
1
 50
0
  1
製
  0
TEXT
  8
0-d
 10
1709.9997
 20
190.13521
 40
50
 41
1
 50
0
  1
図
  0
TEXT
  8
0-d
 10
3110
 20
470.13525
 40
50
 41
1
 50
0
  1
日
  0
TEXT
  8
0-d
 10
3110
 20
390.13529
 40
50
 41
1
 50
359.99986
  1
付
  0
TEXT
  8
0-d
 10
2222.852
 20
322.09976
 40
40
 41
1
 50
0
  1
株式
  0
TEXT
  8
0-d
 10
2222.852
 20
278.83889
 40
40
 41
1
 50
0.0000152
  1
会社
  0
TEXT
  8
0-d
 10
2348.4485
 20
281.62989
 40
80
 41
1
 50
0
  1
スズキベンチレーター
  0
TEXT
  8
0-d
 10
2475.8354
 20
183.18397
 40
40
 41
1
 50
0
  1
TEL(054)296-7000  FAX(054)296-7001
  0
TEXT
  8
0-d
 10
2168.6978
 20
415.33667
 40
80
 41
1
 50
0
  1
１／２０
  0
TEXT
  8
0-8
 10
3223.3185
 20
4071.1325
 40
60
 41
1
 50
90
  1
70
  0
TEXT
  8
0-8
 10
3223.3185
 20
4844.8818
 40
60
 41
1
 50
90
  1
185
  0
TEXT
  8
0-8
 10
3223.3185
 20
4574.8819
 40
60
 41
1
 50
90
  1
380
  0
TEXT
  8
0-8
 10
3223.3185
 20
4289.8817
 40
60
 41
1
 50
90
  1
265
  0
TEXT
  8
0-8
 10
998.27523
 20
4377.3819
 40
60
 41
1
 50
90
  1
900
  0
TEXT
  8
0-8
 10
2045.6252
 20
5110.9974
 40
60
 41
1
 50
0
  1
1,600
  0
TEXT
  8
0-d
 10
596.6753
 20
287.90676
 40
60
 41
1
 50
0
  1
105-G02b
  0
TEXT
  8
0-8
 10
1937.0858
 20
3806.093
 40
60
 41
1
 50
359.99992
  1
1,270x1,270
  0
TEXT
  8
0-d
 10
510.00006
 20
5545.4028
 40
100
 41
1
 50
0
  1
ＳＴ－１０５　架台型立面
  0
TEXT
  8
0-d
 10
562.32181
 20
415.28022
 40
60
 41
1
 50
0
  1
ＳＴ－１０５　架台型立面
  0
TEXT
  8
0-d
 10
2471.3583
 20
232.42738
 40
40
 41
1
 50
0
  1
〒421-2114　静岡市葵区安倍口新田１５２番地
  0
POINT
  8
0-8
 62
    2
 10
1013.2749
 20
4056.7567
  0
POINT
  8
0-8
 62
    2
 10
1013.2749
 20
4956.7568
  0
POINT
  8
0-8
 62
    2
 10
1300.0001
 20
5095.9971
  0
POINT
  8
0-8
 62
    2
 10
2900
 20
5095.9971
  0
POINT
  8
0-8
 62
    2
 10
3238.3188
 20
4056.7575
  0
POINT
  8
0-8
 62
    2
 10
3238.3188
 20
4391.7566
  0
POINT
  8
0-8
 62
    2
 10
3238.3188
 20
4771.7569
  0
POINT
  8
0-8
 62
    2
 10
3238.3188
 20
4956.7568
  0
POINT
  8
0-8
 62
    2
 10
3238.3188
 20
4126.7575
  0
POINT
  8
0-8
 62
    2
 10
1464.9999
 20
3791.1501
  0
POINT
  8
0-8
 62
    2
 10
2735.0002
 20
3791.1501
  0
ENDSEC
  0
EOF
