  0
SECTION
  2
HEADER
  9
$EXTMIN
 10
0
 20
0
  9
$EXTMAX
 10
4200
 20
2970
  0
ENDSEC
  0
SECTION
  2
TABLES
  0
TABLE
  2
LTYPE
 70
     9
  0
LTYPE
  2
CONTINUOUS
 70
    64
  3
実線
 72
    65
 73
     0
 40
0.0
  0
LTYPE
  2
DASHED1
 70
    64
  3
--  --  --  --  --  --  --  --  
 72
    65
 73
     2
 40
2.5
 49
1.25
 49
-1.25
  0
LTYPE
  2
DASHED2
 70
    64
  3
----    ----    ----    ----    
 72
    65
 73
     2
 40
5.0
 49
2.5
 49
-2.5
  0
LTYPE
  2
DASHED3
 70
    64
  3
------  ------  ------  ------  
 72
    65
 73
     2
 40
5.0
 49
3.75
 49
-1.25
  0
LTYPE
  2
CENTER1
 70
    64
  3
----- - ----- - ----- - ----- - 
 72
    65
 73
     4
 40
10.0
 49
6.25
 49
-1.25
 49
1.25
 49
-1.25
  0
LTYPE
  2
CENTER2
 70
    64
  3
----------  --  ----------  --  
 72
    65
 73
     4
 40
20.0
 49
12.5
 49
-2.5
 49
2.5
 49
-2.5
  0
LTYPE
  2
PHANTOM1
 70
    64
  3
--- - - --- - - --- - - --- - - 
 72
    65
 73
     6
 40
10.0
 49
3.25
 49
-1.25
 49
1.25
 49
-1.25
 49
1.25
 49
-1.25
  0
LTYPE
  2
PHANTOM2
 70
    64
  3
--------  -  -  --------  -  -  
 72
    65
 73
     6
 40
20.0
 49
10.0
 49
-2.5
 49
1.25
 49
-2.5
 49
1.25
 49
-2.5
  0
LTYPE
  2
DOT
 70
    64
  3
-   -   -   -   -   -   -   -   
 72
    65
 73
     2
 40
2.5
 49
0.625
 49
-1.875
  0
ENDTAB
  0
TABLE
  2
STYLE
 70
    1
  0
STYLE
  2
STANDARD
 70
    64
 40
0.0
 41
1.0
 42
0.0
 50
0.0
 71
     0
  3
TXT
  4
BIGFONT
  0
ENDTAB
  0
TABLE
  2
LAYER
 70
    5
  0
LAYER
  2
0-1
 70
   64
 62
    7
  6
CONTINUOUS
  0
LAYER
  2
0-2
 70
   64
 62
    7
  6
CONTINUOUS
  0
LAYER
  2
0-8
 70
   64
 62
    7
  6
CONTINUOUS
  0
LAYER
  2
0-d
 70
   64
 62
    7
  6
CONTINUOUS
  0
LAYER
  2
ADD_LINE
 70
   64
 62
    7
  6
CONTINUOUS
  0
ENDTAB
  0
ENDSEC
  0
SECTION
  2
ENTITIES
  0
LINE
  8
0-d
  6
CONTINUOUS
 62
    7
 10
250.00006
 20
2757.7013
 11
1850.0001
 21
2757.7013
  0
LINE
  8
0-d
  6
CONTINUOUS
 62
    7
 10
250.00006
 20
2767.7016
 11
1850.0001
 21
2767.7016
  0
LINE
  8
0-d
  6
CONTINUOUS
 62
    7
 10
249.99969
 20
189.99989
 11
1850.0005
 21
189.99989
  0
LINE
  8
0-d
  6
CONTINUOUS
 62
    7
 10
249.99969
 20
89.999806
 11
249.99969
 21
269.99991
  0
LINE
  8
0-d
  6
CONTINUOUS
 62
    7
 10
249.99969
 20
89.999806
 11
1850.0005
 21
89.999806
  0
LINE
  8
0-d
  6
CONTINUOUS
 62
    7
 10
1850.0005
 20
269.99991
 11
1850.0005
 21
89.999806
  0
LINE
  8
0-d
  6
CONTINUOUS
 62
    7
 10
249.99969
 20
269.99991
 11
1850.0005
 21
269.99991
  0
LINE
  8
0-d
  6
CONTINUOUS
 62
    7
 10
1050
 20
269.99991
 11
1050
 21
89.999806
  0
LINE
  8
0-d
  6
CONTINUOUS
 62
    7
 10
650.00019
 20
89.999806
 11
650.00019
 21
189.99989
  0
LINE
  8
0-d
  6
CONTINUOUS
 62
    7
 10
1050
 20
189.99989
 11
1050
 21
269.99991
  0
LINE
  8
0-d
  6
CONTINUOUS
 62
    7
 10
849.99981
 20
89.999806
 11
849.99981
 21
189.99989
  0
LINE
  8
0-d
  6
CONTINUOUS
 62
    7
 10
285.00002
 20
89.999806
 11
285.00002
 21
189.99989
  0
LINE
  8
0-d
  6
CONTINUOUS
 62
    7
 10
685.00006
 20
89.999806
 11
685.00006
 21
189.99989
  0
LINE
  8
0-d
  6
CONTINUOUS
 62
    7
 10
885.00018
 20
89.999806
 11
885.00018
 21
189.99989
  0
LINE
  8
0-d
  6
CONTINUOUS
 62
    7
 10
1015
 20
189.99989
 11
1015
 21
269.99991
  0
LINE
  8
0-d
  6
CONTINUOUS
 62
    7
 10
1550.0004
 20
189.99989
 11
1550.0004
 21
269.99991
  0
LINE
  8
0-d
  6
CONTINUOUS
 62
    7
 10
1585.0002
 20
189.99989
 11
1585.0002
 21
269.99991
  0
LINE
  8
0-8
  6
CONTINUOUS
 62
    7
 10
538.6488
 20
2312.3658
 11
1558.6502
 21
2312.3658
  0
LINE
  8
0-8
  6
CONTINUOUS
 62
    7
 10
1558.6502
 20
2028.5263
 11
1558.6502
 21
2312.3658
  0
LINE
  8
0-8
  6
CONTINUOUS
 62
    7
 10
538.6488
 20
2312.3658
 11
538.6488
 21
2028.5263
  0
LINE
  8
0-2
  6
CONTINUOUS
 62
    3
 10
538.64979
 20
1350.9084
 11
538.6488
 21
1259.7668
  0
LINE
  8
0-2
  6
CONTINUOUS
 62
    3
 10
1558.6497
 20
1350.9084
 11
1558.6487
 21
1259.7668
  0
LINE
  8
0-2
  6
CONTINUOUS
 62
    3
 10
538.64831
 20
1865.9075
 11
1558.6497
 21
1865.9075
  0
LINE
  8
0-2
  6
CONTINUOUS
 62
    3
 10
538.64831
 20
1887.8376
 11
1558.6497
 21
1887.8376
  0
LINE
  8
0-2
  6
CONTINUOUS
 62
    3
 10
538.64831
 20
1865.9075
 11
538.64831
 21
1774.7667
  0
LINE
  8
0-2
  6
CONTINUOUS
 62
    3
 10
1558.6487
 20
1865.9075
 11
1558.6487
 21
1774.7667
  0
LINE
  8
0-2
  6
CONTINUOUS
 62
    3
 10
538.6488
 20
1237.8376
 11
638.64864
 21
1128.1886
  0
LINE
  8
0-2
  6
CONTINUOUS
 62
    3
 10
1048.6485
 20
2137.8376
 11
797.97862
 21
2003.2712
  0
LINE
  8
0-2
  6
CONTINUOUS
 62
    3
 10
1558.6487
 20
1887.8376
 11
1458.6489
 21
1997.4861
  0
LINE
  8
0-2
  6
CONTINUOUS
 62
    3
 10
538.64831
 20
1887.8376
 11
638.64864
 21
1997.4861
  0
LINE
  8
0-2
  6
CONTINUOUS
 62
    3
 10
959.8013
 20
1988.4239
 11
960.62429
 21
1988.6644
  0
LINE
  8
0-2
  6
CONTINUOUS
 62
    3
 10
960.62429
 20
1988.6644
 11
961.39778
 21
1988.994
  0
LINE
  8
0-2
  6
CONTINUOUS
 62
    3
 10
961.39778
 20
1988.994
 11
962.1213
 21
1989.4027
  0
LINE
  8
0-2
  6
CONTINUOUS
 62
    3
 10
962.1213
 20
1989.4027
 11
962.79681
 21
1989.8867
  0
LINE
  8
0-2
  6
CONTINUOUS
 62
    3
 10
962.79681
 20
1989.8867
 11
963.42481
 21
1990.4405
  0
LINE
  8
0-2
  6
CONTINUOUS
 62
    3
 10
963.42481
 20
1990.4405
 11
964.00629
 21
1991.0561
  0
LINE
  8
0-2
  6
CONTINUOUS
 62
    3
 10
964.00629
 20
1991.0561
 11
964.54225
 21
1991.7267
  0
LINE
  8
0-2
  6
CONTINUOUS
 62
    3
 10
964.54225
 20
1991.7267
 11
965.03366
 21
1992.4492
  0
LINE
  8
0-2
  6
CONTINUOUS
 62
    3
 10
965.03366
 20
1992.4492
 11
965.48153
 21
1993.2143
  0
LINE
  8
0-2
  6
CONTINUOUS
 62
    3
 10
965.48153
 20
1993.2143
 11
965.88634
 21
1994.018
  0
LINE
  8
0-2
  6
CONTINUOUS
 62
    3
 10
965.88634
 20
1994.018
 11
966.2481
 21
1994.8533
  0
LINE
  8
0-2
  6
CONTINUOUS
 62
    3
 10
966.2481
 20
1994.8533
 11
966.57026
 21
1995.7134
  0
LINE
  8
0-2
  6
CONTINUOUS
 62
    3
 10
966.57026
 20
1995.7134
 11
966.85136
 21
1996.5938
  0
LINE
  8
0-2
  6
CONTINUOUS
 62
    3
 10
966.85136
 20
1996.5938
 11
967.09335
 21
1997.4861
  0
LINE
  8
0-2
  6
CONTINUOUS
 62
    3
 10
955.28057
 20
1988.3754
 11
954.32892
 21
1988.7109
  0
LINE
  8
0-2
  6
CONTINUOUS
 62
    3
 10
954.32892
 20
1988.7109
 11
953.43616
 21
1989.1068
  0
LINE
  8
0-2
  6
CONTINUOUS
 62
    3
 10
953.43616
 20
1989.1068
 11
952.6008
 21
1989.5606
  0
LINE
  8
0-2
  6
CONTINUOUS
 62
    3
 10
952.6008
 20
1989.5606
 11
951.82334
 21
1990.0693
  0
LINE
  8
0-2
  6
CONTINUOUS
 62
    3
 10
951.82334
 20
1990.0693
 11
951.1028
 21
1990.6291
  0
LINE
  8
0-2
  6
CONTINUOUS
 62
    3
 10
951.1028
 20
1990.6291
 11
950.43818
 21
1991.2378
  0
LINE
  8
0-2
  6
CONTINUOUS
 62
    3
 10
950.43818
 20
1991.2378
 11
949.82947
 21
1991.8925
  0
LINE
  8
0-2
  6
CONTINUOUS
 62
    3
 10
949.82947
 20
1991.8925
 11
949.2762
 21
1992.5893
  0
LINE
  8
0-2
  6
CONTINUOUS
 62
    3
 10
949.2762
 20
1992.5893
 11
948.77637
 21
1993.3252
  0
LINE
  8
0-2
  6
CONTINUOUS
 62
    3
 10
948.77637
 20
1993.3252
 11
948.33098
 21
1994.0972
  0
LINE
  8
0-2
  6
CONTINUOUS
 62
    3
 10
948.33098
 20
1994.0972
 11
947.93903
 21
1994.9028
  0
LINE
  8
0-2
  6
CONTINUOUS
 62
    3
 10
947.93903
 20
1994.9028
 11
947.59856
 21
1995.7372
  0
LINE
  8
0-2
  6
CONTINUOUS
 62
    3
 10
947.59856
 20
1995.7372
 11
947.31054
 21
1996.6003
  0
LINE
  8
0-2
  6
CONTINUOUS
 62
    3
 10
947.31054
 20
1996.6003
 11
947.07349
 21
1997.4861
  0
LINE
  8
0-2
  6
CONTINUOUS
 62
    3
 10
907.81568
 20
1997.4861
 11
906.89371
 21
1996.0148
  0
LINE
  8
0-2
  6
CONTINUOUS
 62
    3
 10
906.89371
 20
1996.0148
 11
905.96087
 21
1994.7059
  0
LINE
  8
0-2
  6
CONTINUOUS
 62
    3
 10
905.96087
 20
1994.7059
 11
905.02158
 21
1993.5498
  0
LINE
  8
0-2
  6
CONTINUOUS
 62
    3
 10
905.02158
 20
1993.5498
 11
904.07834
 21
1992.5383
  0
LINE
  8
0-2
  6
CONTINUOUS
 62
    3
 10
904.07834
 20
1992.5383
 11
903.1356
 21
1991.6619
  0
LINE
  8
0-2
  6
CONTINUOUS
 62
    3
 10
903.1356
 20
1991.6619
 11
902.19681
 21
1990.9126
  0
LINE
  8
0-2
  6
CONTINUOUS
 62
    3
 10
902.19681
 20
1990.9126
 11
901.26594
 21
1990.2807
  0
LINE
  8
0-2
  6
CONTINUOUS
 62
    3
 10
901.26594
 20
1990.2807
 11
900.34596
 21
1989.7561
  0
LINE
  8
0-2
  6
CONTINUOUS
 62
    3
 10
900.34596
 20
1989.7561
 11
899.44083
 21
1989.3305
  0
LINE
  8
0-2
  6
CONTINUOUS
 62
    3
 10
899.44083
 20
1989.3305
 11
898.5545
 21
1988.9959
  0
LINE
  8
0-2
  6
CONTINUOUS
 62
    3
 10
898.5545
 20
1988.9959
 11
897.69093
 21
1988.7421
  0
LINE
  8
0-2
  6
CONTINUOUS
 62
    3
 10
897.69093
 20
1988.7421
 11
896.85261
 21
1988.5595
  0
LINE
  8
0-2
  6
CONTINUOUS
 62
    3
 10
896.85261
 20
1988.5595
 11
896.04397
 21
1988.4402
  0
LINE
  8
0-2
  6
CONTINUOUS
 62
    3
 10
896.04397
 20
1988.4402
 11
895.26899
 21
1988.3754
  0
LINE
  8
0-2
  6
CONTINUOUS
 62
    3
 10
888.67225
 20
1997.4861
 11
888.69946
 21
1996.4281
  0
LINE
  8
0-2
  6
CONTINUOUS
 62
    3
 10
888.69946
 20
1996.4281
 11
888.7831
 21
1995.4492
  0
LINE
  8
0-2
  6
CONTINUOUS
 62
    3
 10
888.7831
 20
1995.4492
 11
888.92513
 21
1994.547
  0
LINE
  8
0-2
  6
CONTINUOUS
 62
    3
 10
888.92513
 20
1994.547
 11
889.12951
 21
1993.7156
  0
LINE
  8
0-2
  6
CONTINUOUS
 62
    3
 10
889.12951
 20
1993.7156
 11
889.39873
 21
1992.952
  0
LINE
  8
0-2
  6
CONTINUOUS
 62
    3
 10
889.39873
 20
1992.952
 11
889.73648
 21
1992.2518
  0
LINE
  8
0-2
  6
CONTINUOUS
 62
    3
 10
889.73648
 20
1992.2518
 11
890.14575
 21
1991.6094
  0
LINE
  8
0-2
  6
CONTINUOUS
 62
    3
 10
890.14575
 20
1991.6094
 11
890.62925
 21
1991.0205
  0
LINE
  8
0-2
  6
CONTINUOUS
 62
    3
 10
890.62925
 20
1991.0205
 11
891.19019
 21
1990.4816
  0
LINE
  8
0-2
  6
CONTINUOUS
 62
    3
 10
891.19019
 20
1990.4816
 11
891.83205
 21
1989.9877
  0
LINE
  8
0-2
  6
CONTINUOUS
 62
    3
 10
891.83205
 20
1989.9877
 11
892.55804
 21
1989.5344
  0
LINE
  8
0-2
  6
CONTINUOUS
 62
    3
 10
892.55804
 20
1989.5344
 11
893.37014
 21
1989.1177
  0
LINE
  8
0-2
  6
CONTINUOUS
 62
    3
 10
893.37014
 20
1989.1177
 11
894.27329
 21
1988.7317
  0
LINE
  8
0-2
  6
CONTINUOUS
 62
    3
 10
894.27329
 20
1988.7317
 11
895.26899
 21
1988.3754
  0
LINE
  8
0-2
  6
CONTINUOUS
 62
    3
 10
833.73367
 20
1997.4861
 11
834.20381
 21
1996.243
  0
LINE
  8
0-2
  6
CONTINUOUS
 62
    3
 10
834.20381
 20
1996.243
 11
834.69374
 21
1995.1146
  0
LINE
  8
0-2
  6
CONTINUOUS
 62
    3
 10
834.69374
 20
1995.1146
 11
835.20198
 21
1994.0972
  0
LINE
  8
0-2
  6
CONTINUOUS
 62
    3
 10
835.20198
 20
1994.0972
 11
835.72952
 21
1993.1826
  0
LINE
  8
0-2
  6
CONTINUOUS
 62
    3
 10
835.72952
 20
1993.1826
 11
836.27488
 21
1992.3681
  0
LINE
  8
0-2
  6
CONTINUOUS
 62
    3
 10
836.27488
 20
1992.3681
 11
836.83805
 21
1991.647
  0
LINE
  8
0-2
  6
CONTINUOUS
 62
    3
 10
836.83805
 20
1991.647
 11
837.41756
 21
1991.0131
  0
LINE
  8
0-2
  6
CONTINUOUS
 62
    3
 10
837.41756
 20
1991.0131
 11
838.01438
 21
1990.4623
  0
LINE
  8
0-2
  6
CONTINUOUS
 62
    3
 10
838.01438
 20
1990.4623
 11
838.6268
 21
1989.9867
  0
LINE
  8
0-2
  6
CONTINUOUS
 62
    3
 10
838.6268
 20
1989.9867
 11
839.25505
 21
1989.5839
  0
LINE
  8
0-2
  6
CONTINUOUS
 62
    3
 10
839.25505
 20
1989.5839
 11
839.89888
 21
1989.2454
  0
LINE
  8
0-2
  6
CONTINUOUS
 62
    3
 10
839.89888
 20
1989.2454
 11
840.55683
 21
1988.9677
  0
LINE
  8
0-2
  6
CONTINUOUS
 62
    3
 10
840.55683
 20
1988.9677
 11
841.22912
 21
1988.7436
  0
LINE
  8
0-2
  6
CONTINUOUS
 62
    3
 10
841.22912
 20
1988.7436
 11
841.91502
 21
1988.5694
  0
LINE
  8
0-2
  6
CONTINUOUS
 62
    3
 10
843.42342
 20
1988.5694
 11
844.13901
 21
1988.7178
  0
LINE
  8
0-2
  6
CONTINUOUS
 62
    3
 10
844.13901
 20
1988.7178
 11
844.84867
 21
1988.9559
  0
LINE
  8
0-2
  6
CONTINUOUS
 62
    3
 10
844.84867
 20
1988.9559
 11
845.55239
 21
1989.28
  0
LINE
  8
0-2
  6
CONTINUOUS
 62
    3
 10
845.55239
 20
1989.28
 11
846.25042
 21
1989.6937
  0
LINE
  8
0-2
  6
CONTINUOUS
 62
    3
 10
846.25042
 20
1989.6937
 11
846.94251
 21
1990.1936
  0
LINE
  8
0-2
  6
CONTINUOUS
 62
    3
 10
846.94251
 20
1990.1936
 11
847.6289
 21
1990.7825
  0
LINE
  8
0-2
  6
CONTINUOUS
 62
    3
 10
847.6289
 20
1990.7825
 11
848.30936
 21
1991.4595
  0
LINE
  8
0-2
  6
CONTINUOUS
 62
    3
 10
848.30936
 20
1991.4595
 11
848.98438
 21
1992.2245
  0
LINE
  8
0-2
  6
CONTINUOUS
 62
    3
 10
848.98438
 20
1992.2245
 11
849.65321
 21
1993.0767
  0
LINE
  8
0-2
  6
CONTINUOUS
 62
    3
 10
783.44722
 20
1997.4861
 11
783.58356
 21
1996.5379
  0
LINE
  8
0-2
  6
CONTINUOUS
 62
    3
 10
783.58356
 20
1996.5379
 11
783.77656
 21
1995.656
  0
LINE
  8
0-2
  6
CONTINUOUS
 62
    3
 10
783.77656
 20
1995.656
 11
784.02202
 21
1994.8365
  0
LINE
  8
0-2
  6
CONTINUOUS
 62
    3
 10
784.02202
 20
1994.8365
 11
784.31598
 21
1994.0774
  0
LINE
  8
0-2
  6
CONTINUOUS
 62
    3
 10
784.31598
 20
1994.0774
 11
784.65299
 21
1993.3746
  0
LINE
  8
0-2
  6
CONTINUOUS
 62
    3
 10
784.65299
 20
1993.3746
 11
785.03059
 21
1992.7283
  0
LINE
  8
0-2
  6
CONTINUOUS
 62
    3
 10
785.03059
 20
1992.7283
 11
785.44381
 21
1992.1345
  0
LINE
  8
0-2
  6
CONTINUOUS
 62
    3
 10
785.44381
 20
1992.1345
 11
785.88945
 21
1991.5921
  0
LINE
  8
0-2
  6
CONTINUOUS
 62
    3
 10
785.88945
 20
1991.5921
 11
786.36429
 21
1991.0982
  0
LINE
  8
0-2
  6
CONTINUOUS
 62
    3
 10
786.36429
 20
1991.0982
 11
786.8651
 21
1990.6518
  0
LINE
  8
0-2
  6
CONTINUOUS
 62
    3
 10
786.8651
 20
1990.6518
 11
787.38869
 21
1990.252
  0
LINE
  8
0-2
  6
CONTINUOUS
 62
    3
 10
787.38869
 20
1990.252
 11
787.93355
 21
1989.8966
  0
LINE
  8
0-2
  6
CONTINUOUS
 62
    3
 10
787.93355
 20
1989.8966
 11
788.49524
 21
1989.5839
  0
LINE
  8
0-2
  6
CONTINUOUS
 62
    3
 10
788.49524
 20
1989.5839
 11
789.07375
 21
1989.3142
  0
LINE
  8
0-2
  6
CONTINUOUS
 62
    3
 10
789.07375
 20
1989.3142
 11
789.66513
 21
1989.085
  0
LINE
  8
0-2
  6
CONTINUOUS
 62
    3
 10
789.66513
 20
1989.085
 11
790.26913
 21
1988.896
  0
LINE
  8
0-2
  6
CONTINUOUS
 62
    3
 10
790.26913
 20
1988.896
 11
790.88353
 21
1988.7475
  0
LINE
  8
0-2
  6
CONTINUOUS
 62
    3
 10
790.88353
 20
1988.7475
 11
791.50658
 21
1988.6396
  0
LINE
  8
0-2
  6
CONTINUOUS
 62
    3
 10
791.50658
 20
1988.6396
 11
792.13805
 21
1988.5694
  0
LINE
  8
0-2
  6
CONTINUOUS
 62
    3
 10
792.2974
 20
1988.5778
 11
792.65322
 21
1988.6159
  0
LINE
  8
0-2
  6
CONTINUOUS
 62
    3
 10
792.65322
 20
1988.6159
 11
793.00235
 21
1988.6713
  0
LINE
  8
0-2
  6
CONTINUOUS
 62
    3
 10
793.00235
 20
1988.6713
 11
793.3458
 21
1988.7436
  0
LINE
  8
0-2
  6
CONTINUOUS
 62
    3
 10
793.3458
 20
1988.7436
 11
793.68257
 21
1988.8331
  0
LINE
  8
0-2
  6
CONTINUOUS
 62
    3
 10
793.68257
 20
1988.8331
 11
794.01389
 21
1988.9385
  0
LINE
  8
0-2
  6
CONTINUOUS
 62
    3
 10
794.01389
 20
1988.9385
 11
794.33878
 21
1989.0613
  0
LINE
  8
0-2
  6
CONTINUOUS
 62
    3
 10
794.33878
 20
1989.0613
 11
794.65748
 21
1989.2003
  0
LINE
  8
0-2
  6
CONTINUOUS
 62
    3
 10
794.65748
 20
1989.2003
 11
794.96975
 21
1989.3567
  0
LINE
  8
0-2
  6
CONTINUOUS
 62
    3
 10
794.96975
 20
1989.3567
 11
795.27657
 21
1989.5299
  0
LINE
  8
0-2
  6
CONTINUOUS
 62
    3
 10
648.61008
 20
1997.4861
 11
648.73182
 21
1996.4894
  0
LINE
  8
0-2
  6
CONTINUOUS
 62
    3
 10
648.73182
 20
1996.4894
 11
648.86049
 21
1995.5778
  0
LINE
  8
0-2
  6
CONTINUOUS
 62
    3
 10
648.86049
 20
1995.5778
 11
648.99658
 21
1994.7534
  0
LINE
  8
0-2
  6
CONTINUOUS
 62
    3
 10
648.99658
 20
1994.7534
 11
649.13935
 21
1994.0135
  0
LINE
  8
0-2
  6
CONTINUOUS
 62
    3
 10
649.13935
 20
1994.0135
 11
649.2893
 21
1993.3608
  0
LINE
  8
0-2
  6
CONTINUOUS
 62
    3
 10
649.2893
 20
1993.3608
 11
649.44642
 21
1992.7937
  0
LINE
  8
0-2
  6
CONTINUOUS
 62
    3
 10
649.44642
 20
1992.7937
 11
649.61023
 21
1992.3126
  0
LINE
  8
0-2
  6
CONTINUOUS
 62
    3
 10
649.61023
 20
1992.3126
 11
649.78195
 21
1991.9177
  0
LINE
  8
0-2
  6
CONTINUOUS
 62
    3
 10
649.78195
 20
1991.9177
 11
649.96011
 21
1991.6094
  0
LINE
  8
0-2
  6
CONTINUOUS
 62
    3
 10
670.74555
 20
1997.4861
 11
670.81335
 21
1996.6973
  0
LINE
  8
0-2
  6
CONTINUOUS
 62
    3
 10
670.81335
 20
1996.6973
 11
670.9247
 21
1995.951
  0
LINE
  8
0-2
  6
CONTINUOUS
 62
    3
 10
670.9247
 20
1995.951
 11
671.0744
 21
1995.2468
  0
LINE
  8
0-2
  6
CONTINUOUS
 62
    3
 10
671.0744
 20
1995.2468
 11
671.25998
 21
1994.5861
  0
LINE
  8
0-2
  6
CONTINUOUS
 62
    3
 10
671.25998
 20
1994.5861
 11
671.47599
 21
1993.9695
  0
LINE
  8
0-2
  6
CONTINUOUS
 62
    3
 10
671.47599
 20
1993.9695
 11
671.71848
 21
1993.3964
  0
LINE
  8
0-2
  6
CONTINUOUS
 62
    3
 10
671.71848
 20
1993.3964
 11
671.98324
 21
1992.8669
  0
LINE
  8
0-2
  6
CONTINUOUS
 62
    3
 10
671.98324
 20
1992.8669
 11
672.26532
 21
1992.3824
  0
LINE
  8
0-2
  6
CONTINUOUS
 62
    3
 10
672.26532
 20
1992.3824
 11
672.56077
 21
1991.9415
  0
LINE
  8
0-2
  6
CONTINUOUS
 62
    3
 10
672.56077
 20
1991.9415
 11
672.86512
 21
1991.5456
  0
LINE
  8
0-2
  6
CONTINUOUS
 62
    3
 10
672.86512
 20
1991.5456
 11
673.17417
 21
1991.1952
  0
LINE
  8
0-2
  6
CONTINUOUS
 62
    3
 10
673.17417
 20
1991.1952
 11
673.48421
 21
1990.8894
  0
LINE
  8
0-2
  6
CONTINUOUS
 62
    3
 10
673.48421
 20
1990.8894
 11
673.79005
 21
1990.6291
  0
LINE
  8
0-2
  6
CONTINUOUS
 62
    3
 10
673.79005
 20
1990.6291
 11
674.08747
 21
1990.4133
  0
LINE
  8
0-2
  6
CONTINUOUS
 62
    3
 10
701.06212
 20
1997.4861
 11
701.2628
 21
1996.6077
  0
LINE
  8
0-2
  6
CONTINUOUS
 62
    3
 10
701.2628
 20
1996.6077
 11
701.50752
 21
1995.7852
  0
LINE
  8
0-2
  6
CONTINUOUS
 62
    3
 10
701.50752
 20
1995.7852
 11
701.7943
 21
1995.0171
  0
LINE
  8
0-2
  6
CONTINUOUS
 62
    3
 10
701.7943
 20
1995.0171
 11
702.12141
 21
1994.305
  0
LINE
  8
0-2
  6
CONTINUOUS
 62
    3
 10
702.12141
 20
1994.305
 11
702.48664
 21
1993.6468
  0
LINE
  8
0-2
  6
CONTINUOUS
 62
    3
 10
702.48664
 20
1993.6468
 11
702.88798
 21
1993.0431
  0
LINE
  8
0-2
  6
CONTINUOUS
 62
    3
 10
702.88798
 20
1993.0431
 11
703.32447
 21
1992.4938
  0
LINE
  8
0-2
  6
CONTINUOUS
 62
    3
 10
703.32447
 20
1992.4938
 11
703.7946
 21
1991.9969
  0
LINE
  8
0-2
  6
CONTINUOUS
 62
    3
 10
703.7946
 20
1991.9969
 11
704.29592
 21
1991.5535
  0
LINE
  8
0-2
  6
CONTINUOUS
 62
    3
 10
704.29592
 20
1991.5535
 11
704.82692
 21
1991.162
  0
LINE
  8
0-2
  6
CONTINUOUS
 62
    3
 10
704.82692
 20
1991.162
 11
705.38564
 21
1990.823
  0
LINE
  8
0-2
  6
CONTINUOUS
 62
    3
 10
705.38564
 20
1990.823
 11
705.97059
 21
1990.536
  0
LINE
  8
0-2
  6
CONTINUOUS
 62
    3
 10
705.97059
 20
1990.536
 11
706.57979
 21
1990.3005
  0
LINE
  8
0-2
  6
CONTINUOUS
 62
    3
 10
706.57979
 20
1990.3005
 11
707.21175
 21
1990.1154
  0
LINE
  8
0-2
  6
CONTINUOUS
 62
    3
 10
738.88504
 20
1997.4861
 11
739.18889
 21
1996.5656
  0
LINE
  8
0-2
  6
CONTINUOUS
 62
    3
 10
739.18889
 20
1996.5656
 11
739.54521
 21
1995.7115
  0
LINE
  8
0-2
  6
CONTINUOUS
 62
    3
 10
739.54521
 20
1995.7115
 11
739.94903
 21
1994.9251
  0
LINE
  8
0-2
  6
CONTINUOUS
 62
    3
 10
739.94903
 20
1994.9251
 11
740.3964
 21
1994.206
  0
LINE
  8
0-2
  6
CONTINUOUS
 62
    3
 10
740.3964
 20
1994.206
 11
740.88286
 21
1993.5558
  0
LINE
  8
0-2
  6
CONTINUOUS
 62
    3
 10
740.88286
 20
1993.5558
 11
741.40397
 21
1992.9728
  0
LINE
  8
0-2
  6
CONTINUOUS
 62
    3
 10
741.40397
 20
1992.9728
 11
741.95477
 21
1992.4561
  0
LINE
  8
0-2
  6
CONTINUOUS
 62
    3
 10
741.95477
 20
1992.4561
 11
742.53081
 21
1992.0058
  0
LINE
  8
0-2
  6
CONTINUOUS
 62
    3
 10
742.53081
 20
1992.0058
 11
743.12764
 21
1991.6213
  0
LINE
  8
0-2
  6
CONTINUOUS
 62
    3
 10
743.12764
 20
1991.6213
 11
743.73931
 21
1991.3016
  0
LINE
  8
0-2
  6
CONTINUOUS
 62
    3
 10
743.73931
 20
1991.3016
 11
744.36137
 21
1991.0448
  0
LINE
  8
0-2
  6
CONTINUOUS
 62
    3
 10
744.36137
 20
1991.0448
 11
744.98888
 21
1990.8488
  0
LINE
  8
0-2
  6
CONTINUOUS
 62
    3
 10
744.98888
 20
1990.8488
 11
745.61589
 21
1990.7127
  0
LINE
  8
0-2
  6
CONTINUOUS
 62
    3
 10
745.61589
 20
1990.7127
 11
746.23746
 21
1990.635
  0
LINE
  8
0-2
  6
CONTINUOUS
 62
    3
 10
746.23746
 20
1990.635
 11
746.84765
 21
1990.6107
  0
LINE
  8
0-2
  6
CONTINUOUS
 62
    3
 10
746.84765
 20
1990.6107
 11
747.44052
 21
1990.6399
  0
LINE
  8
0-2
  6
CONTINUOUS
 62
    3
 10
747.44052
 20
1990.6399
 11
748.01111
 21
1990.7181
  0
LINE
  8
0-2
  6
CONTINUOUS
 62
    3
 10
748.01111
 20
1990.7181
 11
748.553
 21
1990.8428
  0
LINE
  8
0-2
  6
CONTINUOUS
 62
    3
 10
748.553
 20
1990.8428
 11
749.06026
 21
1991.0111
  0
LINE
  8
0-2
  6
CONTINUOUS
 62
    3
 10
648.61008
 20
1997.4861
 11
638.64864
 21
1997.4861
  0
LINE
  8
0-2
  6
CONTINUOUS
 62
    3
 10
551.0396
 20
1887.8376
 11
648.61008
 21
1997.4861
  0
LINE
  8
0-2
  6
CONTINUOUS
 62
    3
 10
655.04623
 20
1997.4861
 11
559.04576
 21
1887.8376
  0
LINE
  8
0-2
  6
CONTINUOUS
 62
    3
 10
578.57421
 20
1887.8376
 11
670.74555
 21
1997.4861
  0
LINE
  8
0-2
  6
CONTINUOUS
 62
    3
 10
670.74555
 20
1997.4861
 11
655.04623
 21
1997.4861
  0
LINE
  8
0-2
  6
CONTINUOUS
 62
    3
 10
679.9711
 20
1997.4861
 11
590.04948
 21
1887.8376
  0
LINE
  8
0-2
  6
CONTINUOUS
 62
    3
 10
701.06212
 20
1997.4861
 11
679.9711
 21
1997.4861
  0
LINE
  8
0-2
  6
CONTINUOUS
 62
    3
 10
616.28454
 20
1887.8376
 11
701.06212
 21
1997.4861
  0
LINE
  8
0-2
  6
CONTINUOUS
 62
    3
 10
712.87663
 20
1997.4861
 11
630.98048
 21
1887.8376
  0
LINE
  8
0-2
  6
CONTINUOUS
 62
    3
 10
738.90186
 20
1997.4861
 11
712.87663
 21
1997.4861
  0
LINE
  8
0-2
  6
CONTINUOUS
 62
    3
 10
663.35403
 20
1887.8376
 11
738.90186
 21
1997.4861
  0
LINE
  8
0-2
  6
CONTINUOUS
 62
    3
 10
753.05047
 20
1997.4861
 11
680.95343
 21
1887.8376
  0
LINE
  8
0-2
  6
CONTINUOUS
 62
    3
 10
783.44722
 20
1997.4861
 11
753.05047
 21
1997.4861
  0
LINE
  8
0-2
  6
CONTINUOUS
 62
    3
 10
718.76422
 20
1887.8376
 11
783.44722
 21
1997.4861
  0
LINE
  8
0-2
  6
CONTINUOUS
 62
    3
 10
799.6231
 20
1997.4861
 11
738.88504
 21
1887.8376
  0
LINE
  8
0-2
  6
CONTINUOUS
 62
    3
 10
833.73367
 20
1997.4861
 11
799.6231
 21
1997.4861
  0
LINE
  8
0-2
  6
CONTINUOUS
 62
    3
 10
781.31552
 20
1887.8376
 11
833.73367
 21
1997.4861
  0
LINE
  8
0-2
  6
CONTINUOUS
 62
    3
 10
851.58646
 20
1997.4861
 11
803.52226
 21
1887.8376
  0
LINE
  8
0-2
  6
CONTINUOUS
 62
    3
 10
888.67225
 20
1997.4861
 11
851.58646
 21
1997.4861
  0
LINE
  8
0-2
  6
CONTINUOUS
 62
    3
 10
849.65321
 20
1887.8376
 11
888.67225
 21
1997.4861
  0
LINE
  8
0-2
  6
CONTINUOUS
 62
    3
 10
873.46558
 20
1887.8376
 11
907.81568
 21
1997.4861
  0
LINE
  8
0-2
  6
CONTINUOUS
 62
    3
 10
947.07349
 20
1997.4861
 11
907.81568
 21
1997.4861
  0
LINE
  8
0-2
  6
CONTINUOUS
 62
    3
 10
947.07349
 20
1997.4861
 11
922.29882
 21
1887.8376
  0
LINE
  8
0-2
  6
CONTINUOUS
 62
    3
 10
947.20166
 20
1887.8376
 11
967.09335
 21
1997.4861
  0
LINE
  8
0-2
  6
CONTINUOUS
 62
    3
 10
1007.6739
 20
1997.4861
 11
967.09335
 21
1997.4861
  0
LINE
  8
0-2
  6
CONTINUOUS
 62
    3
 10
1007.6739
 20
1997.4861
 11
997.67989
 21
1887.8376
  0
LINE
  8
0-2
  6
CONTINUOUS
 62
    3
 10
1028.1367
 20
1997.4861
 11
1023.1335
 21
1887.8376
  0
LINE
  8
0-2
  6
CONTINUOUS
 62
    3
 10
1048.6485
 20
1997.4861
 11
1028.1367
 21
1997.4861
  0
LINE
  8
0-2
  6
CONTINUOUS
 62
    3
 10
1558.6487
 20
1887.8376
 11
1458.6489
 21
1997.4861
  0
LINE
  8
0-2
  6
CONTINUOUS
 62
    3
 10
1448.6874
 20
1997.4861
 11
1448.5657
 21
1996.4894
  0
LINE
  8
0-2
  6
CONTINUOUS
 62
    3
 10
1448.5657
 20
1996.4894
 11
1448.4365
 21
1995.5778
  0
LINE
  8
0-2
  6
CONTINUOUS
 62
    3
 10
1448.4365
 20
1995.5778
 11
1448.3009
 21
1994.7534
  0
LINE
  8
0-2
  6
CONTINUOUS
 62
    3
 10
1448.3009
 20
1994.7534
 11
1448.1579
 21
1994.0135
  0
LINE
  8
0-2
  6
CONTINUOUS
 62
    3
 10
1448.1579
 20
1994.0135
 11
1448.0075
 21
1993.3608
  0
LINE
  8
0-2
  6
CONTINUOUS
 62
    3
 10
1448.0075
 20
1993.3608
 11
1447.8511
 21
1992.7937
  0
LINE
  8
0-2
  6
CONTINUOUS
 62
    3
 10
1447.8511
 20
1992.7937
 11
1447.6868
 21
1992.3126
  0
LINE
  8
0-2
  6
CONTINUOUS
 62
    3
 10
1447.6868
 20
1992.3126
 11
1447.5156
 21
1991.9177
  0
LINE
  8
0-2
  6
CONTINUOUS
 62
    3
 10
1447.5156
 20
1991.9177
 11
1447.3369
 21
1991.6094
  0
LINE
  8
0-2
  6
CONTINUOUS
 62
    3
 10
1426.5515
 20
1997.4861
 11
1426.4837
 21
1996.6973
  0
LINE
  8
0-2
  6
CONTINUOUS
 62
    3
 10
1426.4837
 20
1996.6973
 11
1426.3728
 21
1995.951
  0
LINE
  8
0-2
  6
CONTINUOUS
 62
    3
 10
1426.3728
 20
1995.951
 11
1426.2224
 21
1995.2468
  0
LINE
  8
0-2
  6
CONTINUOUS
 62
    3
 10
1426.2224
 20
1995.2468
 11
1426.0373
 21
1994.5861
  0
LINE
  8
0-2
  6
CONTINUOUS
 62
    3
 10
1426.0373
 20
1994.5861
 11
1425.821
 21
1993.9695
  0
LINE
  8
0-2
  6
CONTINUOUS
 62
    3
 10
1425.821
 20
1993.9695
 11
1425.579
 21
1993.3964
  0
LINE
  8
0-2
  6
CONTINUOUS
 62
    3
 10
1425.579
 20
1993.3964
 11
1425.3143
 21
1992.8669
  0
LINE
  8
0-2
  6
CONTINUOUS
 62
    3
 10
1425.3143
 20
1992.8669
 11
1425.0317
 21
1992.3824
  0
LINE
  8
0-2
  6
CONTINUOUS
 62
    3
 10
1425.0317
 20
1992.3824
 11
1424.7363
 21
1991.9415
  0
LINE
  8
0-2
  6
CONTINUOUS
 62
    3
 10
1424.7363
 20
1991.9415
 11
1424.4324
 21
1991.5456
  0
LINE
  8
0-2
  6
CONTINUOUS
 62
    3
 10
1424.4324
 20
1991.5456
 11
1424.1226
 21
1991.1952
  0
LINE
  8
0-2
  6
CONTINUOUS
 62
    3
 10
1424.1226
 20
1991.1952
 11
1423.8133
 21
1990.8894
  0
LINE
  8
0-2
  6
CONTINUOUS
 62
    3
 10
1423.8133
 20
1990.8894
 11
1423.5075
 21
1990.6291
  0
LINE
  8
0-2
  6
CONTINUOUS
 62
    3
 10
1423.5075
 20
1990.6291
 11
1423.21
 21
1990.4133
  0
LINE
  8
0-2
  6
CONTINUOUS
 62
    3
 10
1396.2346
 20
1997.4861
 11
1396.0342
 21
1996.6077
  0
LINE
  8
0-2
  6
CONTINUOUS
 62
    3
 10
1396.0342
 20
1996.6077
 11
1395.7893
 21
1995.7852
  0
LINE
  8
0-2
  6
CONTINUOUS
 62
    3
 10
1395.7893
 20
1995.7852
 11
1395.5032
 21
1995.0171
  0
LINE
  8
0-2
  6
CONTINUOUS
 62
    3
 10
1395.5032
 20
1995.0171
 11
1395.1766
 21
1994.305
  0
LINE
  8
0-2
  6
CONTINUOUS
 62
    3
 10
1395.1766
 20
1994.305
 11
1394.8109
 21
1993.6468
  0
LINE
  8
0-2
  6
CONTINUOUS
 62
    3
 10
1394.8109
 20
1993.6468
 11
1394.409
 21
1993.0431
  0
LINE
  8
0-2
  6
CONTINUOUS
 62
    3
 10
1394.409
 20
1993.0431
 11
1393.9726
 21
1992.4938
  0
LINE
  8
0-2
  6
CONTINUOUS
 62
    3
 10
1393.9726
 20
1992.4938
 11
1393.5024
 21
1991.9969
  0
LINE
  8
0-2
  6
CONTINUOUS
 62
    3
 10
1393.5024
 20
1991.9969
 11
1393.0016
 21
1991.5535
  0
LINE
  8
0-2
  6
CONTINUOUS
 62
    3
 10
1393.0016
 20
1991.5535
 11
1392.4706
 21
1991.162
  0
LINE
  8
0-2
  6
CONTINUOUS
 62
    3
 10
1392.4706
 20
1991.162
 11
1391.9119
 21
1990.823
  0
LINE
  8
0-2
  6
CONTINUOUS
 62
    3
 10
1391.9119
 20
1990.823
 11
1391.3264
 21
1990.536
  0
LINE
  8
0-2
  6
CONTINUOUS
 62
    3
 10
1391.3264
 20
1990.536
 11
1390.7172
 21
1990.3005
  0
LINE
  8
0-2
  6
CONTINUOUS
 62
    3
 10
1390.7172
 20
1990.3005
 11
1390.0853
 21
1990.1154
  0
LINE
  8
0-2
  6
CONTINUOUS
 62
    3
 10
1358.4125
 20
1997.4861
 11
1358.1086
 21
1996.5656
  0
LINE
  8
0-2
  6
CONTINUOUS
 62
    3
 10
1358.1086
 20
1996.5656
 11
1357.7523
 21
1995.7115
  0
LINE
  8
0-2
  6
CONTINUOUS
 62
    3
 10
1357.7523
 20
1995.7115
 11
1357.348
 21
1994.9251
  0
LINE
  8
0-2
  6
CONTINUOUS
 62
    3
 10
1357.348
 20
1994.9251
 11
1356.9011
 21
1994.206
  0
LINE
  8
0-2
  6
CONTINUOUS
 62
    3
 10
1356.9011
 20
1994.206
 11
1356.4142
 21
1993.5558
  0
LINE
  8
0-2
  6
CONTINUOUS
 62
    3
 10
1356.4142
 20
1993.5558
 11
1355.8935
 21
1992.9728
  0
LINE
  8
0-2
  6
CONTINUOUS
 62
    3
 10
1355.8935
 20
1992.9728
 11
1355.3422
 21
1992.4561
  0
LINE
  8
0-2
  6
CONTINUOUS
 62
    3
 10
1355.3422
 20
1992.4561
 11
1354.7667
 21
1992.0058
  0
LINE
  8
0-2
  6
CONTINUOUS
 62
    3
 10
1354.7667
 20
1992.0058
 11
1354.1689
 21
1991.6213
  0
LINE
  8
0-2
  6
CONTINUOUS
 62
    3
 10
1354.1689
 20
1991.6213
 11
1353.5577
 21
1991.3016
  0
LINE
  8
0-2
  6
CONTINUOUS
 62
    3
 10
1353.5577
 20
1991.3016
 11
1352.9356
 21
1991.0448
  0
LINE
  8
0-2
  6
CONTINUOUS
 62
    3
 10
1352.9356
 20
1991.0448
 11
1352.3081
 21
1990.8488
  0
LINE
  8
0-2
  6
CONTINUOUS
 62
    3
 10
1352.3081
 20
1990.8488
 11
1351.6811
 21
1990.7127
  0
LINE
  8
0-2
  6
CONTINUOUS
 62
    3
 10
1351.6811
 20
1990.7127
 11
1351.0601
 21
1990.635
  0
LINE
  8
0-2
  6
CONTINUOUS
 62
    3
 10
1351.0601
 20
1990.635
 11
1350.4499
 21
1990.6107
  0
LINE
  8
0-2
  6
CONTINUOUS
 62
    3
 10
1350.4499
 20
1990.6107
 11
1349.8565
 21
1990.6399
  0
LINE
  8
0-2
  6
CONTINUOUS
 62
    3
 10
1349.8565
 20
1990.6399
 11
1349.2864
 21
1990.7181
  0
LINE
  8
0-2
  6
CONTINUOUS
 62
    3
 10
1349.2864
 20
1990.7181
 11
1348.7445
 21
1990.8428
  0
LINE
  8
0-2
  6
CONTINUOUS
 62
    3
 10
1348.7445
 20
1990.8428
 11
1348.2373
 21
1991.0111
  0
LINE
  8
0-2
  6
CONTINUOUS
 62
    3
 10
1448.6874
 20
1997.4861
 11
1458.6489
 21
1997.4861
  0
LINE
  8
0-2
  6
CONTINUOUS
 62
    3
 10
1546.2574
 20
1887.8376
 11
1448.6874
 21
1997.4861
  0
LINE
  8
0-2
  6
CONTINUOUS
 62
    3
 10
1442.2505
 20
1997.4861
 11
1538.2513
 21
1887.8376
  0
LINE
  8
0-2
  6
CONTINUOUS
 62
    3
 10
1518.7233
 20
1887.8376
 11
1426.5515
 21
1997.4861
  0
LINE
  8
0-2
  6
CONTINUOUS
 62
    3
 10
1426.5515
 20
1997.4861
 11
1442.2505
 21
1997.4861
  0
LINE
  8
0-2
  6
CONTINUOUS
 62
    3
 10
1417.3259
 20
1997.4861
 11
1507.2475
 21
1887.8376
  0
LINE
  8
0-2
  6
CONTINUOUS
 62
    3
 10
1396.2346
 20
1997.4861
 11
1417.3259
 21
1997.4861
  0
LINE
  8
0-2
  6
CONTINUOUS
 62
    3
 10
1481.0125
 20
1887.8376
 11
1396.2346
 21
1997.4861
  0
LINE
  8
0-2
  6
CONTINUOUS
 62
    3
 10
1358.3952
 20
1997.4861
 11
1384.4204
 21
1997.4861
  0
LINE
  8
0-2
  6
CONTINUOUS
 62
    3
 10
1313.8496
 20
1997.4861
 11
1344.247
 21
1997.4861
  0
LINE
  8
0-2
  6
CONTINUOUS
 62
    3
 10
997.67989
 20
1752.8376
 11
997.67989
 21
1372.8375
  0
LINE
  8
0-2
  6
CONTINUOUS
 62
    3
 10
947.20166
 20
1752.8376
 11
947.20166
 21
1372.8375
  0
LINE
  8
0-2
  6
CONTINUOUS
 62
    3
 10
849.65321
 20
1752.8376
 11
849.65321
 21
1372.8375
  0
LINE
  8
0-2
  6
CONTINUOUS
 62
    3
 10
803.52226
 20
1752.8376
 11
803.52226
 21
1372.8375
  0
LINE
  8
0-2
  6
CONTINUOUS
 62
    3
 10
718.76422
 20
1752.8376
 11
718.76422
 21
1372.8375
  0
LINE
  8
0-2
  6
CONTINUOUS
 62
    3
 10
680.95343
 20
1752.8376
 11
680.95343
 21
1372.8375
  0
LINE
  8
0-2
  6
CONTINUOUS
 62
    3
 10
616.28454
 20
1752.8376
 11
616.28454
 21
1372.8375
  0
LINE
  8
0-2
  6
CONTINUOUS
 62
    3
 10
947.20166
 20
1372.8375
 11
849.65321
 21
1399.418
  0
LINE
  8
0-2
  6
CONTINUOUS
 62
    3
 10
680.95343
 20
1372.8375
 11
616.28454
 21
1399.418
  0
LINE
  8
0-2
  6
CONTINUOUS
 62
    3
 10
735.87369
 20
1752.8376
 11
735.87369
 21
1372.8375
  0
LINE
  8
0-2
  6
CONTINUOUS
 62
    3
 10
755.87425
 20
1752.8376
 11
755.87425
 21
1372.8375
  0
LINE
  8
0-2
  6
CONTINUOUS
 62
    3
 10
803.52226
 20
1372.8375
 11
755.87425
 21
1387.7799
  0
LINE
  8
0-2
  6
CONTINUOUS
 62
    3
 10
735.87369
 20
1394.0525
 11
718.76422
 21
1399.418
  0
LINE
  8
0-2
  6
CONTINUOUS
 62
    3
 10
538.64831
 20
1259.7672
 11
538.64831
 21
1350.9094
  0
LINE
  8
0-2
  6
CONTINUOUS
 62
    3
 10
1481.0125
 20
1752.8376
 11
1481.0125
 21
1372.8375
  0
LINE
  8
0-2
  6
CONTINUOUS
 62
    3
 10
1558.6487
 20
1237.8376
 11
1458.6489
 21
1128.1886
  0
LINE
  8
0-2
  6
CONTINUOUS
 62
    3
 10
538.64831
 20
1237.8376
 11
638.64864
 21
1128.1886
  0
LINE
  8
0-2
  6
CONTINUOUS
 62
    3
 10
959.8013
 20
1137.2519
 11
960.62429
 21
1137.0099
  0
LINE
  8
0-2
  6
CONTINUOUS
 62
    3
 10
960.62429
 20
1137.0099
 11
961.39778
 21
1136.6818
  0
LINE
  8
0-2
  6
CONTINUOUS
 62
    3
 10
961.39778
 20
1136.6818
 11
962.1213
 21
1136.2725
  0
LINE
  8
0-2
  6
CONTINUOUS
 62
    3
 10
962.1213
 20
1136.2725
 11
962.79681
 21
1135.788
  0
LINE
  8
0-2
  6
CONTINUOUS
 62
    3
 10
962.79681
 20
1135.788
 11
963.42481
 21
1135.2347
  0
LINE
  8
0-2
  6
CONTINUOUS
 62
    3
 10
963.42481
 20
1135.2347
 11
964.00629
 21
1134.6196
  0
LINE
  8
0-2
  6
CONTINUOUS
 62
    3
 10
964.00629
 20
1134.6196
 11
964.54225
 21
1133.9481
  0
LINE
  8
0-2
  6
CONTINUOUS
 62
    3
 10
964.54225
 20
1133.9481
 11
965.03366
 21
1133.2265
  0
LINE
  8
0-2
  6
CONTINUOUS
 62
    3
 10
965.03366
 20
1133.2265
 11
965.48153
 21
1132.4609
  0
LINE
  8
0-2
  6
CONTINUOUS
 62
    3
 10
965.48153
 20
1132.4609
 11
965.88634
 21
1131.6573
  0
LINE
  8
0-2
  6
CONTINUOUS
 62
    3
 10
965.88634
 20
1131.6573
 11
966.2481
 21
1130.8219
  0
LINE
  8
0-2
  6
CONTINUOUS
 62
    3
 10
966.2481
 20
1130.8219
 11
966.57026
 21
1129.9618
  0
LINE
  8
0-2
  6
CONTINUOUS
 62
    3
 10
966.57026
 20
1129.9618
 11
966.85136
 21
1129.0819
  0
LINE
  8
0-2
  6
CONTINUOUS
 62
    3
 10
966.85136
 20
1129.0819
 11
967.09335
 21
1128.1886
  0
LINE
  8
0-2
  6
CONTINUOUS
 62
    3
 10
955.28057
 20
1137.3009
 11
954.32892
 21
1136.9643
  0
LINE
  8
0-2
  6
CONTINUOUS
 62
    3
 10
954.32892
 20
1136.9643
 11
953.43616
 21
1136.5684
  0
LINE
  8
0-2
  6
CONTINUOUS
 62
    3
 10
953.43616
 20
1136.5684
 11
952.6008
 21
1136.1151
  0
LINE
  8
0-2
  6
CONTINUOUS
 62
    3
 10
952.6008
 20
1136.1151
 11
951.82334
 21
1135.6054
  0
LINE
  8
0-2
  6
CONTINUOUS
 62
    3
 10
951.82334
 20
1135.6054
 11
951.1028
 21
1135.0462
  0
LINE
  8
0-2
  6
CONTINUOUS
 62
    3
 10
951.1028
 20
1135.0462
 11
950.43818
 21
1134.4365
  0
LINE
  8
0-2
  6
CONTINUOUS
 62
    3
 10
950.43818
 20
1134.4365
 11
949.82947
 21
1133.7823
  0
LINE
  8
0-2
  6
CONTINUOUS
 62
    3
 10
949.82947
 20
1133.7823
 11
949.2762
 21
1133.0865
  0
LINE
  8
0-2
  6
CONTINUOUS
 62
    3
 10
949.2762
 20
1133.0865
 11
948.77637
 21
1132.3506
  0
LINE
  8
0-2
  6
CONTINUOUS
 62
    3
 10
948.77637
 20
1132.3506
 11
948.33098
 21
1131.5781
  0
LINE
  8
0-2
  6
CONTINUOUS
 62
    3
 10
948.33098
 20
1131.5781
 11
947.93903
 21
1130.7724
  0
LINE
  8
0-2
  6
CONTINUOUS
 62
    3
 10
947.93903
 20
1130.7724
 11
947.59856
 21
1129.938
  0
LINE
  8
0-2
  6
CONTINUOUS
 62
    3
 10
947.59856
 20
1129.938
 11
947.31054
 21
1129.0753
  0
LINE
  8
0-2
  6
CONTINUOUS
 62
    3
 10
947.31054
 20
1129.0753
 11
947.07349
 21
1128.1886
  0
LINE
  8
0-2
  6
CONTINUOUS
 62
    3
 10
907.81568
 20
1128.1886
 11
906.89371
 21
1129.6609
  0
LINE
  8
0-2
  6
CONTINUOUS
 62
    3
 10
906.89371
 20
1129.6609
 11
905.96087
 21
1130.9699
  0
LINE
  8
0-2
  6
CONTINUOUS
 62
    3
 10
905.96087
 20
1130.9699
 11
905.02158
 21
1132.1254
  0
LINE
  8
0-2
  6
CONTINUOUS
 62
    3
 10
905.02158
 20
1132.1254
 11
904.07834
 21
1133.1369
  0
LINE
  8
0-2
  6
CONTINUOUS
 62
    3
 10
904.07834
 20
1133.1369
 11
903.1356
 21
1134.0134
  0
LINE
  8
0-2
  6
CONTINUOUS
 62
    3
 10
903.1356
 20
1134.0134
 11
902.19681
 21
1134.7621
  0
LINE
  8
0-2
  6
CONTINUOUS
 62
    3
 10
902.19681
 20
1134.7621
 11
901.26594
 21
1135.3951
  0
LINE
  8
0-2
  6
CONTINUOUS
 62
    3
 10
901.26594
 20
1135.3951
 11
900.34596
 21
1135.9192
  0
LINE
  8
0-2
  6
CONTINUOUS
 62
    3
 10
900.34596
 20
1135.9192
 11
899.44083
 21
1136.3448
  0
LINE
  8
0-2
  6
CONTINUOUS
 62
    3
 10
899.44083
 20
1136.3448
 11
898.5545
 21
1136.6793
  0
LINE
  8
0-2
  6
CONTINUOUS
 62
    3
 10
898.5545
 20
1136.6793
 11
897.69093
 21
1136.9332
  0
LINE
  8
0-2
  6
CONTINUOUS
 62
    3
 10
897.69093
 20
1136.9332
 11
896.85261
 21
1137.1158
  0
LINE
  8
0-2
  6
CONTINUOUS
 62
    3
 10
896.85261
 20
1137.1158
 11
896.04397
 21
1137.2345
  0
LINE
  8
0-2
  6
CONTINUOUS
 62
    3
 10
896.04397
 20
1137.2345
 11
895.26899
 21
1137.3009
  0
LINE
  8
0-2
  6
CONTINUOUS
 62
    3
 10
888.67225
 20
1128.1886
 11
888.69946
 21
1129.2472
  0
LINE
  8
0-2
  6
CONTINUOUS
 62
    3
 10
888.69946
 20
1129.2472
 11
888.7831
 21
1130.2266
  0
LINE
  8
0-2
  6
CONTINUOUS
 62
    3
 10
888.7831
 20
1130.2266
 11
888.92513
 21
1131.1287
  0
LINE
  8
0-2
  6
CONTINUOUS
 62
    3
 10
888.92513
 20
1131.1287
 11
889.12951
 21
1131.9596
  0
LINE
  8
0-2
  6
CONTINUOUS
 62
    3
 10
889.12951
 20
1131.9596
 11
889.39873
 21
1132.7227
  0
LINE
  8
0-2
  6
CONTINUOUS
 62
    3
 10
889.39873
 20
1132.7227
 11
889.73648
 21
1133.4238
  0
LINE
  8
0-2
  6
CONTINUOUS
 62
    3
 10
889.73648
 20
1133.4238
 11
890.14575
 21
1134.0653
  0
LINE
  8
0-2
  6
CONTINUOUS
 62
    3
 10
890.14575
 20
1134.0653
 11
890.62925
 21
1134.6547
  0
LINE
  8
0-2
  6
CONTINUOUS
 62
    3
 10
890.62925
 20
1134.6547
 11
891.19019
 21
1135.1932
  0
LINE
  8
0-2
  6
CONTINUOUS
 62
    3
 10
891.19019
 20
1135.1932
 11
891.83205
 21
1135.6876
  0
LINE
  8
0-2
  6
CONTINUOUS
 62
    3
 10
891.83205
 20
1135.6876
 11
892.55804
 21
1136.1409
  0
LINE
  8
0-2
  6
CONTINUOUS
 62
    3
 10
892.55804
 20
1136.1409
 11
893.37014
 21
1136.558
  0
LINE
  8
0-2
  6
CONTINUOUS
 62
    3
 10
893.37014
 20
1136.558
 11
894.27329
 21
1136.9431
  0
LINE
  8
0-2
  6
CONTINUOUS
 62
    3
 10
894.27329
 20
1136.9431
 11
895.26899
 21
1137.3009
  0
LINE
  8
0-2
  6
CONTINUOUS
 62
    3
 10
833.73367
 20
1128.1886
 11
834.20381
 21
1129.4321
  0
LINE
  8
0-2
  6
CONTINUOUS
 62
    3
 10
834.20381
 20
1129.4321
 11
834.69374
 21
1130.5606
  0
LINE
  8
0-2
  6
CONTINUOUS
 62
    3
 10
834.69374
 20
1130.5606
 11
835.20198
 21
1131.5781
  0
LINE
  8
0-2
  6
CONTINUOUS
 62
    3
 10
835.20198
 20
1131.5781
 11
835.72952
 21
1132.4921
  0
LINE
  8
0-2
  6
CONTINUOUS
 62
    3
 10
835.72952
 20
1132.4921
 11
836.27488
 21
1133.3067
  0
LINE
  8
0-2
  6
CONTINUOUS
 62
    3
 10
836.27488
 20
1133.3067
 11
836.83805
 21
1134.0281
  0
LINE
  8
0-2
  6
CONTINUOUS
 62
    3
 10
836.83805
 20
1134.0281
 11
837.41756
 21
1134.6622
  0
LINE
  8
0-2
  6
CONTINUOUS
 62
    3
 10
837.41756
 20
1134.6622
 11
838.01438
 21
1135.2135
  0
LINE
  8
0-2
  6
CONTINUOUS
 62
    3
 10
838.01438
 20
1135.2135
 11
838.6268
 21
1135.6885
  0
LINE
  8
0-2
  6
CONTINUOUS
 62
    3
 10
838.6268
 20
1135.6885
 11
839.25505
 21
1136.0919
  0
LINE
  8
0-2
  6
CONTINUOUS
 62
    3
 10
839.25505
 20
1136.0919
 11
839.89888
 21
1136.4294
  0
LINE
  8
0-2
  6
CONTINUOUS
 62
    3
 10
839.89888
 20
1136.4294
 11
840.55683
 21
1136.708
  0
LINE
  8
0-2
  6
CONTINUOUS
 62
    3
 10
840.55683
 20
1136.708
 11
841.22912
 21
1136.9312
  0
LINE
  8
0-2
  6
CONTINUOUS
 62
    3
 10
841.22912
 20
1136.9312
 11
841.91502
 21
1137.1054
  0
LINE
  8
0-2
  6
CONTINUOUS
 62
    3
 10
843.42342
 20
1137.1054
 11
844.13901
 21
1136.9564
  0
LINE
  8
0-2
  6
CONTINUOUS
 62
    3
 10
844.13901
 20
1136.9564
 11
844.84867
 21
1136.7197
  0
LINE
  8
0-2
  6
CONTINUOUS
 62
    3
 10
844.84867
 20
1136.7197
 11
845.55239
 21
1136.3942
  0
LINE
  8
0-2
  6
CONTINUOUS
 62
    3
 10
845.55239
 20
1136.3942
 11
846.25042
 21
1135.9815
  0
LINE
  8
0-2
  6
CONTINUOUS
 62
    3
 10
846.25042
 20
1135.9815
 11
846.94251
 21
1135.4817
  0
LINE
  8
0-2
  6
CONTINUOUS
 62
    3
 10
846.94251
 20
1135.4817
 11
847.6289
 21
1134.8928
  0
LINE
  8
0-2
  6
CONTINUOUS
 62
    3
 10
847.6289
 20
1134.8928
 11
848.30936
 21
1134.2158
  0
LINE
  8
0-2
  6
CONTINUOUS
 62
    3
 10
848.30936
 20
1134.2158
 11
848.98438
 21
1133.4507
  0
LINE
  8
0-2
  6
CONTINUOUS
 62
    3
 10
848.98438
 20
1133.4507
 11
849.65321
 21
1132.5985
  0
LINE
  8
0-2
  6
CONTINUOUS
 62
    3
 10
783.44722
 20
1128.1886
 11
783.58356
 21
1129.1368
  0
LINE
  8
0-2
  6
CONTINUOUS
 62
    3
 10
783.58356
 20
1129.1368
 11
783.77656
 21
1130.0187
  0
LINE
  8
0-2
  6
CONTINUOUS
 62
    3
 10
783.77656
 20
1130.0187
 11
784.02202
 21
1130.8392
  0
LINE
  8
0-2
  6
CONTINUOUS
 62
    3
 10
784.02202
 20
1130.8392
 11
784.31598
 21
1131.5979
  0
LINE
  8
0-2
  6
CONTINUOUS
 62
    3
 10
784.31598
 20
1131.5979
 11
784.65299
 21
1132.3001
  0
LINE
  8
0-2
  6
CONTINUOUS
 62
    3
 10
784.65299
 20
1132.3001
 11
785.03059
 21
1132.9469
  0
LINE
  8
0-2
  6
CONTINUOUS
 62
    3
 10
785.03059
 20
1132.9469
 11
785.44381
 21
1133.5408
  0
LINE
  8
0-2
  6
CONTINUOUS
 62
    3
 10
785.44381
 20
1133.5408
 11
785.88945
 21
1134.0836
  0
LINE
  8
0-2
  6
CONTINUOUS
 62
    3
 10
785.88945
 20
1134.0836
 11
786.36429
 21
1134.577
  0
LINE
  8
0-2
  6
CONTINUOUS
 62
    3
 10
786.36429
 20
1134.577
 11
786.8651
 21
1135.0229
  0
LINE
  8
0-2
  6
CONTINUOUS
 62
    3
 10
786.8651
 20
1135.0229
 11
787.38869
 21
1135.4228
  0
LINE
  8
0-2
  6
CONTINUOUS
 62
    3
 10
787.38869
 20
1135.4228
 11
787.93355
 21
1135.7796
  0
LINE
  8
0-2
  6
CONTINUOUS
 62
    3
 10
787.93355
 20
1135.7796
 11
788.49524
 21
1136.0914
  0
LINE
  8
0-2
  6
CONTINUOUS
 62
    3
 10
788.49524
 20
1136.0914
 11
789.07375
 21
1136.3616
  0
LINE
  8
0-2
  6
CONTINUOUS
 62
    3
 10
789.07375
 20
1136.3616
 11
789.66513
 21
1136.5902
  0
LINE
  8
0-2
  6
CONTINUOUS
 62
    3
 10
789.66513
 20
1136.5902
 11
790.26913
 21
1136.7788
  0
LINE
  8
0-2
  6
CONTINUOUS
 62
    3
 10
790.26913
 20
1136.7788
 11
790.88353
 21
1136.9272
  0
LINE
  8
0-2
  6
CONTINUOUS
 62
    3
 10
790.88353
 20
1136.9272
 11
791.50658
 21
1137.0356
  0
LINE
  8
0-2
  6
CONTINUOUS
 62
    3
 10
791.50658
 20
1137.0356
 11
792.13805
 21
1137.1054
  0
LINE
  8
0-2
  6
CONTINUOUS
 62
    3
 10
792.2974
 20
1137.098
 11
792.65322
 21
1137.0589
  0
LINE
  8
0-2
  6
CONTINUOUS
 62
    3
 10
792.65322
 20
1137.0589
 11
793.00235
 21
1137.0029
  0
LINE
  8
0-2
  6
CONTINUOUS
 62
    3
 10
793.00235
 20
1137.0029
 11
793.3458
 21
1136.9317
  0
LINE
  8
0-2
  6
CONTINUOUS
 62
    3
 10
793.3458
 20
1136.9317
 11
793.68257
 21
1136.8426
  0
LINE
  8
0-2
  6
CONTINUOUS
 62
    3
 10
793.68257
 20
1136.8426
 11
794.01389
 21
1136.7367
  0
LINE
  8
0-2
  6
CONTINUOUS
 62
    3
 10
794.01389
 20
1136.7367
 11
794.33878
 21
1136.614
  0
LINE
  8
0-2
  6
CONTINUOUS
 62
    3
 10
794.33878
 20
1136.614
 11
794.65748
 21
1136.4744
  0
LINE
  8
0-2
  6
CONTINUOUS
 62
    3
 10
794.65748
 20
1136.4744
 11
794.96975
 21
1136.318
  0
LINE
  8
0-2
  6
CONTINUOUS
 62
    3
 10
794.96975
 20
1136.318
 11
795.27657
 21
1136.1448
  0
LINE
  8
0-2
  6
CONTINUOUS
 62
    3
 10
648.61008
 20
1128.1886
 11
648.73182
 21
1129.1858
  0
LINE
  8
0-2
  6
CONTINUOUS
 62
    3
 10
648.73182
 20
1129.1858
 11
648.86049
 21
1130.0974
  0
LINE
  8
0-2
  6
CONTINUOUS
 62
    3
 10
648.86049
 20
1130.0974
 11
648.99658
 21
1130.9219
  0
LINE
  8
0-2
  6
CONTINUOUS
 62
    3
 10
648.99658
 20
1130.9219
 11
649.13935
 21
1131.6612
  0
LINE
  8
0-2
  6
CONTINUOUS
 62
    3
 10
649.13935
 20
1131.6612
 11
649.2893
 21
1132.3145
  0
LINE
  8
0-2
  6
CONTINUOUS
 62
    3
 10
649.2893
 20
1132.3145
 11
649.44642
 21
1132.8816
  0
LINE
  8
0-2
  6
CONTINUOUS
 62
    3
 10
649.44642
 20
1132.8816
 11
649.61023
 21
1133.3626
  0
LINE
  8
0-2
  6
CONTINUOUS
 62
    3
 10
649.61023
 20
1133.3626
 11
649.78195
 21
1133.7575
  0
LINE
  8
0-2
  6
CONTINUOUS
 62
    3
 10
649.78195
 20
1133.7575
 11
649.96011
 21
1134.0653
  0
LINE
  8
0-2
  6
CONTINUOUS
 62
    3
 10
670.74555
 20
1128.1886
 11
670.81335
 21
1128.979
  0
LINE
  8
0-2
  6
CONTINUOUS
 62
    3
 10
670.81335
 20
1128.979
 11
670.9247
 21
1129.7251
  0
LINE
  8
0-2
  6
CONTINUOUS
 62
    3
 10
670.9247
 20
1129.7251
 11
671.0744
 21
1130.429
  0
LINE
  8
0-2
  6
CONTINUOUS
 62
    3
 10
671.0744
 20
1130.429
 11
671.25998
 21
1131.0895
  0
LINE
  8
0-2
  6
CONTINUOUS
 62
    3
 10
671.25998
 20
1131.0895
 11
671.47599
 21
1131.7062
  0
LINE
  8
0-2
  6
CONTINUOUS
 62
    3
 10
671.47599
 20
1131.7062
 11
671.71848
 21
1132.2788
  0
LINE
  8
0-2
  6
CONTINUOUS
 62
    3
 10
671.71848
 20
1132.2788
 11
671.98324
 21
1132.8083
  0
LINE
  8
0-2
  6
CONTINUOUS
 62
    3
 10
671.98324
 20
1132.8083
 11
672.26532
 21
1133.2923
  0
LINE
  8
0-2
  6
CONTINUOUS
 62
    3
 10
672.26532
 20
1133.2923
 11
672.56077
 21
1133.7338
  0
LINE
  8
0-2
  6
CONTINUOUS
 62
    3
 10
672.56077
 20
1133.7338
 11
672.86512
 21
1134.1292
  0
LINE
  8
0-2
  6
CONTINUOUS
 62
    3
 10
672.86512
 20
1134.1292
 11
673.17417
 21
1134.4805
  0
LINE
  8
0-2
  6
CONTINUOUS
 62
    3
 10
673.17417
 20
1134.4805
 11
673.48421
 21
1134.7859
  0
LINE
  8
0-2
  6
CONTINUOUS
 62
    3
 10
673.48421
 20
1134.7859
 11
673.79005
 21
1135.0467
  0
LINE
  8
0-2
  6
CONTINUOUS
 62
    3
 10
673.79005
 20
1135.0467
 11
674.08747
 21
1135.2615
  0
LINE
  8
0-2
  6
CONTINUOUS
 62
    3
 10
701.06212
 20
1128.1886
 11
701.2628
 21
1129.068
  0
LINE
  8
0-2
  6
CONTINUOUS
 62
    3
 10
701.2628
 20
1129.068
 11
701.50752
 21
1129.8905
  0
LINE
  8
0-2
  6
CONTINUOUS
 62
    3
 10
701.50752
 20
1129.8905
 11
701.7943
 21
1130.6581
  0
LINE
  8
0-2
  6
CONTINUOUS
 62
    3
 10
701.7943
 20
1130.6581
 11
702.12141
 21
1131.3702
  0
LINE
  8
0-2
  6
CONTINUOUS
 62
    3
 10
702.12141
 20
1131.3702
 11
702.48664
 21
1132.0284
  0
LINE
  8
0-2
  6
CONTINUOUS
 62
    3
 10
702.48664
 20
1132.0284
 11
702.88798
 21
1132.6322
  0
LINE
  8
0-2
  6
CONTINUOUS
 62
    3
 10
702.88798
 20
1132.6322
 11
703.32447
 21
1133.182
  0
LINE
  8
0-2
  6
CONTINUOUS
 62
    3
 10
703.32447
 20
1133.182
 11
703.7946
 21
1133.6778
  0
LINE
  8
0-2
  6
CONTINUOUS
 62
    3
 10
703.7946
 20
1133.6778
 11
704.29592
 21
1134.1218
  0
LINE
  8
0-2
  6
CONTINUOUS
 62
    3
 10
704.29592
 20
1134.1218
 11
704.82692
 21
1134.5132
  0
LINE
  8
0-2
  6
CONTINUOUS
 62
    3
 10
704.82692
 20
1134.5132
 11
705.38564
 21
1134.8517
  0
LINE
  8
0-2
  6
CONTINUOUS
 62
    3
 10
705.38564
 20
1134.8517
 11
705.97059
 21
1135.1387
  0
LINE
  8
0-2
  6
CONTINUOUS
 62
    3
 10
705.97059
 20
1135.1387
 11
706.57979
 21
1135.3748
  0
LINE
  8
0-2
  6
CONTINUOUS
 62
    3
 10
706.57979
 20
1135.3748
 11
707.21175
 21
1135.5609
  0
LINE
  8
0-2
  6
CONTINUOUS
 62
    3
 10
738.88504
 20
1128.1886
 11
739.18889
 21
1129.1106
  0
LINE
  8
0-2
  6
CONTINUOUS
 62
    3
 10
739.18889
 20
1129.1106
 11
739.54521
 21
1129.9628
  0
LINE
  8
0-2
  6
CONTINUOUS
 62
    3
 10
739.54521
 20
1129.9628
 11
739.94903
 21
1130.7496
  0
LINE
  8
0-2
  6
CONTINUOUS
 62
    3
 10
739.94903
 20
1130.7496
 11
740.3964
 21
1131.4682
  0
LINE
  8
0-2
  6
CONTINUOUS
 62
    3
 10
740.3964
 20
1131.4682
 11
740.88286
 21
1132.12
  0
LINE
  8
0-2
  6
CONTINUOUS
 62
    3
 10
740.88286
 20
1132.12
 11
741.40397
 21
1132.7034
  0
LINE
  8
0-2
  6
CONTINUOUS
 62
    3
 10
741.40397
 20
1132.7034
 11
741.95477
 21
1133.2196
  0
LINE
  8
0-2
  6
CONTINUOUS
 62
    3
 10
741.95477
 20
1133.2196
 11
742.53081
 21
1133.6694
  0
LINE
  8
0-2
  6
CONTINUOUS
 62
    3
 10
742.53081
 20
1133.6694
 11
743.12764
 21
1134.0535
  0
LINE
  8
0-2
  6
CONTINUOUS
 62
    3
 10
743.12764
 20
1134.0535
 11
743.73931
 21
1134.3732
  0
LINE
  8
0-2
  6
CONTINUOUS
 62
    3
 10
743.73931
 20
1134.3732
 11
744.36137
 21
1134.6305
  0
LINE
  8
0-2
  6
CONTINUOUS
 62
    3
 10
744.36137
 20
1134.6305
 11
744.98888
 21
1134.827
  0
LINE
  8
0-2
  6
CONTINUOUS
 62
    3
 10
744.98888
 20
1134.827
 11
745.61589
 21
1134.9619
  0
LINE
  8
0-2
  6
CONTINUOUS
 62
    3
 10
745.61589
 20
1134.9619
 11
746.23746
 21
1135.0407
  0
LINE
  8
0-2
  6
CONTINUOUS
 62
    3
 10
746.23746
 20
1135.0407
 11
746.84765
 21
1135.0645
  0
LINE
  8
0-2
  6
CONTINUOUS
 62
    3
 10
746.84765
 20
1135.0645
 11
747.44052
 21
1135.0352
  0
LINE
  8
0-2
  6
CONTINUOUS
 62
    3
 10
747.44052
 20
1135.0352
 11
748.01111
 21
1134.9571
  0
LINE
  8
0-2
  6
CONTINUOUS
 62
    3
 10
748.01111
 20
1134.9571
 11
748.553
 21
1134.8319
  0
LINE
  8
0-2
  6
CONTINUOUS
 62
    3
 10
748.553
 20
1134.8319
 11
749.06026
 21
1134.6632
  0
LINE
  8
0-2
  6
CONTINUOUS
 62
    3
 10
648.61008
 20
1128.1886
 11
638.64864
 21
1128.1886
  0
LINE
  8
0-2
  6
CONTINUOUS
 62
    3
 10
551.0396
 20
1237.8376
 11
648.61008
 21
1128.1886
  0
LINE
  8
0-2
  6
CONTINUOUS
 62
    3
 10
655.04623
 20
1128.1886
 11
559.04576
 21
1237.8376
  0
LINE
  8
0-2
  6
CONTINUOUS
 62
    3
 10
578.57421
 20
1237.8376
 11
670.74555
 21
1128.1886
  0
LINE
  8
0-2
  6
CONTINUOUS
 62
    3
 10
670.74555
 20
1128.1886
 11
655.04623
 21
1128.1886
  0
LINE
  8
0-2
  6
CONTINUOUS
 62
    3
 10
679.9711
 20
1128.1886
 11
590.04948
 21
1237.8376
  0
LINE
  8
0-2
  6
CONTINUOUS
 62
    3
 10
701.06212
 20
1128.1886
 11
679.9711
 21
1128.1886
  0
LINE
  8
0-2
  6
CONTINUOUS
 62
    3
 10
616.28454
 20
1237.8376
 11
701.06212
 21
1128.1886
  0
LINE
  8
0-2
  6
CONTINUOUS
 62
    3
 10
712.87663
 20
1128.1886
 11
630.98048
 21
1237.8376
  0
LINE
  8
0-2
  6
CONTINUOUS
 62
    3
 10
738.90186
 20
1128.1886
 11
712.87663
 21
1128.1886
  0
LINE
  8
0-2
  6
CONTINUOUS
 62
    3
 10
663.35403
 20
1237.8376
 11
738.90186
 21
1128.1886
  0
LINE
  8
0-2
  6
CONTINUOUS
 62
    3
 10
753.05047
 20
1128.1886
 11
680.95343
 21
1237.8376
  0
LINE
  8
0-2
  6
CONTINUOUS
 62
    3
 10
783.44722
 20
1128.1886
 11
753.05047
 21
1128.1886
  0
LINE
  8
0-2
  6
CONTINUOUS
 62
    3
 10
718.76422
 20
1237.8376
 11
783.44722
 21
1128.1886
  0
LINE
  8
0-2
  6
CONTINUOUS
 62
    3
 10
799.6231
 20
1128.1886
 11
738.88504
 21
1237.8376
  0
LINE
  8
0-2
  6
CONTINUOUS
 62
    3
 10
833.73367
 20
1128.1886
 11
799.6231
 21
1128.1886
  0
LINE
  8
0-2
  6
CONTINUOUS
 62
    3
 10
851.58646
 20
1128.1886
 11
803.52226
 21
1237.8376
  0
LINE
  8
0-2
  6
CONTINUOUS
 62
    3
 10
888.67225
 20
1128.1886
 11
851.58646
 21
1128.1886
  0
LINE
  8
0-2
  6
CONTINUOUS
 62
    3
 10
849.65321
 20
1237.8376
 11
888.67225
 21
1128.1886
  0
LINE
  8
0-2
  6
CONTINUOUS
 62
    3
 10
873.46558
 20
1237.8376
 11
907.81568
 21
1128.1886
  0
LINE
  8
0-2
  6
CONTINUOUS
 62
    3
 10
947.07349
 20
1128.1886
 11
907.81568
 21
1128.1886
  0
LINE
  8
0-2
  6
CONTINUOUS
 62
    3
 10
947.07349
 20
1128.1886
 11
922.29882
 21
1237.8376
  0
LINE
  8
0-2
  6
CONTINUOUS
 62
    3
 10
947.20166
 20
1237.8376
 11
967.09335
 21
1128.1886
  0
LINE
  8
0-2
  6
CONTINUOUS
 62
    3
 10
1007.6739
 20
1128.1886
 11
967.09335
 21
1128.1886
  0
LINE
  8
0-2
  6
CONTINUOUS
 62
    3
 10
1007.6739
 20
1128.1886
 11
997.67989
 21
1237.8376
  0
LINE
  8
0-2
  6
CONTINUOUS
 62
    3
 10
1028.1367
 20
1128.1886
 11
1023.1335
 21
1237.8376
  0
LINE
  8
0-2
  6
CONTINUOUS
 62
    3
 10
1048.6485
 20
1128.1886
 11
1028.1367
 21
1128.1886
  0
LINE
  8
0-2
  6
CONTINUOUS
 62
    3
 10
1558.6487
 20
1237.8376
 11
1458.6489
 21
1128.1886
  0
LINE
  8
0-2
  6
CONTINUOUS
 62
    3
 10
1546.2574
 20
1237.8376
 11
1448.6874
 21
1128.1886
  0
LINE
  8
0-2
  6
CONTINUOUS
 62
    3
 10
1442.2505
 20
1128.1886
 11
1538.2513
 21
1237.8376
  0
LINE
  8
0-2
  6
CONTINUOUS
 62
    3
 10
1518.7233
 20
1237.8376
 11
1426.5515
 21
1128.1886
  0
LINE
  8
0-2
  6
CONTINUOUS
 62
    3
 10
1417.3259
 20
1128.1886
 11
1507.2475
 21
1237.8376
  0
LINE
  8
0-2
  6
CONTINUOUS
 62
    3
 10
1481.0125
 20
1237.8376
 11
1396.2346
 21
1128.1886
  0
LINE
  8
0-2
  6
CONTINUOUS
 62
    3
 10
781.31552
 20
1237.8376
 11
833.73367
 21
1128.1886
  0
LINE
  8
0-2
  6
CONTINUOUS
 62
    3
 10
842.58361
 20
1128.1886
 11
842.58361
 21
951.55537
  0
LINE
  8
0-8
  6
CONTINUOUS
 62
    7
 10
308.64884
 20
887.83788
 11
308.64884
 21
2137.8376
  0
LINE
  8
0-2
  6
CONTINUOUS
 62
    3
 10
841.91502
 20
1988.5694
 11
842.09813
 21
1988.5555
  0
LINE
  8
0-2
  6
CONTINUOUS
 62
    3
 10
842.09813
 20
1988.5555
 11
842.27728
 21
1988.5451
  0
LINE
  8
0-2
  6
CONTINUOUS
 62
    3
 10
842.27728
 20
1988.5451
 11
842.45246
 21
1988.5382
  0
LINE
  8
0-2
  6
CONTINUOUS
 62
    3
 10
842.45246
 20
1988.5382
 11
842.62394
 21
1988.5342
  0
LINE
  8
0-2
  6
CONTINUOUS
 62
    3
 10
842.62394
 20
1988.5342
 11
842.79146
 21
1988.5342
  0
LINE
  8
0-2
  6
CONTINUOUS
 62
    3
 10
842.79146
 20
1988.5342
 11
842.95477
 21
1988.5382
  0
LINE
  8
0-2
  6
CONTINUOUS
 62
    3
 10
842.95477
 20
1988.5382
 11
843.11535
 21
1988.5451
  0
LINE
  8
0-2
  6
CONTINUOUS
 62
    3
 10
843.11535
 20
1988.5451
 11
843.27099
 21
1988.5555
  0
LINE
  8
0-2
  6
CONTINUOUS
 62
    3
 10
843.27099
 20
1988.5555
 11
843.42342
 21
1988.5694
  0
LINE
  8
0-2
  6
CONTINUOUS
 62
    3
 10
955.28057
 20
1988.3754
 11
955.77051
 21
1988.3417
  0
LINE
  8
0-2
  6
CONTINUOUS
 62
    3
 10
955.77051
 20
1988.3417
 11
956.26291
 21
1988.319
  0
LINE
  8
0-2
  6
CONTINUOUS
 62
    3
 10
956.26291
 20
1988.319
 11
956.75927
 21
1988.3051
  0
LINE
  8
0-2
  6
CONTINUOUS
 62
    3
 10
956.75927
 20
1988.3051
 11
957.25811
 21
1988.3016
  0
LINE
  8
0-2
  6
CONTINUOUS
 62
    3
 10
957.25811
 20
1988.3016
 11
957.76091
 21
1988.3071
  0
LINE
  8
0-2
  6
CONTINUOUS
 62
    3
 10
957.76091
 20
1988.3071
 11
958.26618
 21
1988.3209
  0
LINE
  8
0-2
  6
CONTINUOUS
 62
    3
 10
958.26618
 20
1988.3209
 11
958.77442
 21
1988.3462
  0
LINE
  8
0-2
  6
CONTINUOUS
 62
    3
 10
958.77442
 20
1988.3462
 11
959.28613
 21
1988.3793
  0
LINE
  8
0-2
  6
CONTINUOUS
 62
    3
 10
959.28613
 20
1988.3793
 11
959.8013
 21
1988.4239
  0
LINE
  8
0-2
  6
CONTINUOUS
 62
    3
 10
955.28057
 20
1137.3009
 11
955.77051
 21
1137.3335
  0
LINE
  8
0-2
  6
CONTINUOUS
 62
    3
 10
955.77051
 20
1137.3335
 11
956.26291
 21
1137.3563
  0
LINE
  8
0-2
  6
CONTINUOUS
 62
    3
 10
956.26291
 20
1137.3563
 11
956.75927
 21
1137.3701
  0
LINE
  8
0-2
  6
CONTINUOUS
 62
    3
 10
956.75927
 20
1137.3701
 11
957.25811
 21
1137.3741
  0
LINE
  8
0-2
  6
CONTINUOUS
 62
    3
 10
957.25811
 20
1137.3741
 11
957.76091
 21
1137.3687
  0
LINE
  8
0-2
  6
CONTINUOUS
 62
    3
 10
957.76091
 20
1137.3687
 11
958.26618
 21
1137.3543
  0
LINE
  8
0-2
  6
CONTINUOUS
 62
    3
 10
958.26618
 20
1137.3543
 11
958.77442
 21
1137.3296
  0
LINE
  8
0-2
  6
CONTINUOUS
 62
    3
 10
958.77442
 20
1137.3296
 11
959.28613
 21
1137.2954
  0
LINE
  8
0-2
  6
CONTINUOUS
 62
    3
 10
959.28613
 20
1137.2954
 11
959.8013
 21
1137.2519
  0
LINE
  8
0-2
  6
CONTINUOUS
 62
    3
 10
841.91502
 20
1137.1054
 11
842.09813
 21
1137.1197
  0
LINE
  8
0-2
  6
CONTINUOUS
 62
    3
 10
842.09813
 20
1137.1197
 11
842.27728
 21
1137.1306
  0
LINE
  8
0-2
  6
CONTINUOUS
 62
    3
 10
842.27728
 20
1137.1306
 11
842.45246
 21
1137.1375
  0
LINE
  8
0-2
  6
CONTINUOUS
 62
    3
 10
842.45246
 20
1137.1375
 11
842.62394
 21
1137.1409
  0
LINE
  8
0-2
  6
CONTINUOUS
 62
    3
 10
842.62394
 20
1137.1409
 11
842.79146
 21
1137.1409
  0
LINE
  8
0-2
  6
CONTINUOUS
 62
    3
 10
842.79146
 20
1137.1409
 11
842.95477
 21
1137.1375
  0
LINE
  8
0-2
  6
CONTINUOUS
 62
    3
 10
842.95477
 20
1137.1375
 11
843.11535
 21
1137.1306
  0
LINE
  8
0-2
  6
CONTINUOUS
 62
    3
 10
843.11535
 20
1137.1306
 11
843.27099
 21
1137.1197
  0
LINE
  8
0-2
  6
CONTINUOUS
 62
    3
 10
843.27099
 20
1137.1197
 11
843.42342
 21
1137.1054
  0
LINE
  8
0-2
  6
CONTINUOUS
 62
    3
 10
1448.6874
 20
1128.1886
 11
1448.5657
 21
1129.1858
  0
LINE
  8
0-2
  6
CONTINUOUS
 62
    3
 10
1448.5657
 20
1129.1858
 11
1448.4365
 21
1130.0979
  0
LINE
  8
0-2
  6
CONTINUOUS
 62
    3
 10
1448.4365
 20
1130.0979
 11
1448.3009
 21
1130.9219
  0
LINE
  8
0-2
  6
CONTINUOUS
 62
    3
 10
1448.3009
 20
1130.9219
 11
1448.1579
 21
1131.6622
  0
LINE
  8
0-2
  6
CONTINUOUS
 62
    3
 10
1448.1579
 20
1131.6622
 11
1448.0075
 21
1132.3145
  0
LINE
  8
0-2
  6
CONTINUOUS
 62
    3
 10
1448.0075
 20
1132.3145
 11
1447.8511
 21
1132.8816
  0
LINE
  8
0-2
  6
CONTINUOUS
 62
    3
 10
1447.8511
 20
1132.8816
 11
1447.6868
 21
1133.3631
  0
LINE
  8
0-2
  6
CONTINUOUS
 62
    3
 10
1447.6868
 20
1133.3631
 11
1447.5156
 21
1133.7575
  0
LINE
  8
0-2
  6
CONTINUOUS
 62
    3
 10
1447.5156
 20
1133.7575
 11
1447.3369
 21
1134.0663
  0
LINE
  8
0-2
  6
CONTINUOUS
 62
    3
 10
1426.5515
 20
1128.1886
 11
1426.4837
 21
1128.978
  0
LINE
  8
0-2
  6
CONTINUOUS
 62
    3
 10
1426.4837
 20
1128.978
 11
1426.3728
 21
1129.7247
  0
LINE
  8
0-2
  6
CONTINUOUS
 62
    3
 10
1426.3728
 20
1129.7247
 11
1426.2224
 21
1130.429
  0
LINE
  8
0-2
  6
CONTINUOUS
 62
    3
 10
1426.2224
 20
1130.429
 11
1426.0373
 21
1131.0895
  0
LINE
  8
0-2
  6
CONTINUOUS
 62
    3
 10
1426.0373
 20
1131.0895
 11
1425.821
 21
1131.7062
  0
LINE
  8
0-2
  6
CONTINUOUS
 62
    3
 10
1425.821
 20
1131.7062
 11
1425.579
 21
1132.2788
  0
LINE
  8
0-2
  6
CONTINUOUS
 62
    3
 10
1425.579
 20
1132.2788
 11
1425.3143
 21
1132.8083
  0
LINE
  8
0-2
  6
CONTINUOUS
 62
    3
 10
1425.3143
 20
1132.8083
 11
1425.0317
 21
1133.2928
  0
LINE
  8
0-2
  6
CONTINUOUS
 62
    3
 10
1425.0317
 20
1133.2928
 11
1424.7363
 21
1133.7343
  0
LINE
  8
0-2
  6
CONTINUOUS
 62
    3
 10
1424.7363
 20
1133.7343
 11
1424.4324
 21
1134.1302
  0
LINE
  8
0-2
  6
CONTINUOUS
 62
    3
 10
1424.4324
 20
1134.1302
 11
1424.1226
 21
1134.4805
  0
LINE
  8
0-2
  6
CONTINUOUS
 62
    3
 10
1424.1226
 20
1134.4805
 11
1423.8133
 21
1134.7859
  0
LINE
  8
0-2
  6
CONTINUOUS
 62
    3
 10
1423.8133
 20
1134.7859
 11
1423.5075
 21
1135.0467
  0
LINE
  8
0-2
  6
CONTINUOUS
 62
    3
 10
1423.5075
 20
1135.0467
 11
1423.21
 21
1135.2615
  0
LINE
  8
0-2
  6
CONTINUOUS
 62
    3
 10
1396.2346
 20
1128.1886
 11
1396.0342
 21
1129.068
  0
LINE
  8
0-2
  6
CONTINUOUS
 62
    3
 10
1396.0342
 20
1129.068
 11
1395.7893
 21
1129.8905
  0
LINE
  8
0-2
  6
CONTINUOUS
 62
    3
 10
1395.7893
 20
1129.8905
 11
1395.5032
 21
1130.6586
  0
LINE
  8
0-2
  6
CONTINUOUS
 62
    3
 10
1395.5032
 20
1130.6586
 11
1395.1766
 21
1131.3702
  0
LINE
  8
0-2
  6
CONTINUOUS
 62
    3
 10
1395.1766
 20
1131.3702
 11
1394.8109
 21
1132.0284
  0
LINE
  8
0-2
  6
CONTINUOUS
 62
    3
 10
1394.8109
 20
1132.0284
 11
1394.409
 21
1132.6322
  0
LINE
  8
0-2
  6
CONTINUOUS
 62
    3
 10
1394.409
 20
1132.6322
 11
1393.9726
 21
1133.182
  0
LINE
  8
0-2
  6
CONTINUOUS
 62
    3
 10
1393.9726
 20
1133.182
 11
1393.5024
 21
1133.6788
  0
LINE
  8
0-2
  6
CONTINUOUS
 62
    3
 10
1393.5024
 20
1133.6788
 11
1393.0016
 21
1134.1218
  0
LINE
  8
0-2
  6
CONTINUOUS
 62
    3
 10
1393.0016
 20
1134.1218
 11
1392.4706
 21
1134.5132
  0
LINE
  8
0-2
  6
CONTINUOUS
 62
    3
 10
1392.4706
 20
1134.5132
 11
1391.9119
 21
1134.8521
  0
LINE
  8
0-2
  6
CONTINUOUS
 62
    3
 10
1391.9119
 20
1134.8521
 11
1391.3264
 21
1135.1397
  0
LINE
  8
0-2
  6
CONTINUOUS
 62
    3
 10
1391.3264
 20
1135.1397
 11
1390.7172
 21
1135.3748
  0
LINE
  8
0-2
  6
CONTINUOUS
 62
    3
 10
1390.7172
 20
1135.3748
 11
1390.0853
 21
1135.5609
  0
LINE
  8
0-2
  6
CONTINUOUS
 62
    3
 10
1448.6874
 20
1128.1886
 11
1458.6489
 21
1128.1886
  0
LINE
  8
0-2
  6
CONTINUOUS
 62
    3
 10
1426.5515
 20
1128.1886
 11
1442.2505
 21
1128.1886
  0
LINE
  8
0-2
  6
CONTINUOUS
 62
    3
 10
1396.2346
 20
1128.1886
 11
1417.3259
 21
1128.1886
  0
LINE
  8
0-2
  6
CONTINUOUS
 62
    3
 10
1384.4204
 20
1128.1886
 11
1466.316
 21
1237.8376
  0
LINE
  8
0-2
  6
CONTINUOUS
 62
    3
 10
538.6488
 20
1259.7668
 11
1048.6485
 21
1259.7668
  0
LINE
  8
0-2
  6
CONTINUOUS
 62
    3
 10
538.64831
 20
1237.8376
 11
1048.6485
 21
1237.8376
  0
LINE
  8
0-2
  6
CONTINUOUS
 62
    3
 10
1048.6485
 20
1295.1135
 11
1363.6488
 21
1295.1135
  0
LINE
  8
0-2
  6
CONTINUOUS
 62
    3
 10
538.64979
 20
1350.9084
 11
1048.6485
 21
1350.9084
  0
LINE
  8
0-2
  6
CONTINUOUS
 62
    3
 10
538.6488
 20
1237.8376
 11
1048.6485
 21
1237.8376
  0
LINE
  8
0-2
  6
CONTINUOUS
 62
    3
 10
1048.6485
 20
1386.1275
 11
997.67989
 21
1399.418
  0
LINE
  8
0-2
  6
CONTINUOUS
 62
    3
 10
1468.6484
 20
1295.1135
 11
1048.6485
 21
1295.1135
  0
LINE
  8
0-2
  6
CONTINUOUS
 62
    3
 10
1468.6484
 20
1280.4082
 11
1048.6485
 21
1280.4082
  0
LINE
  8
0-2
  6
CONTINUOUS
 62
    3
 10
538.64831
 20
1774.7667
 11
1048.6485
 21
1774.7667
  0
LINE
  8
0-2
  6
CONTINUOUS
 62
    3
 10
1468.6484
 20
1774.7667
 11
1558.6497
 21
1774.7667
  0
LINE
  8
0-2
  6
CONTINUOUS
 62
    3
 10
1468.6484
 20
1752.8376
 11
1558.6497
 21
1752.8376
  0
LINE
  8
0-2
  6
CONTINUOUS
 62
    3
 10
538.64831
 20
1752.8376
 11
1048.6485
 21
1752.8376
  0
LINE
  8
0-2
  6
CONTINUOUS
 62
    3
 10
1468.6484
 20
1350.9084
 11
1558.6517
 21
1350.9084
  0
LINE
  8
0-2
  6
CONTINUOUS
 62
    3
 10
1468.6484
 20
1372.8375
 11
1558.6517
 21
1372.8375
  0
LINE
  8
0-2
  6
CONTINUOUS
 62
    3
 10
538.64979
 20
1372.8375
 11
1048.6485
 21
1372.8375
  0
LINE
  8
0-2
  6
CONTINUOUS
 62
    3
 10
1344.247
 20
1997.4861
 11
1369.768
 21
1958.6727
  0
LINE
  8
0-2
  6
CONTINUOUS
 62
    3
 10
1397.0279
 20
1941.4157
 11
1358.3952
 21
1997.4861
  0
LINE
  8
0-2
  6
CONTINUOUS
 62
    3
 10
1384.4204
 20
1997.4861
 11
1452.5529
 21
1906.2654
  0
LINE
  8
0-2
  6
CONTINUOUS
 62
    3
 10
1048.6485
 20
2137.8376
 11
1456.6778
 21
1903.6539
  0
LINE
  8
0-2
  6
CONTINUOUS
 62
    3
 10
1043.9887
 20
1903.6539
 11
1456.6778
 21
1903.6539
  0
LINE
  8
0-2
  6
CONTINUOUS
 62
    7
 10
1468.6484
 20
1817.5033
 11
1468.6484
 21
1295.1135
  0
LINE
  8
0-2
  6
CONTINUOUS
 62
    3
 10
1468.6484
 20
1817.5033
 11
1048.6485
 21
1817.5033
  0
LINE
  8
0-2
  6
CONTINUOUS
 62
    3
 10
1468.6484
 20
1832.2092
 11
1048.6485
 21
1832.2092
  0
LINE
  8
0-2
  6
CONTINUOUS
 62
    3
 10
1288.6488
 20
1747.7765
 11
1288.6488
 21
1364.8402
  0
LINE
  8
0-2
  6
CONTINUOUS
 62
    3
 10
1393.6484
 20
1747.7765
 11
1393.6484
 21
1364.8402
  0
LINE
  8
0-2
  6
CONTINUOUS
 62
    3
 10
1183.6482
 20
1747.7765
 11
1123.6485
 21
1747.7765
  0
LINE
  8
0-2
  6
CONTINUOUS
 62
    3
 10
1183.6482
 20
1747.7765
 11
1183.6482
 21
1364.8402
  0
LINE
  8
0-2
  6
CONTINUOUS
 62
    3
 10
1183.6482
 20
1364.8402
 11
1123.6485
 21
1364.8402
  0
LINE
  8
0-2
  6
CONTINUOUS
 62
    3
 10
1288.6488
 20
1747.7765
 11
1228.6486
 21
1747.7765
  0
LINE
  8
0-2
  6
CONTINUOUS
 62
    3
 10
1393.6484
 20
1747.7765
 11
1333.6482
 21
1747.7765
  0
LINE
  8
0-2
  6
CONTINUOUS
 62
    3
 10
1393.6484
 20
1364.8402
 11
1333.6482
 21
1364.8402
  0
LINE
  8
0-2
  6
CONTINUOUS
 62
    3
 10
1288.6488
 20
1364.8402
 11
1228.6486
 21
1364.8402
  0
LINE
  8
0-2
  6
DASHED1
 62
    3
 10
1148.6473
 20
1714.6319
 11
1048.6485
 21
1714.6319
  0
LINE
  8
0-2
  6
CONTINUOUS
 62
    3
 10
1334.4702
 20
1295.1135
 11
1319.3942
 21
1324.5247
  0
LINE
  8
0-2
  6
CONTINUOUS
 62
    3
 10
1305.2921
 20
1295.1135
 11
1292.2713
 21
1324.5247
  0
LINE
  8
0-2
  6
CONTINUOUS
 62
    3
 10
1276.1135
 20
1295.1135
 11
1264.9797
 21
1324.5247
  0
LINE
  8
0-2
  6
CONTINUOUS
 62
    3
 10
1070.588
 20
1324.5247
 11
1071.8648
 21
1295.1135
  0
LINE
  8
0-2
  6
CONTINUOUS
 62
    3
 10
1101.0429
 20
1295.1135
 11
1098.6353
 21
1324.5247
  0
LINE
  8
0-2
  6
CONTINUOUS
 62
    3
 10
1130.2215
 20
1295.1135
 11
1126.6059
 21
1324.5247
  0
LINE
  8
0-2
  6
CONTINUOUS
 62
    3
 10
1159.4001
 20
1295.1135
 11
1154.4919
 21
1324.5247
  0
LINE
  8
0-2
  6
CONTINUOUS
 62
    3
 10
1188.5787
 20
1295.1135
 11
1182.2838
 21
1324.5247
  0
LINE
  8
0-2
  6
CONTINUOUS
 62
    3
 10
1217.7568
 20
1295.1135
 11
1209.9708
 21
1324.5247
  0
LINE
  8
0-2
  6
CONTINUOUS
 62
    3
 10
1246.9349
 20
1295.1135
 11
1237.5416
 21
1324.5247
  0
LINE
  8
0-2
  6
CONTINUOUS
 62
    3
 10
1363.6488
 20
1295.1135
 11
1346.326
 21
1324.5247
  0
LINE
  8
0-2
  6
CONTINUOUS
 62
    3
 10
1346.326
 20
1324.5247
 11
1048.6485
 21
1324.5247
  0
LINE
  8
0-2
  6
DASHED1
 62
    3
 10
1346.326
 20
1324.5247
 11
1148.6473
 21
1714.6319
  0
LINE
  8
0-8
  6
CONTINUOUS
 62
    7
 10
897.34848
 20
2137.8376
 11
308.64884
 21
2137.8376
  0
LINE
  8
0-8
  6
CONTINUOUS
 62
    7
 10
585.9126
 20
887.83887
 11
308.64884
 21
887.83887
  0
LINE
  8
0-8
  6
CONTINUOUS
 62
    7
 10
551.59683
 20
887.83887
 11
308.64884
 21
887.83887
  0
LINE
  8
0-8
  6
CONTINUOUS
 62
    7
 10
551.59634
 20
887.83887
 11
308.64884
 21
887.83887
  0
LINE
  8
0-8
  6
CONTINUOUS
 62
    7
 10
551.59634
 20
887.83788
 11
308.64884
 21
887.83788
  0
LINE
  8
0-8
  6
CONTINUOUS
 62
    7
 10
537.52939
 20
887.83924
 11
308.64884
 21
887.83924
  0
LINE
  8
0-8
  6
CONTINUOUS
 62
    7
 10
537.52939
 20
887.83788
 11
308.64884
 21
887.83788
  0
LINE
  8
0-2
  6
CONTINUOUS
 62
    3
 10
741.1587
 20
900.58177
 11
1356.1585
 21
900.58177
  0
LINE
  8
0-2
  6
CONTINUOUS
 62
    3
 10
741.1587
 20
887.83912
 11
1356.1585
 21
887.83912
  0
LINE
  8
0-2
  6
CONTINUOUS
 62
    3
 10
741.1587
 20
938.81197
 11
741.1587
 21
900.58177
  0
LINE
  8
0-2
  6
CONTINUOUS
 62
    3
 10
741.1587
 20
938.81197
 11
1356.1585
 21
938.81197
  0
LINE
  8
0-2
  6
CONTINUOUS
 62
    3
 10
741.14849
 20
1128.1886
 11
741.14849
 21
951.55537
  0
LINE
  8
0-2
  6
CONTINUOUS
 62
    3
 10
802.58397
 20
1128.1886
 11
802.58397
 21
951.55537
  0
LINE
  8
0-2
  6
CONTINUOUS
 62
    3
 10
741.15697
 20
951.55537
 11
1356.1585
 21
951.55537
  0
LINE
  8
0-8
  6
CONTINUOUS
 62
    7
 10
741.14849
 20
868.39727
 11
741.14849
 21
713.54695
  0
LINE
  8
0-8
  6
CONTINUOUS
 62
    7
 10
741.14849
 20
713.54695
 11
1356.1485
 21
713.5467
  0
LINE
  8
0-8
  6
CONTINUOUS
 62
    7
 10
1356.1485
 20
868.39727
 11
1356.1485
 21
713.5467
  0
LINE
  8
0-2
  6
CONTINUOUS
 62
    3
 10
1356.1485
 20
1280.4083
 11
1356.1485
 21
951.55537
  0
LINE
  8
0-2
  6
CONTINUOUS
 62
    3
 10
1356.1485
 20
1237.8376
 11
1558.6502
 21
1237.8376
  0
LINE
  8
0-2
  6
CONTINUOUS
 62
    3
 10
1356.1485
 20
1259.7668
 11
1558.6502
 21
1259.7668
  0
LINE
  8
0-2
  6
CONTINUOUS
 62
    3
 10
1356.1485
 20
1128.1886
 11
1384.4204
 21
1128.1886
  0
LINE
  8
0-2
  6
CONTINUOUS
 62
    3
 10
1433.943
 20
1237.8376
 11
1358.3948
 21
1128.1886
  0
LINE
  8
0-2
  6
CONTINUOUS
 62
    3
 10
1356.1485
 20
1146.2896
 11
1416.3441
 21
1237.8376
  0
LINE
  8
0-2
  6
CONTINUOUS
 62
    3
 10
1356.1585
 20
938.81246
 11
1356.1585
 21
900.58177
  0
LINE
  8
0-1
  6
CENTER2
 62
    7
 10
1048.6485
 20
2137.8376
 11
1048.6485
 21
887.83912
  0
LINE
  8
0-2
  6
CONTINUOUS
 62
    3
 10
538.64979
 20
1372.8373
 11
536.91358
 21
1372.6707
  0
LINE
  8
0-2
  6
CONTINUOUS
 62
    3
 10
536.91358
 20
1372.6707
 11
535.23013
 21
1372.1761
  0
LINE
  8
0-2
  6
CONTINUOUS
 62
    3
 10
535.23013
 20
1372.1761
 11
533.65058
 21
1371.3684
  0
LINE
  8
0-2
  6
CONTINUOUS
 62
    3
 10
533.65058
 20
1371.3684
 11
532.22293
 21
1370.2721
  0
LINE
  8
0-2
  6
CONTINUOUS
 62
    3
 10
532.22293
 20
1370.2721
 11
530.99055
 21
1368.9207
  0
LINE
  8
0-2
  6
CONTINUOUS
 62
    3
 10
530.99055
 20
1368.9207
 11
529.9909
 21
1367.3551
  0
LINE
  8
0-2
  6
CONTINUOUS
 62
    3
 10
529.9909
 20
1367.3551
 11
529.25434
 21
1365.623
  0
LINE
  8
0-2
  6
CONTINUOUS
 62
    3
 10
529.25434
 20
1365.623
 11
528.80326
 21
1363.7769
  0
LINE
  8
0-2
  6
CONTINUOUS
 62
    3
 10
528.80326
 20
1363.7769
 11
528.65136
 21
1361.8729
  0
LINE
  8
0-2
  6
CONTINUOUS
 62
    3
 10
528.65136
 20
1361.8729
 11
528.80326
 21
1359.969
  0
LINE
  8
0-2
  6
CONTINUOUS
 62
    3
 10
528.80326
 20
1359.969
 11
529.25434
 21
1358.1229
  0
LINE
  8
0-2
  6
CONTINUOUS
 62
    3
 10
529.25434
 20
1358.1229
 11
529.9909
 21
1356.3907
  0
LINE
  8
0-2
  6
CONTINUOUS
 62
    3
 10
529.9909
 20
1356.3907
 11
530.99055
 21
1354.8251
  0
LINE
  8
0-2
  6
CONTINUOUS
 62
    3
 10
530.99055
 20
1354.8251
 11
532.22293
 21
1353.4737
  0
LINE
  8
0-2
  6
CONTINUOUS
 62
    3
 10
532.22293
 20
1353.4737
 11
533.65058
 21
1352.3775
  0
LINE
  8
0-2
  6
CONTINUOUS
 62
    3
 10
533.65058
 20
1352.3775
 11
535.23013
 21
1351.5698
  0
LINE
  8
0-2
  6
CONTINUOUS
 62
    3
 10
535.23013
 20
1351.5698
 11
536.91358
 21
1351.0751
  0
LINE
  8
0-2
  6
CONTINUOUS
 62
    3
 10
536.91358
 20
1351.0751
 11
538.64979
 21
1350.9085
  0
LINE
  8
0-2
  6
CONTINUOUS
 62
    3
 10
538.6488
 20
1259.7666
 11
536.91259
 21
1259.6
  0
LINE
  8
0-2
  6
CONTINUOUS
 62
    3
 10
536.91259
 20
1259.6
 11
535.22914
 21
1259.1054
  0
LINE
  8
0-2
  6
CONTINUOUS
 62
    3
 10
535.22914
 20
1259.1054
 11
533.64959
 21
1258.2976
  0
LINE
  8
0-2
  6
CONTINUOUS
 62
    3
 10
533.64959
 20
1258.2976
 11
532.22194
 21
1257.2014
  0
LINE
  8
0-2
  6
CONTINUOUS
 62
    3
 10
532.22194
 20
1257.2014
 11
530.98956
 21
1255.85
  0
LINE
  8
0-2
  6
CONTINUOUS
 62
    3
 10
530.98956
 20
1255.85
 11
529.98991
 21
1254.2844
  0
LINE
  8
0-2
  6
CONTINUOUS
 62
    3
 10
529.98991
 20
1254.2844
 11
529.25335
 21
1252.5522
  0
LINE
  8
0-2
  6
CONTINUOUS
 62
    3
 10
529.25335
 20
1252.5522
 11
528.80227
 21
1250.7061
  0
LINE
  8
0-2
  6
CONTINUOUS
 62
    3
 10
528.80227
 20
1250.7061
 11
528.65037
 21
1248.8022
  0
LINE
  8
0-2
  6
CONTINUOUS
 62
    3
 10
528.65037
 20
1248.8022
 11
528.80227
 21
1246.8983
  0
LINE
  8
0-2
  6
CONTINUOUS
 62
    3
 10
528.80227
 20
1246.8983
 11
529.25335
 21
1245.0522
  0
LINE
  8
0-2
  6
CONTINUOUS
 62
    3
 10
529.25335
 20
1245.0522
 11
529.98991
 21
1243.32
  0
LINE
  8
0-2
  6
CONTINUOUS
 62
    3
 10
529.98991
 20
1243.32
 11
530.98956
 21
1241.7544
  0
LINE
  8
0-2
  6
CONTINUOUS
 62
    3
 10
530.98956
 20
1241.7544
 11
532.22194
 21
1240.403
  0
LINE
  8
0-2
  6
CONTINUOUS
 62
    3
 10
532.22194
 20
1240.403
 11
533.64959
 21
1239.3068
  0
LINE
  8
0-2
  6
CONTINUOUS
 62
    3
 10
533.64959
 20
1239.3068
 11
535.22914
 21
1238.499
  0
LINE
  8
0-2
  6
CONTINUOUS
 62
    3
 10
535.22914
 20
1238.499
 11
536.91259
 21
1238.0044
  0
LINE
  8
0-2
  6
CONTINUOUS
 62
    3
 10
536.91259
 20
1238.0044
 11
538.6488
 21
1237.8378
  0
LINE
  8
0-2
  6
CONTINUOUS
 62
    3
 10
1558.6497
 20
1350.9085
 11
1560.3859
 21
1351.0751
  0
LINE
  8
0-2
  6
CONTINUOUS
 62
    3
 10
1560.3859
 20
1351.0751
 11
1562.0694
 21
1351.5698
  0
LINE
  8
0-2
  6
CONTINUOUS
 62
    3
 10
1562.0694
 20
1351.5698
 11
1563.6489
 21
1352.3775
  0
LINE
  8
0-2
  6
CONTINUOUS
 62
    3
 10
1563.6489
 20
1352.3775
 11
1565.0766
 21
1353.4737
  0
LINE
  8
0-2
  6
CONTINUOUS
 62
    3
 10
1565.0766
 20
1353.4737
 11
1566.3089
 21
1354.8251
  0
LINE
  8
0-2
  6
CONTINUOUS
 62
    3
 10
1566.3089
 20
1354.8251
 11
1567.3086
 21
1356.3907
  0
LINE
  8
0-2
  6
CONTINUOUS
 62
    3
 10
1567.3086
 20
1356.3907
 11
1568.0452
 21
1358.1229
  0
LINE
  8
0-2
  6
CONTINUOUS
 62
    3
 10
1568.0452
 20
1358.1229
 11
1568.4962
 21
1359.969
  0
LINE
  8
0-2
  6
CONTINUOUS
 62
    3
 10
1568.4962
 20
1359.969
 11
1568.6481
 21
1361.8729
  0
LINE
  8
0-2
  6
CONTINUOUS
 62
    3
 10
1568.6481
 20
1361.8729
 11
1568.4962
 21
1363.7769
  0
LINE
  8
0-2
  6
CONTINUOUS
 62
    3
 10
1568.4962
 20
1363.7769
 11
1568.0452
 21
1365.623
  0
LINE
  8
0-2
  6
CONTINUOUS
 62
    3
 10
1568.0452
 20
1365.623
 11
1567.3086
 21
1367.3551
  0
LINE
  8
0-2
  6
CONTINUOUS
 62
    3
 10
1567.3086
 20
1367.3551
 11
1566.3089
 21
1368.9207
  0
LINE
  8
0-2
  6
CONTINUOUS
 62
    3
 10
1566.3089
 20
1368.9207
 11
1565.0766
 21
1370.2721
  0
LINE
  8
0-2
  6
CONTINUOUS
 62
    3
 10
1565.0766
 20
1370.2721
 11
1563.6489
 21
1371.3684
  0
LINE
  8
0-2
  6
CONTINUOUS
 62
    3
 10
1563.6489
 20
1371.3684
 11
1562.0694
 21
1372.1761
  0
LINE
  8
0-2
  6
CONTINUOUS
 62
    3
 10
1562.0694
 20
1372.1761
 11
1560.3859
 21
1372.6707
  0
LINE
  8
0-2
  6
CONTINUOUS
 62
    3
 10
1560.3859
 20
1372.6707
 11
1558.6497
 21
1372.8373
  0
LINE
  8
0-2
  6
CONTINUOUS
 62
    3
 10
1558.6487
 20
1237.8378
 11
1560.3849
 21
1238.0044
  0
LINE
  8
0-2
  6
CONTINUOUS
 62
    3
 10
1560.3849
 20
1238.0044
 11
1562.0684
 21
1238.499
  0
LINE
  8
0-2
  6
CONTINUOUS
 62
    3
 10
1562.0684
 20
1238.499
 11
1563.6479
 21
1239.3068
  0
LINE
  8
0-2
  6
CONTINUOUS
 62
    3
 10
1563.6479
 20
1239.3068
 11
1565.0756
 21
1240.403
  0
LINE
  8
0-2
  6
CONTINUOUS
 62
    3
 10
1565.0756
 20
1240.403
 11
1566.308
 21
1241.7544
  0
LINE
  8
0-2
  6
CONTINUOUS
 62
    3
 10
1566.308
 20
1241.7544
 11
1567.3076
 21
1243.32
  0
LINE
  8
0-2
  6
CONTINUOUS
 62
    3
 10
1567.3076
 20
1243.32
 11
1568.0442
 21
1245.0522
  0
LINE
  8
0-2
  6
CONTINUOUS
 62
    3
 10
1568.0442
 20
1245.0522
 11
1568.4952
 21
1246.8983
  0
LINE
  8
0-2
  6
CONTINUOUS
 62
    3
 10
1568.4952
 20
1246.8983
 11
1568.6471
 21
1248.8022
  0
LINE
  8
0-2
  6
CONTINUOUS
 62
    3
 10
1568.6471
 20
1248.8022
 11
1568.4952
 21
1250.7061
  0
LINE
  8
0-2
  6
CONTINUOUS
 62
    3
 10
1568.4952
 20
1250.7061
 11
1568.0442
 21
1252.5522
  0
LINE
  8
0-2
  6
CONTINUOUS
 62
    3
 10
1568.0442
 20
1252.5522
 11
1567.3076
 21
1254.2844
  0
LINE
  8
0-2
  6
CONTINUOUS
 62
    3
 10
1567.3076
 20
1254.2844
 11
1566.308
 21
1255.85
  0
LINE
  8
0-2
  6
CONTINUOUS
 62
    3
 10
1566.308
 20
1255.85
 11
1565.0756
 21
1257.2014
  0
LINE
  8
0-2
  6
CONTINUOUS
 62
    3
 10
1565.0756
 20
1257.2014
 11
1563.6479
 21
1258.2976
  0
LINE
  8
0-2
  6
CONTINUOUS
 62
    3
 10
1563.6479
 20
1258.2976
 11
1562.0684
 21
1259.1054
  0
LINE
  8
0-2
  6
CONTINUOUS
 62
    3
 10
1562.0684
 20
1259.1054
 11
1560.3849
 21
1259.6
  0
LINE
  8
0-2
  6
CONTINUOUS
 62
    3
 10
1560.3849
 20
1259.6
 11
1558.6487
 21
1259.7666
  0
LINE
  8
0-2
  6
CONTINUOUS
 62
    3
 10
538.64831
 20
1887.8374
 11
536.9121
 21
1887.6709
  0
LINE
  8
0-2
  6
CONTINUOUS
 62
    3
 10
536.9121
 20
1887.6709
 11
535.22864
 21
1887.1762
  0
LINE
  8
0-2
  6
CONTINUOUS
 62
    3
 10
535.22864
 20
1887.1762
 11
533.64909
 21
1886.3685
  0
LINE
  8
0-2
  6
CONTINUOUS
 62
    3
 10
533.64909
 20
1886.3685
 11
532.22144
 21
1885.2723
  0
LINE
  8
0-2
  6
CONTINUOUS
 62
    3
 10
532.22144
 20
1885.2723
 11
530.98907
 21
1883.9208
  0
LINE
  8
0-2
  6
CONTINUOUS
 62
    3
 10
530.98907
 20
1883.9208
 11
529.98941
 21
1882.3552
  0
LINE
  8
0-2
  6
CONTINUOUS
 62
    3
 10
529.98941
 20
1882.3552
 11
529.25286
 21
1880.6231
  0
LINE
  8
0-2
  6
CONTINUOUS
 62
    3
 10
529.25286
 20
1880.6231
 11
528.80178
 21
1878.777
  0
LINE
  8
0-2
  6
CONTINUOUS
 62
    3
 10
528.80178
 20
1878.777
 11
528.64988
 21
1876.873
  0
LINE
  8
0-2
  6
CONTINUOUS
 62
    3
 10
528.64988
 20
1876.873
 11
528.80178
 21
1874.9691
  0
LINE
  8
0-2
  6
CONTINUOUS
 62
    3
 10
528.80178
 20
1874.9691
 11
529.25286
 21
1873.123
  0
LINE
  8
0-2
  6
CONTINUOUS
 62
    3
 10
529.25286
 20
1873.123
 11
529.98941
 21
1871.3908
  0
LINE
  8
0-2
  6
CONTINUOUS
 62
    3
 10
529.98941
 20
1871.3908
 11
530.98907
 21
1869.8253
  0
LINE
  8
0-2
  6
CONTINUOUS
 62
    3
 10
530.98907
 20
1869.8253
 11
532.22144
 21
1868.4738
  0
LINE
  8
0-2
  6
CONTINUOUS
 62
    3
 10
532.22144
 20
1868.4738
 11
533.64909
 21
1867.3776
  0
LINE
  8
0-2
  6
CONTINUOUS
 62
    3
 10
533.64909
 20
1867.3776
 11
535.22864
 21
1866.5699
  0
LINE
  8
0-2
  6
CONTINUOUS
 62
    3
 10
535.22864
 20
1866.5699
 11
536.9121
 21
1866.0752
  0
LINE
  8
0-2
  6
CONTINUOUS
 62
    3
 10
536.9121
 20
1866.0752
 11
538.64831
 21
1865.9086
  0
LINE
  8
0-2
  6
CONTINUOUS
 62
    3
 10
538.64831
 20
1774.7666
 11
536.9121
 21
1774.6
  0
LINE
  8
0-2
  6
CONTINUOUS
 62
    3
 10
536.9121
 20
1774.6
 11
535.22864
 21
1774.1053
  0
LINE
  8
0-2
  6
CONTINUOUS
 62
    3
 10
535.22864
 20
1774.1053
 11
533.64909
 21
1773.2976
  0
LINE
  8
0-2
  6
CONTINUOUS
 62
    3
 10
533.64909
 20
1773.2976
 11
532.22144
 21
1772.2014
  0
LINE
  8
0-2
  6
CONTINUOUS
 62
    3
 10
532.22144
 20
1772.2014
 11
530.98907
 21
1770.85
  0
LINE
  8
0-2
  6
CONTINUOUS
 62
    3
 10
530.98907
 20
1770.85
 11
529.98941
 21
1769.2844
  0
LINE
  8
0-2
  6
CONTINUOUS
 62
    3
 10
529.98941
 20
1769.2844
 11
529.25286
 21
1767.5522
  0
LINE
  8
0-2
  6
CONTINUOUS
 62
    3
 10
529.25286
 20
1767.5522
 11
528.80178
 21
1765.7061
  0
LINE
  8
0-2
  6
CONTINUOUS
 62
    3
 10
528.80178
 20
1765.7061
 11
528.64988
 21
1763.8022
  0
LINE
  8
0-2
  6
CONTINUOUS
 62
    3
 10
528.64988
 20
1763.8022
 11
528.80178
 21
1761.8982
  0
LINE
  8
0-2
  6
CONTINUOUS
 62
    3
 10
528.80178
 20
1761.8982
 11
529.25286
 21
1760.0521
  0
LINE
  8
0-2
  6
CONTINUOUS
 62
    3
 10
529.25286
 20
1760.0521
 11
529.98941
 21
1758.32
  0
LINE
  8
0-2
  6
CONTINUOUS
 62
    3
 10
529.98941
 20
1758.32
 11
530.98907
 21
1756.7544
  0
LINE
  8
0-2
  6
CONTINUOUS
 62
    3
 10
530.98907
 20
1756.7544
 11
532.22144
 21
1755.403
  0
LINE
  8
0-2
  6
CONTINUOUS
 62
    3
 10
532.22144
 20
1755.403
 11
533.64909
 21
1754.3068
  0
LINE
  8
0-2
  6
CONTINUOUS
 62
    3
 10
533.64909
 20
1754.3068
 11
535.22864
 21
1753.499
  0
LINE
  8
0-2
  6
CONTINUOUS
 62
    3
 10
535.22864
 20
1753.499
 11
536.9121
 21
1753.0044
  0
LINE
  8
0-2
  6
CONTINUOUS
 62
    3
 10
536.9121
 20
1753.0044
 11
538.64831
 21
1752.8378
  0
LINE
  8
0-2
  6
CONTINUOUS
 62
    3
 10
1558.6487
 20
1865.9086
 11
1560.3849
 21
1866.0752
  0
LINE
  8
0-2
  6
CONTINUOUS
 62
    3
 10
1560.3849
 20
1866.0752
 11
1562.0684
 21
1866.5699
  0
LINE
  8
0-2
  6
CONTINUOUS
 62
    3
 10
1562.0684
 20
1866.5699
 11
1563.6479
 21
1867.3776
  0
LINE
  8
0-2
  6
CONTINUOUS
 62
    3
 10
1563.6479
 20
1867.3776
 11
1565.0756
 21
1868.4738
  0
LINE
  8
0-2
  6
CONTINUOUS
 62
    3
 10
1565.0756
 20
1868.4738
 11
1566.308
 21
1869.8253
  0
LINE
  8
0-2
  6
CONTINUOUS
 62
    3
 10
1566.308
 20
1869.8253
 11
1567.3076
 21
1871.3908
  0
LINE
  8
0-2
  6
CONTINUOUS
 62
    3
 10
1567.3076
 20
1871.3908
 11
1568.0442
 21
1873.123
  0
LINE
  8
0-2
  6
CONTINUOUS
 62
    3
 10
1568.0442
 20
1873.123
 11
1568.4952
 21
1874.9691
  0
LINE
  8
0-2
  6
CONTINUOUS
 62
    3
 10
1568.4952
 20
1874.9691
 11
1568.6471
 21
1876.873
  0
LINE
  8
0-2
  6
CONTINUOUS
 62
    3
 10
1568.6471
 20
1876.873
 11
1568.4952
 21
1878.777
  0
LINE
  8
0-2
  6
CONTINUOUS
 62
    3
 10
1568.4952
 20
1878.777
 11
1568.0442
 21
1880.6231
  0
LINE
  8
0-2
  6
CONTINUOUS
 62
    3
 10
1568.0442
 20
1880.6231
 11
1567.3076
 21
1882.3552
  0
LINE
  8
0-2
  6
CONTINUOUS
 62
    3
 10
1567.3076
 20
1882.3552
 11
1566.308
 21
1883.9208
  0
LINE
  8
0-2
  6
CONTINUOUS
 62
    3
 10
1566.308
 20
1883.9208
 11
1565.0756
 21
1885.2723
  0
LINE
  8
0-2
  6
CONTINUOUS
 62
    3
 10
1565.0756
 20
1885.2723
 11
1563.6479
 21
1886.3685
  0
LINE
  8
0-2
  6
CONTINUOUS
 62
    3
 10
1563.6479
 20
1886.3685
 11
1562.0684
 21
1887.1762
  0
LINE
  8
0-2
  6
CONTINUOUS
 62
    3
 10
1562.0684
 20
1887.1762
 11
1560.3849
 21
1887.6709
  0
LINE
  8
0-2
  6
CONTINUOUS
 62
    3
 10
1560.3849
 20
1887.6709
 11
1558.6487
 21
1887.8374
  0
LINE
  8
0-2
  6
CONTINUOUS
 62
    3
 10
1558.6487
 20
1752.8378
 11
1560.3849
 21
1753.0044
  0
LINE
  8
0-2
  6
CONTINUOUS
 62
    3
 10
1560.3849
 20
1753.0044
 11
1562.0684
 21
1753.499
  0
LINE
  8
0-2
  6
CONTINUOUS
 62
    3
 10
1562.0684
 20
1753.499
 11
1563.6479
 21
1754.3068
  0
LINE
  8
0-2
  6
CONTINUOUS
 62
    3
 10
1563.6479
 20
1754.3068
 11
1565.0756
 21
1755.403
  0
LINE
  8
0-2
  6
CONTINUOUS
 62
    3
 10
1565.0756
 20
1755.403
 11
1566.308
 21
1756.7544
  0
LINE
  8
0-2
  6
CONTINUOUS
 62
    3
 10
1566.308
 20
1756.7544
 11
1567.3076
 21
1758.32
  0
LINE
  8
0-2
  6
CONTINUOUS
 62
    3
 10
1567.3076
 20
1758.32
 11
1568.0442
 21
1760.0521
  0
LINE
  8
0-2
  6
CONTINUOUS
 62
    3
 10
1568.0442
 20
1760.0521
 11
1568.4952
 21
1761.8982
  0
LINE
  8
0-2
  6
CONTINUOUS
 62
    3
 10
1568.4952
 20
1761.8982
 11
1568.6471
 21
1763.8022
  0
LINE
  8
0-2
  6
CONTINUOUS
 62
    3
 10
1568.6471
 20
1763.8022
 11
1568.4952
 21
1765.7061
  0
LINE
  8
0-2
  6
CONTINUOUS
 62
    3
 10
1568.4952
 20
1765.7061
 11
1568.0442
 21
1767.5522
  0
LINE
  8
0-2
  6
CONTINUOUS
 62
    3
 10
1568.0442
 20
1767.5522
 11
1567.3076
 21
1769.2844
  0
LINE
  8
0-2
  6
CONTINUOUS
 62
    3
 10
1567.3076
 20
1769.2844
 11
1566.308
 21
1770.85
  0
LINE
  8
0-2
  6
CONTINUOUS
 62
    3
 10
1566.308
 20
1770.85
 11
1565.0756
 21
1772.2014
  0
LINE
  8
0-2
  6
CONTINUOUS
 62
    3
 10
1565.0756
 20
1772.2014
 11
1563.6479
 21
1773.2976
  0
LINE
  8
0-2
  6
CONTINUOUS
 62
    3
 10
1563.6479
 20
1773.2976
 11
1562.0684
 21
1774.1053
  0
LINE
  8
0-2
  6
CONTINUOUS
 62
    3
 10
1562.0684
 20
1774.1053
 11
1560.3849
 21
1774.6
  0
LINE
  8
0-2
  6
CONTINUOUS
 62
    3
 10
1560.3849
 20
1774.6
 11
1558.6487
 21
1774.7666
  0
LINE
  8
0-2
  6
CONTINUOUS
 62
    3
 10
1007.6748
 20
1997.4869
 11
1008.1987
 21
1995.5742
  0
LINE
  8
0-2
  6
CONTINUOUS
 62
    3
 10
1008.1987
 20
1995.5742
 11
1009.0174
 21
1993.7903
  0
LINE
  8
0-2
  6
CONTINUOUS
 62
    3
 10
1009.0174
 20
1993.7903
 11
1010.1062
 21
1992.1893
  0
LINE
  8
0-2
  6
CONTINUOUS
 62
    3
 10
1010.1062
 20
1992.1893
 11
1011.432
 21
1990.8201
  0
LINE
  8
0-2
  6
CONTINUOUS
 62
    3
 10
1011.432
 20
1990.8201
 11
1012.9544
 21
1989.7241
  0
LINE
  8
0-2
  6
CONTINUOUS
 62
    3
 10
1012.9544
 20
1989.7241
 11
1014.6273
 21
1988.9346
  0
LINE
  8
0-2
  6
CONTINUOUS
 62
    3
 10
1014.6273
 20
1988.9346
 11
1016.3998
 21
1988.4757
  0
LINE
  8
0-2
  6
CONTINUOUS
 62
    3
 10
1016.3998
 20
1988.4757
 11
1018.218
 21
1988.3613
  0
LINE
  8
0-2
  6
CONTINUOUS
 62
    3
 10
1018.218
 20
1988.3613
 11
1020.0267
 21
1988.5949
  0
LINE
  8
0-2
  6
CONTINUOUS
 62
    3
 10
1020.0267
 20
1988.5949
 11
1021.7709
 21
1989.1694
  0
LINE
  8
0-2
  6
CONTINUOUS
 62
    3
 10
1021.7709
 20
1989.1694
 11
1023.3977
 21
1990.0672
  0
LINE
  8
0-2
  6
CONTINUOUS
 62
    3
 10
1023.3977
 20
1990.0672
 11
1024.8576
 21
1991.2612
  0
LINE
  8
0-2
  6
CONTINUOUS
 62
    3
 10
1024.8576
 20
1991.2612
 11
1026.1062
 21
1992.7151
  0
LINE
  8
0-2
  6
CONTINUOUS
 62
    3
 10
1026.1062
 20
1992.7151
 11
1027.1056
 21
1994.3846
  0
LINE
  8
0-2
  6
CONTINUOUS
 62
    3
 10
1027.1056
 20
1994.3846
 11
1027.8255
 21
1996.2191
  0
LINE
  8
0-2
  6
CONTINUOUS
 62
    3
 10
1027.8255
 20
1996.2191
 11
1028.1353
 21
1997.4869
  0
LINE
  8
0-2
  6
CONTINUOUS
 62
    3
 10
751.87331
 20
1784.8554
 11
751.78217
 21
1785.9978
  0
LINE
  8
0-2
  6
CONTINUOUS
 62
    3
 10
751.78217
 20
1785.9978
 11
751.5115
 21
1787.1055
  0
LINE
  8
0-2
  6
CONTINUOUS
 62
    3
 10
751.5115
 20
1787.1055
 11
751.06955
 21
1788.1448
  0
LINE
  8
0-2
  6
CONTINUOUS
 62
    3
 10
751.06955
 20
1788.1448
 11
750.46973
 21
1789.0842
  0
LINE
  8
0-2
  6
CONTINUOUS
 62
    3
 10
750.46973
 20
1789.0842
 11
749.73027
 21
1789.8951
  0
LINE
  8
0-2
  6
CONTINUOUS
 62
    3
 10
749.73027
 20
1789.8951
 11
748.87364
 21
1790.5529
  0
LINE
  8
0-2
  6
CONTINUOUS
 62
    3
 10
748.87364
 20
1790.5529
 11
747.92587
 21
1791.0375
  0
LINE
  8
0-2
  6
CONTINUOUS
 62
    3
 10
747.92587
 20
1791.0375
 11
746.91575
 21
1791.3344
  0
LINE
  8
0-2
  6
CONTINUOUS
 62
    3
 10
746.91575
 20
1791.3344
 11
745.87397
 21
1791.4343
  0
LINE
  8
0-2
  6
CONTINUOUS
 62
    3
 10
745.87397
 20
1791.4343
 11
744.8322
 21
1791.3344
  0
LINE
  8
0-2
  6
CONTINUOUS
 62
    3
 10
744.8322
 20
1791.3344
 11
743.82208
 21
1791.0375
  0
LINE
  8
0-2
  6
CONTINUOUS
 62
    3
 10
743.82208
 20
1791.0375
 11
742.87431
 21
1790.5529
  0
LINE
  8
0-2
  6
CONTINUOUS
 62
    3
 10
742.87431
 20
1790.5529
 11
742.01768
 21
1789.8951
  0
LINE
  8
0-2
  6
CONTINUOUS
 62
    3
 10
742.01768
 20
1789.8951
 11
741.27822
 21
1789.0842
  0
LINE
  8
0-2
  6
CONTINUOUS
 62
    3
 10
741.27822
 20
1789.0842
 11
740.6784
 21
1788.1448
  0
LINE
  8
0-2
  6
CONTINUOUS
 62
    3
 10
740.6784
 20
1788.1448
 11
740.23644
 21
1787.1055
  0
LINE
  8
0-2
  6
CONTINUOUS
 62
    3
 10
740.23644
 20
1787.1055
 11
739.96578
 21
1785.9978
  0
LINE
  8
0-2
  6
CONTINUOUS
 62
    3
 10
739.96578
 20
1785.9978
 11
739.87464
 21
1784.8554
  0
LINE
  8
0-2
  6
CONTINUOUS
 62
    3
 10
739.87464
 20
1784.8554
 11
739.96578
 21
1783.7129
  0
LINE
  8
0-2
  6
CONTINUOUS
 62
    3
 10
739.96578
 20
1783.7129
 11
740.23644
 21
1782.6052
  0
LINE
  8
0-2
  6
CONTINUOUS
 62
    3
 10
740.23644
 20
1782.6052
 11
740.6784
 21
1781.5659
  0
LINE
  8
0-2
  6
CONTINUOUS
 62
    3
 10
740.6784
 20
1781.5659
 11
741.27822
 21
1780.6265
  0
LINE
  8
0-2
  6
CONTINUOUS
 62
    3
 10
741.27822
 20
1780.6265
 11
742.01768
 21
1779.8156
  0
LINE
  8
0-2
  6
CONTINUOUS
 62
    3
 10
742.01768
 20
1779.8156
 11
742.87431
 21
1779.1578
  0
LINE
  8
0-2
  6
CONTINUOUS
 62
    3
 10
742.87431
 20
1779.1578
 11
743.82208
 21
1778.6732
  0
LINE
  8
0-2
  6
CONTINUOUS
 62
    3
 10
743.82208
 20
1778.6732
 11
744.8322
 21
1778.3764
  0
LINE
  8
0-2
  6
CONTINUOUS
 62
    3
 10
744.8322
 20
1778.3764
 11
745.87397
 21
1778.2764
  0
LINE
  8
0-2
  6
CONTINUOUS
 62
    3
 10
745.87397
 20
1778.2764
 11
746.91575
 21
1778.3764
  0
LINE
  8
0-2
  6
CONTINUOUS
 62
    3
 10
746.91575
 20
1778.3764
 11
747.92587
 21
1778.6732
  0
LINE
  8
0-2
  6
CONTINUOUS
 62
    3
 10
747.92587
 20
1778.6732
 11
748.87364
 21
1779.1578
  0
LINE
  8
0-2
  6
CONTINUOUS
 62
    3
 10
748.87364
 20
1779.1578
 11
749.73027
 21
1779.8156
  0
LINE
  8
0-2
  6
CONTINUOUS
 62
    3
 10
749.73027
 20
1779.8156
 11
750.46973
 21
1780.6265
  0
LINE
  8
0-2
  6
CONTINUOUS
 62
    3
 10
750.46973
 20
1780.6265
 11
751.06955
 21
1781.5659
  0
LINE
  8
0-2
  6
CONTINUOUS
 62
    3
 10
751.06955
 20
1781.5659
 11
751.5115
 21
1782.6052
  0
LINE
  8
0-2
  6
CONTINUOUS
 62
    3
 10
751.5115
 20
1782.6052
 11
751.78217
 21
1783.7129
  0
LINE
  8
0-2
  6
CONTINUOUS
 62
    3
 10
751.78217
 20
1783.7129
 11
751.87331
 21
1784.8554
  0
LINE
  8
0-2
  6
CONTINUOUS
 62
    3
 10
751.87331
 20
1844.9394
 11
751.78217
 21
1846.0819
  0
LINE
  8
0-2
  6
CONTINUOUS
 62
    3
 10
751.78217
 20
1846.0819
 11
751.5115
 21
1847.1896
  0
LINE
  8
0-2
  6
CONTINUOUS
 62
    3
 10
751.5115
 20
1847.1896
 11
751.06955
 21
1848.2289
  0
LINE
  8
0-2
  6
CONTINUOUS
 62
    3
 10
751.06955
 20
1848.2289
 11
750.46973
 21
1849.1683
  0
LINE
  8
0-2
  6
CONTINUOUS
 62
    3
 10
750.46973
 20
1849.1683
 11
749.73027
 21
1849.9792
  0
LINE
  8
0-2
  6
CONTINUOUS
 62
    3
 10
749.73027
 20
1849.9792
 11
748.87364
 21
1850.637
  0
LINE
  8
0-2
  6
CONTINUOUS
 62
    3
 10
748.87364
 20
1850.637
 11
747.92587
 21
1851.1216
  0
LINE
  8
0-2
  6
CONTINUOUS
 62
    3
 10
747.92587
 20
1851.1216
 11
746.91575
 21
1851.4184
  0
LINE
  8
0-2
  6
CONTINUOUS
 62
    3
 10
746.91575
 20
1851.4184
 11
745.87397
 21
1851.5184
  0
LINE
  8
0-2
  6
CONTINUOUS
 62
    3
 10
745.87397
 20
1851.5184
 11
744.8322
 21
1851.4184
  0
LINE
  8
0-2
  6
CONTINUOUS
 62
    3
 10
744.8322
 20
1851.4184
 11
743.82208
 21
1851.1216
  0
LINE
  8
0-2
  6
CONTINUOUS
 62
    3
 10
743.82208
 20
1851.1216
 11
742.87431
 21
1850.637
  0
LINE
  8
0-2
  6
CONTINUOUS
 62
    3
 10
742.87431
 20
1850.637
 11
742.01768
 21
1849.9792
  0
LINE
  8
0-2
  6
CONTINUOUS
 62
    3
 10
742.01768
 20
1849.9792
 11
741.27822
 21
1849.1683
  0
LINE
  8
0-2
  6
CONTINUOUS
 62
    3
 10
741.27822
 20
1849.1683
 11
740.6784
 21
1848.2289
  0
LINE
  8
0-2
  6
CONTINUOUS
 62
    3
 10
740.6784
 20
1848.2289
 11
740.23644
 21
1847.1896
  0
LINE
  8
0-2
  6
CONTINUOUS
 62
    3
 10
740.23644
 20
1847.1896
 11
739.96578
 21
1846.0819
  0
LINE
  8
0-2
  6
CONTINUOUS
 62
    3
 10
739.96578
 20
1846.0819
 11
739.87464
 21
1844.9394
  0
LINE
  8
0-2
  6
CONTINUOUS
 62
    3
 10
739.87464
 20
1844.9394
 11
739.96578
 21
1843.797
  0
LINE
  8
0-2
  6
CONTINUOUS
 62
    3
 10
739.96578
 20
1843.797
 11
740.23644
 21
1842.6893
  0
LINE
  8
0-2
  6
CONTINUOUS
 62
    3
 10
740.23644
 20
1842.6893
 11
740.6784
 21
1841.65
  0
LINE
  8
0-2
  6
CONTINUOUS
 62
    3
 10
740.6784
 20
1841.65
 11
741.27822
 21
1840.7106
  0
LINE
  8
0-2
  6
CONTINUOUS
 62
    3
 10
741.27822
 20
1840.7106
 11
742.01768
 21
1839.8997
  0
LINE
  8
0-2
  6
CONTINUOUS
 62
    3
 10
742.01768
 20
1839.8997
 11
742.87431
 21
1839.2419
  0
LINE
  8
0-2
  6
CONTINUOUS
 62
    3
 10
742.87431
 20
1839.2419
 11
743.82208
 21
1838.7573
  0
LINE
  8
0-2
  6
CONTINUOUS
 62
    3
 10
743.82208
 20
1838.7573
 11
744.8322
 21
1838.4605
  0
LINE
  8
0-2
  6
CONTINUOUS
 62
    3
 10
744.8322
 20
1838.4605
 11
745.87397
 21
1838.3605
  0
LINE
  8
0-2
  6
CONTINUOUS
 62
    3
 10
745.87397
 20
1838.3605
 11
746.91575
 21
1838.4605
  0
LINE
  8
0-2
  6
CONTINUOUS
 62
    3
 10
746.91575
 20
1838.4605
 11
747.92587
 21
1838.7573
  0
LINE
  8
0-2
  6
CONTINUOUS
 62
    3
 10
747.92587
 20
1838.7573
 11
748.87364
 21
1839.2419
  0
LINE
  8
0-2
  6
CONTINUOUS
 62
    3
 10
748.87364
 20
1839.2419
 11
749.73027
 21
1839.8997
  0
LINE
  8
0-2
  6
CONTINUOUS
 62
    3
 10
749.73027
 20
1839.8997
 11
750.46973
 21
1840.7106
  0
LINE
  8
0-2
  6
CONTINUOUS
 62
    3
 10
750.46973
 20
1840.7106
 11
751.06955
 21
1841.65
  0
LINE
  8
0-2
  6
CONTINUOUS
 62
    3
 10
751.06955
 20
1841.65
 11
751.5115
 21
1842.6893
  0
LINE
  8
0-2
  6
CONTINUOUS
 62
    3
 10
751.5115
 20
1842.6893
 11
751.78217
 21
1843.797
  0
LINE
  8
0-2
  6
CONTINUOUS
 62
    3
 10
751.78217
 20
1843.797
 11
751.87331
 21
1844.9394
  0
LINE
  8
0-2
  6
CONTINUOUS
 62
    3
 10
751.87331
 20
1339.3292
 11
751.78217
 21
1340.4716
  0
LINE
  8
0-2
  6
CONTINUOUS
 62
    3
 10
751.78217
 20
1340.4716
 11
751.5115
 21
1341.5793
  0
LINE
  8
0-2
  6
CONTINUOUS
 62
    3
 10
751.5115
 20
1341.5793
 11
751.06955
 21
1342.6186
  0
LINE
  8
0-2
  6
CONTINUOUS
 62
    3
 10
751.06955
 20
1342.6186
 11
750.46973
 21
1343.558
  0
LINE
  8
0-2
  6
CONTINUOUS
 62
    3
 10
750.46973
 20
1343.558
 11
749.73027
 21
1344.3689
  0
LINE
  8
0-2
  6
CONTINUOUS
 62
    3
 10
749.73027
 20
1344.3689
 11
748.87364
 21
1345.0267
  0
LINE
  8
0-2
  6
CONTINUOUS
 62
    3
 10
748.87364
 20
1345.0267
 11
747.92587
 21
1345.5114
  0
LINE
  8
0-2
  6
CONTINUOUS
 62
    3
 10
747.92587
 20
1345.5114
 11
746.91575
 21
1345.8082
  0
LINE
  8
0-2
  6
CONTINUOUS
 62
    3
 10
746.91575
 20
1345.8082
 11
745.87397
 21
1345.9081
  0
LINE
  8
0-2
  6
CONTINUOUS
 62
    3
 10
745.87397
 20
1345.9081
 11
744.8322
 21
1345.8082
  0
LINE
  8
0-2
  6
CONTINUOUS
 62
    3
 10
744.8322
 20
1345.8082
 11
743.82208
 21
1345.5114
  0
LINE
  8
0-2
  6
CONTINUOUS
 62
    3
 10
743.82208
 20
1345.5114
 11
742.87431
 21
1345.0267
  0
LINE
  8
0-2
  6
CONTINUOUS
 62
    3
 10
742.87431
 20
1345.0267
 11
742.01768
 21
1344.3689
  0
LINE
  8
0-2
  6
CONTINUOUS
 62
    3
 10
742.01768
 20
1344.3689
 11
741.27822
 21
1343.558
  0
LINE
  8
0-2
  6
CONTINUOUS
 62
    3
 10
741.27822
 20
1343.558
 11
740.6784
 21
1342.6186
  0
LINE
  8
0-2
  6
CONTINUOUS
 62
    3
 10
740.6784
 20
1342.6186
 11
740.23644
 21
1341.5793
  0
LINE
  8
0-2
  6
CONTINUOUS
 62
    3
 10
740.23644
 20
1341.5793
 11
739.96578
 21
1340.4716
  0
LINE
  8
0-2
  6
CONTINUOUS
 62
    3
 10
739.96578
 20
1340.4716
 11
739.87464
 21
1339.3292
  0
LINE
  8
0-2
  6
CONTINUOUS
 62
    3
 10
739.87464
 20
1339.3292
 11
739.96578
 21
1338.1868
  0
LINE
  8
0-2
  6
CONTINUOUS
 62
    3
 10
739.96578
 20
1338.1868
 11
740.23644
 21
1337.079
  0
LINE
  8
0-2
  6
CONTINUOUS
 62
    3
 10
740.23644
 20
1337.079
 11
740.6784
 21
1336.0397
  0
LINE
  8
0-2
  6
CONTINUOUS
 62
    3
 10
740.6784
 20
1336.0397
 11
741.27822
 21
1335.1003
  0
LINE
  8
0-2
  6
CONTINUOUS
 62
    3
 10
741.27822
 20
1335.1003
 11
742.01768
 21
1334.2894
  0
LINE
  8
0-2
  6
CONTINUOUS
 62
    3
 10
742.01768
 20
1334.2894
 11
742.87431
 21
1333.6316
  0
LINE
  8
0-2
  6
CONTINUOUS
 62
    3
 10
742.87431
 20
1333.6316
 11
743.82208
 21
1333.147
  0
LINE
  8
0-2
  6
CONTINUOUS
 62
    3
 10
743.82208
 20
1333.147
 11
744.8322
 21
1332.8502
  0
LINE
  8
0-2
  6
CONTINUOUS
 62
    3
 10
744.8322
 20
1332.8502
 11
745.87397
 21
1332.7502
  0
LINE
  8
0-2
  6
CONTINUOUS
 62
    3
 10
745.87397
 20
1332.7502
 11
746.91575
 21
1332.8502
  0
LINE
  8
0-2
  6
CONTINUOUS
 62
    3
 10
746.91575
 20
1332.8502
 11
747.92587
 21
1333.147
  0
LINE
  8
0-2
  6
CONTINUOUS
 62
    3
 10
747.92587
 20
1333.147
 11
748.87364
 21
1333.6316
  0
LINE
  8
0-2
  6
CONTINUOUS
 62
    3
 10
748.87364
 20
1333.6316
 11
749.73027
 21
1334.2894
  0
LINE
  8
0-2
  6
CONTINUOUS
 62
    3
 10
749.73027
 20
1334.2894
 11
750.46973
 21
1335.1003
  0
LINE
  8
0-2
  6
CONTINUOUS
 62
    3
 10
750.46973
 20
1335.1003
 11
751.06955
 21
1336.0397
  0
LINE
  8
0-2
  6
CONTINUOUS
 62
    3
 10
751.06955
 20
1336.0397
 11
751.5115
 21
1337.079
  0
LINE
  8
0-2
  6
CONTINUOUS
 62
    3
 10
751.5115
 20
1337.079
 11
751.78217
 21
1338.1868
  0
LINE
  8
0-2
  6
CONTINUOUS
 62
    3
 10
751.78217
 20
1338.1868
 11
751.87331
 21
1339.3292
  0
LINE
  8
0-2
  6
CONTINUOUS
 62
    3
 10
751.87331
 20
1280.7363
 11
751.78217
 21
1281.8787
  0
LINE
  8
0-2
  6
CONTINUOUS
 62
    3
 10
751.78217
 20
1281.8787
 11
751.5115
 21
1282.9864
  0
LINE
  8
0-2
  6
CONTINUOUS
 62
    3
 10
751.5115
 20
1282.9864
 11
751.06955
 21
1284.0258
  0
LINE
  8
0-2
  6
CONTINUOUS
 62
    3
 10
751.06955
 20
1284.0258
 11
750.46973
 21
1284.9651
  0
LINE
  8
0-2
  6
CONTINUOUS
 62
    3
 10
750.46973
 20
1284.9651
 11
749.73027
 21
1285.776
  0
LINE
  8
0-2
  6
CONTINUOUS
 62
    3
 10
749.73027
 20
1285.776
 11
748.87364
 21
1286.4338
  0
LINE
  8
0-2
  6
CONTINUOUS
 62
    3
 10
748.87364
 20
1286.4338
 11
747.92587
 21
1286.9185
  0
LINE
  8
0-2
  6
CONTINUOUS
 62
    3
 10
747.92587
 20
1286.9185
 11
746.91575
 21
1287.2153
  0
LINE
  8
0-2
  6
CONTINUOUS
 62
    3
 10
746.91575
 20
1287.2153
 11
745.87397
 21
1287.3152
  0
LINE
  8
0-2
  6
CONTINUOUS
 62
    3
 10
745.87397
 20
1287.3152
 11
744.8322
 21
1287.2153
  0
LINE
  8
0-2
  6
CONTINUOUS
 62
    3
 10
744.8322
 20
1287.2153
 11
743.82208
 21
1286.9185
  0
LINE
  8
0-2
  6
CONTINUOUS
 62
    3
 10
743.82208
 20
1286.9185
 11
742.87431
 21
1286.4338
  0
LINE
  8
0-2
  6
CONTINUOUS
 62
    3
 10
742.87431
 20
1286.4338
 11
742.01768
 21
1285.776
  0
LINE
  8
0-2
  6
CONTINUOUS
 62
    3
 10
742.01768
 20
1285.776
 11
741.27822
 21
1284.9651
  0
LINE
  8
0-2
  6
CONTINUOUS
 62
    3
 10
741.27822
 20
1284.9651
 11
740.6784
 21
1284.0258
  0
LINE
  8
0-2
  6
CONTINUOUS
 62
    3
 10
740.6784
 20
1284.0258
 11
740.23644
 21
1282.9864
  0
LINE
  8
0-2
  6
CONTINUOUS
 62
    3
 10
740.23644
 20
1282.9864
 11
739.96578
 21
1281.8787
  0
LINE
  8
0-2
  6
CONTINUOUS
 62
    3
 10
739.96578
 20
1281.8787
 11
739.87464
 21
1280.7363
  0
LINE
  8
0-2
  6
CONTINUOUS
 62
    3
 10
739.87464
 20
1280.7363
 11
739.96578
 21
1279.5939
  0
LINE
  8
0-2
  6
CONTINUOUS
 62
    3
 10
739.96578
 20
1279.5939
 11
740.23644
 21
1278.4862
  0
LINE
  8
0-2
  6
CONTINUOUS
 62
    3
 10
740.23644
 20
1278.4862
 11
740.6784
 21
1277.4468
  0
LINE
  8
0-2
  6
CONTINUOUS
 62
    3
 10
740.6784
 20
1277.4468
 11
741.27822
 21
1276.5074
  0
LINE
  8
0-2
  6
CONTINUOUS
 62
    3
 10
741.27822
 20
1276.5074
 11
742.01768
 21
1275.6965
  0
LINE
  8
0-2
  6
CONTINUOUS
 62
    3
 10
742.01768
 20
1275.6965
 11
742.87431
 21
1275.0388
  0
LINE
  8
0-2
  6
CONTINUOUS
 62
    3
 10
742.87431
 20
1275.0388
 11
743.82208
 21
1274.5541
  0
LINE
  8
0-2
  6
CONTINUOUS
 62
    3
 10
743.82208
 20
1274.5541
 11
744.8322
 21
1274.2573
  0
LINE
  8
0-2
  6
CONTINUOUS
 62
    3
 10
744.8322
 20
1274.2573
 11
745.87397
 21
1274.1573
  0
LINE
  8
0-2
  6
CONTINUOUS
 62
    3
 10
745.87397
 20
1274.1573
 11
746.91575
 21
1274.2573
  0
LINE
  8
0-2
  6
CONTINUOUS
 62
    3
 10
746.91575
 20
1274.2573
 11
747.92587
 21
1274.5541
  0
LINE
  8
0-2
  6
CONTINUOUS
 62
    3
 10
747.92587
 20
1274.5541
 11
748.87364
 21
1275.0388
  0
LINE
  8
0-2
  6
CONTINUOUS
 62
    3
 10
748.87364
 20
1275.0388
 11
749.73027
 21
1275.6965
  0
LINE
  8
0-2
  6
CONTINUOUS
 62
    3
 10
749.73027
 20
1275.6965
 11
750.46973
 21
1276.5074
  0
LINE
  8
0-2
  6
CONTINUOUS
 62
    3
 10
750.46973
 20
1276.5074
 11
751.06955
 21
1277.4468
  0
LINE
  8
0-2
  6
CONTINUOUS
 62
    3
 10
751.06955
 20
1277.4468
 11
751.5115
 21
1278.4862
  0
LINE
  8
0-2
  6
CONTINUOUS
 62
    3
 10
751.5115
 20
1278.4862
 11
751.78217
 21
1279.5939
  0
LINE
  8
0-2
  6
CONTINUOUS
 62
    3
 10
751.78217
 20
1279.5939
 11
751.87331
 21
1280.7363
  0
LINE
  8
0-2
  6
CONTINUOUS
 62
    3
 10
1028.1353
 20
1128.1888
 11
1027.6115
 21
1130.1015
  0
LINE
  8
0-2
  6
CONTINUOUS
 62
    3
 10
1027.6115
 20
1130.1015
 11
1026.7927
 21
1131.8855
  0
LINE
  8
0-2
  6
CONTINUOUS
 62
    3
 10
1026.7927
 20
1131.8855
 11
1025.7039
 21
1133.4864
  0
LINE
  8
0-2
  6
CONTINUOUS
 62
    3
 10
1025.7039
 20
1133.4864
 11
1024.3782
 21
1134.8557
  0
LINE
  8
0-2
  6
CONTINUOUS
 62
    3
 10
1024.3782
 20
1134.8557
 11
1022.8557
 21
1135.9517
  0
LINE
  8
0-2
  6
CONTINUOUS
 62
    3
 10
1022.8557
 20
1135.9517
 11
1021.1828
 21
1136.7411
  0
LINE
  8
0-2
  6
CONTINUOUS
 62
    3
 10
1021.1828
 20
1136.7411
 11
1019.4104
 21
1137.2
  0
LINE
  8
0-2
  6
CONTINUOUS
 62
    3
 10
1019.4104
 20
1137.2
 11
1017.5922
 21
1137.3144
  0
LINE
  8
0-2
  6
CONTINUOUS
 62
    3
 10
1017.5922
 20
1137.3144
 11
1015.7835
 21
1137.0808
  0
LINE
  8
0-2
  6
CONTINUOUS
 62
    3
 10
1015.7835
 20
1137.0808
 11
1014.0392
 21
1136.5064
  0
LINE
  8
0-2
  6
CONTINUOUS
 62
    3
 10
1014.0392
 20
1136.5064
 11
1012.4125
 21
1135.6085
  0
LINE
  8
0-2
  6
CONTINUOUS
 62
    3
 10
1012.4125
 20
1135.6085
 11
1010.9526
 21
1134.4145
  0
LINE
  8
0-2
  6
CONTINUOUS
 62
    3
 10
1010.9526
 20
1134.4145
 11
1009.704
 21
1132.9607
  0
LINE
  8
0-2
  6
CONTINUOUS
 62
    3
 10
1009.704
 20
1132.9607
 11
1008.7045
 21
1131.2911
  0
LINE
  8
0-2
  6
CONTINUOUS
 62
    3
 10
1008.7045
 20
1131.2911
 11
1007.9846
 21
1129.4566
  0
LINE
  8
0-2
  6
CONTINUOUS
 62
    3
 10
1007.9846
 20
1129.4566
 11
1007.6748
 21
1128.1888
  0
LINE
  8
0-2
  6
CONTINUOUS
 62
    3
 10
828.58287
 20
1108.8802
 11
828.49173
 21
1110.0226
  0
LINE
  8
0-2
  6
CONTINUOUS
 62
    3
 10
828.49173
 20
1110.0226
 11
828.22107
 21
1111.1303
  0
LINE
  8
0-2
  6
CONTINUOUS
 62
    3
 10
828.22107
 20
1111.1303
 11
827.77912
 21
1112.1696
  0
LINE
  8
0-2
  6
CONTINUOUS
 62
    3
 10
827.77912
 20
1112.1696
 11
827.1793
 21
1113.109
  0
LINE
  8
0-2
  6
CONTINUOUS
 62
    3
 10
827.1793
 20
1113.109
 11
826.43984
 21
1113.9199
  0
LINE
  8
0-2
  6
CONTINUOUS
 62
    3
 10
826.43984
 20
1113.9199
 11
825.58321
 21
1114.5777
  0
LINE
  8
0-2
  6
CONTINUOUS
 62
    3
 10
825.58321
 20
1114.5777
 11
824.63543
 21
1115.0623
  0
LINE
  8
0-2
  6
CONTINUOUS
 62
    3
 10
824.63543
 20
1115.0623
 11
823.62531
 21
1115.3592
  0
LINE
  8
0-2
  6
CONTINUOUS
 62
    3
 10
823.62531
 20
1115.3592
 11
822.58354
 21
1115.4591
  0
LINE
  8
0-2
  6
CONTINUOUS
 62
    3
 10
822.58354
 20
1115.4591
 11
821.54177
 21
1115.3592
  0
LINE
  8
0-2
  6
CONTINUOUS
 62
    3
 10
821.54177
 20
1115.3592
 11
820.53165
 21
1115.0623
  0
LINE
  8
0-2
  6
CONTINUOUS
 62
    3
 10
820.53165
 20
1115.0623
 11
819.58387
 21
1114.5777
  0
LINE
  8
0-2
  6
CONTINUOUS
 62
    3
 10
819.58387
 20
1114.5777
 11
818.72724
 21
1113.9199
  0
LINE
  8
0-2
  6
CONTINUOUS
 62
    3
 10
818.72724
 20
1113.9199
 11
817.98778
 21
1113.109
  0
LINE
  8
0-2
  6
CONTINUOUS
 62
    3
 10
817.98778
 20
1113.109
 11
817.38796
 21
1112.1696
  0
LINE
  8
0-2
  6
CONTINUOUS
 62
    3
 10
817.38796
 20
1112.1696
 11
816.94601
 21
1111.1303
  0
LINE
  8
0-2
  6
CONTINUOUS
 62
    3
 10
816.94601
 20
1111.1303
 11
816.67535
 21
1110.0226
  0
LINE
  8
0-2
  6
CONTINUOUS
 62
    3
 10
816.67535
 20
1110.0226
 11
816.58421
 21
1108.8802
  0
LINE
  8
0-2
  6
CONTINUOUS
 62
    3
 10
816.58421
 20
1108.8802
 11
816.67535
 21
1107.7377
  0
LINE
  8
0-2
  6
CONTINUOUS
 62
    3
 10
816.67535
 20
1107.7377
 11
816.94601
 21
1106.63
  0
LINE
  8
0-2
  6
CONTINUOUS
 62
    3
 10
816.94601
 20
1106.63
 11
817.38796
 21
1105.5907
  0
LINE
  8
0-2
  6
CONTINUOUS
 62
    3
 10
817.38796
 20
1105.5907
 11
817.98778
 21
1104.6513
  0
LINE
  8
0-2
  6
CONTINUOUS
 62
    3
 10
817.98778
 20
1104.6513
 11
818.72724
 21
1103.8404
  0
LINE
  8
0-2
  6
CONTINUOUS
 62
    3
 10
818.72724
 20
1103.8404
 11
819.58387
 21
1103.1826
  0
LINE
  8
0-2
  6
CONTINUOUS
 62
    3
 10
819.58387
 20
1103.1826
 11
820.53165
 21
1102.698
  0
LINE
  8
0-2
  6
CONTINUOUS
 62
    3
 10
820.53165
 20
1102.698
 11
821.54177
 21
1102.4012
  0
LINE
  8
0-2
  6
CONTINUOUS
 62
    3
 10
821.54177
 20
1102.4012
 11
822.58354
 21
1102.3012
  0
LINE
  8
0-2
  6
CONTINUOUS
 62
    3
 10
822.58354
 20
1102.3012
 11
823.62531
 21
1102.4012
  0
LINE
  8
0-2
  6
CONTINUOUS
 62
    3
 10
823.62531
 20
1102.4012
 11
824.63543
 21
1102.698
  0
LINE
  8
0-2
  6
CONTINUOUS
 62
    3
 10
824.63543
 20
1102.698
 11
825.58321
 21
1103.1826
  0
LINE
  8
0-2
  6
CONTINUOUS
 62
    3
 10
825.58321
 20
1103.1826
 11
826.43984
 21
1103.8404
  0
LINE
  8
0-2
  6
CONTINUOUS
 62
    3
 10
826.43984
 20
1103.8404
 11
827.1793
 21
1104.6513
  0
LINE
  8
0-2
  6
CONTINUOUS
 62
    3
 10
827.1793
 20
1104.6513
 11
827.77912
 21
1105.5907
  0
LINE
  8
0-2
  6
CONTINUOUS
 62
    3
 10
827.77912
 20
1105.5907
 11
828.22107
 21
1106.63
  0
LINE
  8
0-2
  6
CONTINUOUS
 62
    3
 10
828.22107
 20
1106.63
 11
828.49173
 21
1107.7377
  0
LINE
  8
0-2
  6
CONTINUOUS
 62
    3
 10
828.49173
 20
1107.7377
 11
828.58287
 21
1108.8802
  0
LINE
  8
0-2
  6
CONTINUOUS
 62
    3
 10
828.58287
 20
970.09084
 11
828.49173
 21
971.23326
  0
LINE
  8
0-2
  6
CONTINUOUS
 62
    3
 10
828.49173
 20
971.23326
 11
828.22107
 21
972.34097
  0
LINE
  8
0-2
  6
CONTINUOUS
 62
    3
 10
828.22107
 20
972.34097
 11
827.77912
 21
973.38031
  0
LINE
  8
0-2
  6
CONTINUOUS
 62
    3
 10
827.77912
 20
973.38031
 11
827.1793
 21
974.3197
  0
LINE
  8
0-2
  6
CONTINUOUS
 62
    3
 10
827.1793
 20
974.3197
 11
826.43984
 21
975.1306
  0
LINE
  8
0-2
  6
CONTINUOUS
 62
    3
 10
826.43984
 20
975.1306
 11
825.58321
 21
975.78837
  0
LINE
  8
0-2
  6
CONTINUOUS
 62
    3
 10
825.58321
 20
975.78837
 11
824.63543
 21
976.27302
  0
LINE
  8
0-2
  6
CONTINUOUS
 62
    3
 10
824.63543
 20
976.27302
 11
823.62531
 21
976.56983
  0
LINE
  8
0-2
  6
CONTINUOUS
 62
    3
 10
823.62531
 20
976.56983
 11
822.58354
 21
976.66978
  0
LINE
  8
0-2
  6
CONTINUOUS
 62
    3
 10
822.58354
 20
976.66978
 11
821.54177
 21
976.56983
  0
LINE
  8
0-2
  6
CONTINUOUS
 62
    3
 10
821.54177
 20
976.56983
 11
820.53165
 21
976.27302
  0
LINE
  8
0-2
  6
CONTINUOUS
 62
    3
 10
820.53165
 20
976.27302
 11
819.58387
 21
975.78837
  0
LINE
  8
0-2
  6
CONTINUOUS
 62
    3
 10
819.58387
 20
975.78837
 11
818.72724
 21
975.1306
  0
LINE
  8
0-2
  6
CONTINUOUS
 62
    3
 10
818.72724
 20
975.1306
 11
817.98778
 21
974.3197
  0
LINE
  8
0-2
  6
CONTINUOUS
 62
    3
 10
817.98778
 20
974.3197
 11
817.38796
 21
973.38031
  0
LINE
  8
0-2
  6
CONTINUOUS
 62
    3
 10
817.38796
 20
973.38031
 11
816.94601
 21
972.34097
  0
LINE
  8
0-2
  6
CONTINUOUS
 62
    3
 10
816.94601
 20
972.34097
 11
816.67535
 21
971.23326
  0
LINE
  8
0-2
  6
CONTINUOUS
 62
    3
 10
816.67535
 20
971.23326
 11
816.58421
 21
970.09084
  0
LINE
  8
0-2
  6
CONTINUOUS
 62
    3
 10
816.58421
 20
970.09084
 11
816.67535
 21
968.94842
  0
LINE
  8
0-2
  6
CONTINUOUS
 62
    3
 10
816.67535
 20
968.94842
 11
816.94601
 21
967.84071
  0
LINE
  8
0-2
  6
CONTINUOUS
 62
    3
 10
816.94601
 20
967.84071
 11
817.38796
 21
966.80137
  0
LINE
  8
0-2
  6
CONTINUOUS
 62
    3
 10
817.38796
 20
966.80137
 11
817.98778
 21
965.86198
  0
LINE
  8
0-2
  6
CONTINUOUS
 62
    3
 10
817.98778
 20
965.86198
 11
818.72724
 21
965.05108
  0
LINE
  8
0-2
  6
CONTINUOUS
 62
    3
 10
818.72724
 20
965.05108
 11
819.58387
 21
964.39331
  0
LINE
  8
0-2
  6
CONTINUOUS
 62
    3
 10
819.58387
 20
964.39331
 11
820.53165
 21
963.90866
  0
LINE
  8
0-2
  6
CONTINUOUS
 62
    3
 10
820.53165
 20
963.90866
 11
821.54177
 21
963.61185
  0
LINE
  8
0-2
  6
CONTINUOUS
 62
    3
 10
821.54177
 20
963.61185
 11
822.58354
 21
963.5119
  0
LINE
  8
0-2
  6
CONTINUOUS
 62
    3
 10
822.58354
 20
963.5119
 11
823.62531
 21
963.61185
  0
LINE
  8
0-2
  6
CONTINUOUS
 62
    3
 10
823.62531
 20
963.61185
 11
824.63543
 21
963.90866
  0
LINE
  8
0-2
  6
CONTINUOUS
 62
    3
 10
824.63543
 20
963.90866
 11
825.58321
 21
964.39331
  0
LINE
  8
0-2
  6
CONTINUOUS
 62
    3
 10
825.58321
 20
964.39331
 11
826.43984
 21
965.05108
  0
LINE
  8
0-2
  6
CONTINUOUS
 62
    3
 10
826.43984
 20
965.05108
 11
827.1793
 21
965.86198
  0
LINE
  8
0-2
  6
CONTINUOUS
 62
    3
 10
827.1793
 20
965.86198
 11
827.77912
 21
966.80137
  0
LINE
  8
0-2
  6
CONTINUOUS
 62
    3
 10
827.77912
 20
966.80137
 11
828.22107
 21
967.84071
  0
LINE
  8
0-2
  6
CONTINUOUS
 62
    3
 10
828.22107
 20
967.84071
 11
828.49173
 21
968.94842
  0
LINE
  8
0-2
  6
CONTINUOUS
 62
    3
 10
828.49173
 20
968.94842
 11
828.58287
 21
970.09084
  0
LINE
  8
0-2
  6
CONTINUOUS
 62
    3
 10
1468.6488
 20
1280.4083
 11
1469.9537
 21
1280.4926
  0
LINE
  8
0-2
  6
CONTINUOUS
 62
    3
 10
1469.9537
 20
1280.4926
 11
1471.2237
 21
1280.7978
  0
LINE
  8
0-2
  6
CONTINUOUS
 62
    3
 10
1471.2237
 20
1280.7978
 11
1472.4204
 21
1281.3145
  0
LINE
  8
0-2
  6
CONTINUOUS
 62
    3
 10
1472.4204
 20
1281.3145
 11
1473.5074
 21
1282.0271
  0
LINE
  8
0-2
  6
CONTINUOUS
 62
    3
 10
1473.5074
 20
1282.0271
 11
1474.4517
 21
1282.9138
  0
LINE
  8
0-2
  6
CONTINUOUS
 62
    3
 10
1474.4517
 20
1282.9138
 11
1475.2245
 21
1283.9479
  0
LINE
  8
0-2
  6
CONTINUOUS
 62
    3
 10
1475.2245
 20
1283.9479
 11
1475.8024
 21
1285.0978
  0
LINE
  8
0-2
  6
CONTINUOUS
 62
    3
 10
1475.8024
 20
1285.0978
 11
1476.1679
 21
1286.3286
  0
LINE
  8
0-2
  6
CONTINUOUS
 62
    3
 10
1476.1679
 20
1286.3286
 11
1476.3098
 21
1287.6029
  0
LINE
  8
0-2
  6
CONTINUOUS
 62
    3
 10
1476.3098
 20
1287.6029
 11
1476.2238
 21
1288.882
  0
LINE
  8
0-2
  6
CONTINUOUS
 62
    3
 10
1476.2238
 20
1288.882
 11
1475.9125
 21
1290.127
  0
LINE
  8
0-2
  6
CONTINUOUS
 62
    3
 10
1475.9125
 20
1290.127
 11
1475.3854
 21
1291.3002
  0
LINE
  8
0-2
  6
CONTINUOUS
 62
    3
 10
1475.3854
 20
1291.3002
 11
1474.6585
 21
1292.3657
  0
LINE
  8
0-2
  6
CONTINUOUS
 62
    3
 10
1474.6585
 20
1292.3657
 11
1473.7539
 21
1293.2914
  0
LINE
  8
0-2
  6
CONTINUOUS
 62
    3
 10
1473.7539
 20
1293.2914
 11
1472.6991
 21
1294.049
  0
LINE
  8
0-2
  6
CONTINUOUS
 62
    3
 10
1472.6991
 20
1294.049
 11
1471.5261
 21
1294.6155
  0
LINE
  8
0-2
  6
CONTINUOUS
 62
    3
 10
1471.5261
 20
1294.6155
 11
1470.2706
 21
1294.9738
  0
LINE
  8
0-2
  6
CONTINUOUS
 62
    3
 10
1470.2706
 20
1294.9738
 11
1468.9706
 21
1295.1129
  0
LINE
  8
0-2
  6
CONTINUOUS
 62
    3
 10
1468.9706
 20
1295.1129
 11
1468.6488
 21
1295.1129
  0
LINE
  8
0-2
  6
CONTINUOUS
 62
    3
 10
1468.6488
 20
1817.504
 11
1469.9537
 21
1817.5883
  0
LINE
  8
0-2
  6
CONTINUOUS
 62
    3
 10
1469.9537
 20
1817.5883
 11
1471.2237
 21
1817.8934
  0
LINE
  8
0-2
  6
CONTINUOUS
 62
    3
 10
1471.2237
 20
1817.8934
 11
1472.4204
 21
1818.4101
  0
LINE
  8
0-2
  6
CONTINUOUS
 62
    3
 10
1472.4204
 20
1818.4101
 11
1473.5074
 21
1819.1227
  0
LINE
  8
0-2
  6
CONTINUOUS
 62
    3
 10
1473.5074
 20
1819.1227
 11
1474.4517
 21
1820.0095
  0
LINE
  8
0-2
  6
CONTINUOUS
 62
    3
 10
1474.4517
 20
1820.0095
 11
1475.2245
 21
1821.0435
  0
LINE
  8
0-2
  6
CONTINUOUS
 62
    3
 10
1475.2245
 20
1821.0435
 11
1475.8024
 21
1822.1934
  0
LINE
  8
0-2
  6
CONTINUOUS
 62
    3
 10
1475.8024
 20
1822.1934
 11
1476.1679
 21
1823.4242
  0
LINE
  8
0-2
  6
CONTINUOUS
 62
    3
 10
1476.1679
 20
1823.4242
 11
1476.3098
 21
1824.6985
  0
LINE
  8
0-2
  6
CONTINUOUS
 62
    3
 10
1476.3098
 20
1824.6985
 11
1476.2238
 21
1825.9776
  0
LINE
  8
0-2
  6
CONTINUOUS
 62
    3
 10
1476.2238
 20
1825.9776
 11
1475.9125
 21
1827.2226
  0
LINE
  8
0-2
  6
CONTINUOUS
 62
    3
 10
1475.9125
 20
1827.2226
 11
1475.3854
 21
1828.3958
  0
LINE
  8
0-2
  6
CONTINUOUS
 62
    3
 10
1475.3854
 20
1828.3958
 11
1474.6585
 21
1829.4614
  0
LINE
  8
0-2
  6
CONTINUOUS
 62
    3
 10
1474.6585
 20
1829.4614
 11
1473.7539
 21
1830.387
  0
LINE
  8
0-2
  6
CONTINUOUS
 62
    3
 10
1473.7539
 20
1830.387
 11
1472.6991
 21
1831.1446
  0
LINE
  8
0-2
  6
CONTINUOUS
 62
    3
 10
1472.6991
 20
1831.1446
 11
1471.5261
 21
1831.7112
  0
LINE
  8
0-2
  6
CONTINUOUS
 62
    3
 10
1471.5261
 20
1831.7112
 11
1470.2706
 21
1832.0694
  0
LINE
  8
0-2
  6
CONTINUOUS
 62
    3
 10
1470.2706
 20
1832.0694
 11
1468.9706
 21
1832.2085
  0
LINE
  8
0-2
  6
CONTINUOUS
 62
    3
 10
1468.9706
 20
1832.2085
 11
1468.6488
 21
1832.2085
  0
LINE
  8
0-2
  6
CONTINUOUS
 62
    3
 10
1363.6482
 20
1280.4083
 11
1364.9531
 21
1280.4926
  0
LINE
  8
0-2
  6
CONTINUOUS
 62
    3
 10
1364.9531
 20
1280.4926
 11
1366.2231
 21
1280.7978
  0
LINE
  8
0-2
  6
CONTINUOUS
 62
    3
 10
1366.2231
 20
1280.7978
 11
1367.4198
 21
1281.3145
  0
LINE
  8
0-2
  6
CONTINUOUS
 62
    3
 10
1367.4198
 20
1281.3145
 11
1368.5068
 21
1282.0271
  0
LINE
  8
0-2
  6
CONTINUOUS
 62
    3
 10
1368.5068
 20
1282.0271
 11
1369.4511
 21
1282.9138
  0
LINE
  8
0-2
  6
CONTINUOUS
 62
    3
 10
1369.4511
 20
1282.9138
 11
1370.2239
 21
1283.9479
  0
LINE
  8
0-2
  6
CONTINUOUS
 62
    3
 10
1370.2239
 20
1283.9479
 11
1370.8018
 21
1285.0978
  0
LINE
  8
0-2
  6
CONTINUOUS
 62
    3
 10
1370.8018
 20
1285.0978
 11
1371.1673
 21
1286.3286
  0
LINE
  8
0-2
  6
CONTINUOUS
 62
    3
 10
1371.1673
 20
1286.3286
 11
1371.3092
 21
1287.6029
  0
LINE
  8
0-2
  6
CONTINUOUS
 62
    3
 10
1371.3092
 20
1287.6029
 11
1371.2232
 21
1288.882
  0
LINE
  8
0-2
  6
CONTINUOUS
 62
    3
 10
1371.2232
 20
1288.882
 11
1370.9119
 21
1290.127
  0
LINE
  8
0-2
  6
CONTINUOUS
 62
    3
 10
1370.9119
 20
1290.127
 11
1370.3848
 21
1291.3002
  0
LINE
  8
0-2
  6
CONTINUOUS
 62
    3
 10
1370.3848
 20
1291.3002
 11
1369.6579
 21
1292.3657
  0
LINE
  8
0-2
  6
CONTINUOUS
 62
    3
 10
1369.6579
 20
1292.3657
 11
1368.7533
 21
1293.2914
  0
LINE
  8
0-2
  6
CONTINUOUS
 62
    3
 10
1368.7533
 20
1293.2914
 11
1367.6985
 21
1294.049
  0
LINE
  8
0-2
  6
CONTINUOUS
 62
    3
 10
1367.6985
 20
1294.049
 11
1366.5255
 21
1294.6155
  0
LINE
  8
0-2
  6
CONTINUOUS
 62
    3
 10
1366.5255
 20
1294.6155
 11
1365.27
 21
1294.9738
  0
LINE
  8
0-2
  6
CONTINUOUS
 62
    3
 10
1365.27
 20
1294.9738
 11
1363.97
 21
1295.1129
  0
LINE
  8
0-2
  6
CONTINUOUS
 62
    3
 10
1363.97
 20
1295.1129
 11
1363.6482
 21
1295.1129
  0
ARC
  8
0-2
  6
CONTINUOUS
 62
    3
 10
1356.1585
 20
945.18404
 40
6.3715979
 50
270
 51
90
  0
ARC
  8
0-2
  6
CONTINUOUS
 62
    3
 10
1356.1585
 20
894.21044
 40
6.3715979
 50
270
 51
90
  0
ARC
  8
0-2
  6
CONTINUOUS
 62
    3
 10
741.1587
 20
945.18404
 40
6.3715979
 50
90
 51
270
  0
ARC
  8
0-2
  6
CONTINUOUS
 62
    3
 10
741.1587
 20
894.21044
 40
6.3715979
 50
90
 51
270
  0
TEXT
  8
0-d
 10
254.9998
 20
157.4999
 40
25
 41
1
 50
0
  1
図
  0
TEXT
  8
0-d
 10
254.9998
 20
97.49997
 40
25
 41
1
 50
0
  1
番
  0
TEXT
  8
0-d
 10
655.00046
 20
157.4999
 40
25
 41
1
 50
0
  1
承
  0
TEXT
  8
0-d
 10
655.00046
 20
97.49997
 40
25
 41
1
 50
0
  1
認
  0
TEXT
  8
0-d
 10
1020.0003
 20
237.49996
 40
25
 41
1
 50
0
  1
尺
  0
TEXT
  8
0-d
 10
1020.0003
 20
197.49979
 40
25
 41
1
 50
0.0000762
  1
度
  0
TEXT
  8
0-d
 10
855.00014
 20
157.4999
 40
25
 41
1
 50
0
  1
製
  0
TEXT
  8
0-d
 10
855.00014
 20
97.49997
 40
25
 41
1
 50
0
  1
図
  0
TEXT
  8
0-d
 10
1555.0001
 20
237.49996
 40
25
 41
1
 50
0
  1
日
  0
TEXT
  8
0-d
 10
1555.0001
 20
197.49979
 40
25
 41
1
 50
0.0000762
  1
付
  0
TEXT
  8
0-d
 10
1111.4263
 20
163.48226
 40
20
 41
1
 50
0
  1
株式
  0
TEXT
  8
0-d
 10
1111.4263
 20
141.85181
 40
20
 41
1
 50
0.0000152
  1
会社
  0
TEXT
  8
0-d
 10
1174.2247
 20
143.24712
 40
40
 41
1
 50
0
  1
スズキベンチレーター
  0
TEXT
  8
0-d
 10
1237.9182
 20
94.024183
 40
20
 41
1
 50
0
  1
TEL(054)296-7000  FAX(054)296-7001
  0
TEXT
  8
0-d
 10
1084.349
 20
210.10066
 40
40
 41
1
 50
0
  1
１／１０
  0
TEXT
  8
0-8
 10
928.4002
 20
2328.2514
 40
30
 41
1
 50
0
  1
1,020φ
  0
TEXT
  8
0-8
 10
1006.8053
 20
725.29119
 40
30
 41
1
 50
0
  1
615φ
  0
TEXT
  8
0-8
 10
294.07612
 20
1440.2157
 40
30
 41
1
 50
90
  1
1,250
  0
TEXT
  8
0-d
 10
308.45927
 20
140.30214
 40
30
 41
1
 50
0
  1
60-D10b
  0
TEXT
  8
0-d
 10
255.00006
 20
2792.7014
 40
50
 41
1
 50
0
  1
ＡＳ－６００　自然回転  直付型断面
  0
TEXT
  8
0-d
 10
280.6757
 20
215.81083
 40
30
 41
1
 50
0
  1
ＡＳ－６００　自然回転  直付型断面
  0
TEXT
  8
0-d
 10
1235.6794
 20
118.64593
 40
20
 41
1
 50
0
  1
〒421-2114　静岡市葵区安倍口新田１５２番地
  0
POINT
  8
0-8
 62
    2
 10
538.6488
 20
2312.3658
  0
POINT
  8
0-8
 62
    2
 10
1558.6502
 20
2312.3658
  0
POINT
  8
0-8
 62
    2
 10
308.64884
 20
2137.8376
  0
POINT
  8
0-8
 62
    2
 10
308.64884
 20
887.83887
  0
POINT
  8
0-8
 62
    2
 10
308.64884
 20
887.83924
  0
POINT
  8
0-8
 62
    2
 10
308.64884
 20
887.83788
  0
POINT
  8
0-8
 62
    2
 10
308.64884
 20
887.83887
  0
POINT
  8
0-8
 62
    2
 10
308.64884
 20
887.83788
  0
POINT
  8
0-8
 62
    2
 10
308.64884
 20
887.83887
  0
POINT
  8
0-8
 62
    2
 10
1356.1485
 20
713.5467
  0
POINT
  8
0-8
 62
    2
 10
741.14849
 20
713.54695
  0
ENDSEC
  0
EOF
