  0
SECTION
  2
HEADER
  9
$EXTMIN
 10
0
 20
0
  9
$EXTMAX
 10
4200
 20
2970
  0
ENDSEC
  0
SECTION
  2
TABLES
  0
TABLE
  2
LTYPE
 70
     9
  0
LTYPE
  2
CONTINUOUS
 70
    64
  3
実線
 72
    65
 73
     0
 40
0.0
  0
LTYPE
  2
DASHED1
 70
    64
  3
--  --  --  --  --  --  --  --  
 72
    65
 73
     2
 40
2.5
 49
1.25
 49
-1.25
  0
LTYPE
  2
DASHED2
 70
    64
  3
----    ----    ----    ----    
 72
    65
 73
     2
 40
5.0
 49
2.5
 49
-2.5
  0
LTYPE
  2
DASHED3
 70
    64
  3
------  ------  ------  ------  
 72
    65
 73
     2
 40
5.0
 49
3.75
 49
-1.25
  0
LTYPE
  2
CENTER1
 70
    64
  3
----- - ----- - ----- - ----- - 
 72
    65
 73
     4
 40
10.0
 49
6.25
 49
-1.25
 49
1.25
 49
-1.25
  0
LTYPE
  2
CENTER2
 70
    64
  3
----------  --  ----------  --  
 72
    65
 73
     4
 40
20.0
 49
12.5
 49
-2.5
 49
2.5
 49
-2.5
  0
LTYPE
  2
PHANTOM1
 70
    64
  3
--- - - --- - - --- - - --- - - 
 72
    65
 73
     6
 40
10.0
 49
3.25
 49
-1.25
 49
1.25
 49
-1.25
 49
1.25
 49
-1.25
  0
LTYPE
  2
PHANTOM2
 70
    64
  3
--------  -  -  --------  -  -  
 72
    65
 73
     6
 40
20.0
 49
10.0
 49
-2.5
 49
1.25
 49
-2.5
 49
1.25
 49
-2.5
  0
LTYPE
  2
DOT
 70
    64
  3
-   -   -   -   -   -   -   -   
 72
    65
 73
     2
 40
2.5
 49
0.625
 49
-1.875
  0
ENDTAB
  0
TABLE
  2
STYLE
 70
    1
  0
STYLE
  2
STANDARD
 70
    64
 40
0.0
 41
1.0
 42
0.0
 50
0.0
 71
     0
  3
TXT
  4
BIGFONT
  0
ENDTAB
  0
TABLE
  2
LAYER
 70
    5
  0
LAYER
  2
0-1
 70
   64
 62
    7
  6
CONTINUOUS
  0
LAYER
  2
0-2
 70
   64
 62
    7
  6
CONTINUOUS
  0
LAYER
  2
0-8
 70
   64
 62
    7
  6
CONTINUOUS
  0
LAYER
  2
0-d
 70
   64
 62
    7
  6
CONTINUOUS
  0
LAYER
  2
ADD_LINE
 70
   64
 62
    7
  6
CONTINUOUS
  0
ENDTAB
  0
ENDSEC
  0
SECTION
  2
ENTITIES
  0
LINE
  8
0-d
  6
CONTINUOUS
 62
    7
 10
250.00006
 20
2757.7013
 11
1850.0001
 21
2757.7013
  0
LINE
  8
0-d
  6
CONTINUOUS
 62
    7
 10
250.00006
 20
2767.7016
 11
1850.0001
 21
2767.7016
  0
LINE
  8
0-d
  6
CONTINUOUS
 62
    7
 10
249.99969
 20
189.99989
 11
1850.0005
 21
189.99989
  0
LINE
  8
0-d
  6
CONTINUOUS
 62
    7
 10
249.99969
 20
89.999806
 11
249.99969
 21
269.99991
  0
LINE
  8
0-d
  6
CONTINUOUS
 62
    7
 10
249.99969
 20
89.999806
 11
1850.0005
 21
89.999806
  0
LINE
  8
0-d
  6
CONTINUOUS
 62
    7
 10
1850.0005
 20
269.99991
 11
1850.0005
 21
89.999806
  0
LINE
  8
0-d
  6
CONTINUOUS
 62
    7
 10
249.99969
 20
269.99991
 11
1850.0005
 21
269.99991
  0
LINE
  8
0-d
  6
CONTINUOUS
 62
    7
 10
1050
 20
269.99991
 11
1050
 21
89.999806
  0
LINE
  8
0-d
  6
CONTINUOUS
 62
    7
 10
650.00019
 20
89.999806
 11
650.00019
 21
189.99989
  0
LINE
  8
0-d
  6
CONTINUOUS
 62
    7
 10
1050
 20
189.99989
 11
1050
 21
269.99991
  0
LINE
  8
0-d
  6
CONTINUOUS
 62
    7
 10
849.99981
 20
89.999806
 11
849.99981
 21
189.99989
  0
LINE
  8
0-d
  6
CONTINUOUS
 62
    7
 10
285.00002
 20
89.999806
 11
285.00002
 21
189.99989
  0
LINE
  8
0-d
  6
CONTINUOUS
 62
    7
 10
685.00006
 20
89.999806
 11
685.00006
 21
189.99989
  0
LINE
  8
0-d
  6
CONTINUOUS
 62
    7
 10
885.00018
 20
89.999806
 11
885.00018
 21
189.99989
  0
LINE
  8
0-d
  6
CONTINUOUS
 62
    7
 10
1015
 20
189.99989
 11
1015
 21
269.99991
  0
LINE
  8
0-d
  6
CONTINUOUS
 62
    7
 10
1550.0004
 20
189.99989
 11
1550.0004
 21
269.99991
  0
LINE
  8
0-d
  6
CONTINUOUS
 62
    7
 10
1585.0002
 20
189.99989
 11
1585.0002
 21
269.99991
  0
LINE
  8
0-8
  6
CONTINUOUS
 62
    7
 10
290.00022
 20
1799.6034
 11
290.00022
 21
2519.6033
  0
LINE
  8
0-8
  6
CONTINUOUS
 62
    7
 10
574.99994
 20
2594.2272
 11
1525.0001
 21
2594.2272
  0
LINE
  8
0-8
  6
CONTINUOUS
 62
    7
 10
742.49988
 20
1654.0244
 11
1357.4997
 21
1654.0244
  0
LINE
  8
0-8
  6
CONTINUOUS
 62
    7
 10
742.49988
 20
1757.7209
 11
742.49988
 21
1654.0244
  0
LINE
  8
0-8
  6
CONTINUOUS
 62
    7
 10
1357.4997
 20
1757.7209
 11
1357.4997
 21
1654.0244
  0
LINE
  8
0-8
  6
CONTINUOUS
 62
    7
 10
574.93981
 20
1799.6034
 11
290.00022
 21
1799.6034
  0
LINE
  8
0-8
  6
CONTINUOUS
 62
    7
 10
857.78458
 20
2519.6033
 11
290.00022
 21
2519.6033
  0
LINE
  8
0-8
  6
CONTINUOUS
 62
    7
 10
574.99994
 20
2448.188
 11
574.99994
 21
2594.2272
  0
LINE
  8
0-8
  6
CONTINUOUS
 62
    7
 10
1525.0001
 20
2448.188
 11
1525.0001
 21
2594.2272
  0
LINE
  8
0-8
  6
CONTINUOUS
 62
    7
 10
1767.5674
 20
1799.6034
 11
1767.5674
 21
1929.603
  0
LINE
  8
0-8
  6
CONTINUOUS
 62
    7
 10
1597.2971
 20
1799.6034
 11
1767.5674
 21
1799.6034
  0
LINE
  8
0-8
  6
CONTINUOUS
 62
    7
 10
1597.2971
 20
1929.603
 11
1767.5674
 21
1929.603
  0
LINE
  8
0-8
  6
CONTINUOUS
 62
    7
 10
1767.5674
 20
1929.603
 11
1767.5674
 21
2409.6032
  0
LINE
  8
0-8
  6
CONTINUOUS
 62
    7
 10
1597.2971
 20
2409.6032
 11
1767.5674
 21
2409.6032
  0
LINE
  8
0-8
  6
CONTINUOUS
 62
    7
 10
1767.5674
 20
2409.6032
 11
1767.5674
 21
2519.6033
  0
LINE
  8
0-8
  6
CONTINUOUS
 62
    7
 10
1597.2971
 20
2519.6033
 11
1767.5674
 21
2519.6033
  0
LINE
  8
0-2
  6
CONTINUOUS
 62
    3
 10
574.99994
 20
1977.603
 11
574.99994
 21
1941.6029
  0
LINE
  8
0-2
  6
CONTINUOUS
 62
    3
 10
1525.0001
 20
1977.603
 11
1525.0001
 21
1941.6029
  0
LINE
  8
0-2
  6
CONTINUOUS
 62
    3
 10
742.49988
 20
1877.6034
 11
1357.4997
 21
1877.6034
  0
LINE
  8
0-2
  6
CONTINUOUS
 62
    3
 10
742.49988
 20
1889.6032
 11
1357.4997
 21
1889.6032
  0
LINE
  8
0-2
  6
CONTINUOUS
 62
    3
 10
742.49988
 20
1811.6032
 11
1357.4997
 21
1811.6032
  0
LINE
  8
0-2
  6
CONTINUOUS
 62
    3
 10
742.49988
 20
1877.6034
 11
742.49988
 21
1811.6032
  0
LINE
  8
0-2
  6
CONTINUOUS
 62
    3
 10
742.49988
 20
1799.6034
 11
1357.4997
 21
1799.6034
  0
LINE
  8
0-2
  6
CONTINUOUS
 62
    3
 10
1357.4997
 20
1877.6034
 11
1357.4997
 21
1811.6032
  0
LINE
  8
0-2
  6
CONTINUOUS
 62
    3
 10
742.49988
 20
1929.603
 11
742.49988
 21
1889.6032
  0
LINE
  8
0-2
  6
CONTINUOUS
 62
    3
 10
1050
 20
2519.6033
 11
868.13474
 21
2409.6032
  0
LINE
  8
0-2
  6
CONTINUOUS
 62
    3
 10
574.99994
 20
2361.6038
 11
574.99994
 21
2397.6039
  0
LINE
  8
0-2
  6
CONTINUOUS
 62
    3
 10
1525.0001
 20
2361.6038
 11
1525.0001
 21
2397.6039
  0
LINE
  8
0-2
  6
CONTINUOUS
 62
    3
 10
574.99994
 20
2349.604
 11
574.99994
 21
1989.6028
  0
LINE
  8
0-2
  6
CONTINUOUS
 62
    3
 10
1525.0001
 20
2349.604
 11
1525.0001
 21
1989.6028
  0
LINE
  8
0-2
  6
CONTINUOUS
 62
    3
 10
574.99994
 20
2409.6037
 11
1050
 21
2409.6037
  0
LINE
  8
0-2
  6
CONTINUOUS
 62
    3
 10
574.99994
 20
2397.6039
 11
1050
 21
2397.6039
  0
LINE
  8
0-2
  6
CONTINUOUS
 62
    3
 10
574.99994
 20
2349.604
 11
1050
 21
2349.604
  0
LINE
  8
0-2
  6
CONTINUOUS
 62
    3
 10
574.99994
 20
2361.6038
 11
1050
 21
2361.6038
  0
LINE
  8
0-2
  6
CONTINUOUS
 62
    3
 10
574.99994
 20
1929.603
 11
1050
 21
1929.603
  0
LINE
  8
0-2
  6
CONTINUOUS
 62
    3
 10
574.99994
 20
1941.6029
 11
1050
 21
1941.6029
  0
LINE
  8
0-2
  6
CONTINUOUS
 62
    3
 10
574.99994
 20
1989.6028
 11
1050
 21
1989.6028
  0
LINE
  8
0-2
  6
CONTINUOUS
 62
    3
 10
574.99994
 20
1977.603
 11
1050
 21
1977.603
  0
LINE
  8
0-2
  6
CONTINUOUS
 62
    3
 10
1357.4997
 20
1929.603
 11
1525.0001
 21
1929.603
  0
LINE
  8
0-2
  6
CONTINUOUS
 62
    3
 10
1357.4997
 20
1941.6029
 11
1525.0001
 21
1941.6029
  0
LINE
  8
0-2
  6
CONTINUOUS
 62
    3
 10
1357.4997
 20
1989.6028
 11
1525.0001
 21
1989.6028
  0
LINE
  8
0-2
  6
CONTINUOUS
 62
    3
 10
1357.4997
 20
1977.603
 11
1525.0001
 21
1977.603
  0
LINE
  8
0-2
  6
CONTINUOUS
 62
    3
 10
1357.4997
 20
2252.6036
 11
1357.4997
 21
2186.6035
  0
LINE
  8
0-2
  6
CONTINUOUS
 62
    3
 10
1050
 20
2252.6036
 11
1357.4997
 21
2252.6036
  0
LINE
  8
0-2
  6
CONTINUOUS
 62
    3
 10
1050
 20
2186.6035
 11
1357.4997
 21
2186.6035
  0
LINE
  8
0-2
  6
CONTINUOUS
 62
    3
 10
1050
 20
2174.6037
 11
1357.4997
 21
2174.6037
  0
LINE
  8
0-2
  6
CONTINUOUS
 62
    3
 10
1357.4997
 20
2174.6037
 11
1357.4997
 21
1889.6032
  0
LINE
  8
0-2
  6
CONTINUOUS
 62
    3
 10
1050
 20
2519.6033
 11
1465.7031
 21
2274.5971
  0
LINE
  8
0-2
  6
CONTINUOUS
 62
    3
 10
1335.7873
 20
2349.604
 11
1525.0001
 21
2349.604
  0
LINE
  8
0-2
  6
CONTINUOUS
 62
    3
 10
1315.0029
 20
2361.6038
 11
1525.0001
 21
2361.6038
  0
LINE
  8
0-2
  6
CONTINUOUS
 62
    3
 10
1252.649
 20
2397.6039
 11
1525.0001
 21
2397.6039
  0
LINE
  8
0-2
  6
CONTINUOUS
 62
    3
 10
1231.8646
 20
2409.6037
 11
1525.0001
 21
2409.6037
  0
LINE
  8
0-2
  6
CONTINUOUS
 62
    3
 10
1050
 20
2264.6035
 11
1357.4997
 21
2264.6035
  0
LINE
  8
0-2
  6
CONTINUOUS
 62
    3
 10
1465.7031
 20
2274.5971
 11
1050
 21
2274.5971
  0
LINE
  8
0-1
  6
CENTER2
 62
    7
 10
1050
 20
2519.6033
 11
1050
 21
1710.8108
  0
ARC
  8
0-2
  6
CONTINUOUS
 62
    3
 10
1525.0001
 20
1983.6029
 40
5.9999211
 50
270
 51
90
  0
ARC
  8
0-2
  6
CONTINUOUS
 62
    3
 10
1525.0001
 20
1935.603
 40
5.9999211
 50
270
 51
90
  0
ARC
  8
0-2
  6
CONTINUOUS
 62
    3
 10
574.99994
 20
1983.6029
 40
5.9999211
 50
90
 51
270
  0
ARC
  8
0-2
  6
CONTINUOUS
 62
    3
 10
574.99994
 20
1935.603
 40
5.9999211
 50
90
 51
270
  0
ARC
  8
0-2
  6
CONTINUOUS
 62
    3
 10
1357.4997
 20
1883.6033
 40
5.9999211
 50
270
 51
90
  0
ARC
  8
0-2
  6
CONTINUOUS
 62
    3
 10
1357.4997
 20
1805.6033
 40
5.9999211
 50
270
 51
90
  0
ARC
  8
0-2
  6
CONTINUOUS
 62
    3
 10
742.49988
 20
1883.6033
 40
5.9999211
 50
90
 51
270
  0
ARC
  8
0-2
  6
CONTINUOUS
 62
    3
 10
742.49988
 20
1805.6033
 40
5.9999211
 50
90
 51
270
  0
ARC
  8
0-2
  6
CONTINUOUS
 62
    3
 10
1525.0001
 20
2355.6039
 40
5.9999211
 50
270
 51
90
  0
ARC
  8
0-2
  6
CONTINUOUS
 62
    3
 10
1525.0001
 20
2403.6038
 40
5.9999211
 50
270
 51
90
  0
ARC
  8
0-2
  6
CONTINUOUS
 62
    3
 10
574.99994
 20
2355.6039
 40
5.9999211
 50
90
 51
270
  0
ARC
  8
0-2
  6
CONTINUOUS
 62
    3
 10
574.99994
 20
2403.6038
 40
5.9999211
 50
90
 51
270
  0
ARC
  8
0-2
  6
CONTINUOUS
 62
    3
 10
1357.4997
 20
2258.6035
 40
5.9999211
 50
270
 51
90
  0
ARC
  8
0-2
  6
CONTINUOUS
 62
    3
 10
1357.4997
 20
2180.6036
 40
5.9999211
 50
270
 51
90
  0
TEXT
  8
0-d
 10
254.9998
 20
157.4999
 40
25
 41
1
 50
0
  1
図
  0
TEXT
  8
0-d
 10
254.9998
 20
97.49997
 40
25
 41
1
 50
0
  1
番
  0
TEXT
  8
0-d
 10
655.00046
 20
157.4999
 40
25
 41
1
 50
0
  1
承
  0
TEXT
  8
0-d
 10
655.00046
 20
97.49997
 40
25
 41
1
 50
0
  1
認
  0
TEXT
  8
0-d
 10
1020.0003
 20
237.49996
 40
25
 41
1
 50
0
  1
尺
  0
TEXT
  8
0-d
 10
1020.0003
 20
197.49979
 40
25
 41
1
 50
0.0000762
  1
度
  0
TEXT
  8
0-d
 10
855.00014
 20
157.4999
 40
25
 41
1
 50
0
  1
製
  0
TEXT
  8
0-d
 10
855.00014
 20
97.49997
 40
25
 41
1
 50
0
  1
図
  0
TEXT
  8
0-d
 10
1555.0001
 20
237.49996
 40
25
 41
1
 50
0
  1
日
  0
TEXT
  8
0-d
 10
1555.0001
 20
197.49979
 40
25
 41
1
 50
0.0000762
  1
付
  0
TEXT
  8
0-d
 10
1111.4263
 20
163.48226
 40
20
 41
1
 50
0
  1
株式
  0
TEXT
  8
0-d
 10
1111.4263
 20
141.85181
 40
20
 41
1
 50
0.0000152
  1
会社
  0
TEXT
  8
0-d
 10
1174.2247
 20
143.24712
 40
40
 41
1
 50
0
  1
スズキベンチレーター
  0
TEXT
  8
0-d
 10
1237.9182
 20
94.024183
 40
20
 41
1
 50
0
  1
TEL(054)296-7000  FAX(054)296-7001
  0
TEXT
  8
0-d
 10
1084.349
 20
210.10066
 40
40
 41
1
 50
0
  1
１／１０
  0
TEXT
  8
0-8
 10
1003.8062
 20
1662.8152
 40
30
 41
1
 50
0
  1
615φ
  0
TEXT
  8
0-8
 10
282.3041
 20
2185.0768
 40
30
 41
1
 50
90
  1
720
  0
TEXT
  8
0-8
 10
1022.6839
 20
2602.3457
 40
30
 41
1
 50
0
  1
950
  0
TEXT
  8
0-8
 10
1757.5673
 20
2445.8531
 40
30
 41
1
 50
90
  1
110
  0
TEXT
  8
0-8
 10
1757.5673
 20
2148.3533
 40
30
 41
1
 50
90
  1
480
  0
TEXT
  8
0-8
 10
1757.5673
 20
1845.8532
 40
30
 41
1
 50
90
  1
130
  0
TEXT
  8
0-d
 10
308.45927
 20
140.30214
 40
30
 41
1
 50
0
  1
60-D07a
  0
TEXT
  8
0-d
 10
255.00006
 20
2792.7014
 40
50
 41
1
 50
0
  1
ＤＳ－６００　自然換気　直付型断面
  0
TEXT
  8
0-d
 10
280.6757
 20
215.81083
 40
30
 41
1
 50
0
  1
ＤＳ－６００　自然換気　直付型断面
  0
TEXT
  8
0-d
 10
1235.6794
 20
118.64593
 40
20
 41
1
 50
0
  1
〒421-2114　静岡市葵区安倍口新田１５２番地
  0
POINT
  8
0-8
 62
    2
 10
290.00022
 20
1799.6034
  0
POINT
  8
0-8
 62
    2
 10
290.00022
 20
2519.6033
  0
POINT
  8
0-8
 62
    2
 10
574.99994
 20
2594.2272
  0
POINT
  8
0-8
 62
    2
 10
1525.0001
 20
2594.2272
  0
POINT
  8
0-8
 62
    2
 10
742.49988
 20
1654.0244
  0
POINT
  8
0-8
 62
    2
 10
1357.4997
 20
1654.0244
  0
POINT
  8
0-8
 62
    2
 10
1767.5674
 20
1799.6034
  0
POINT
  8
0-8
 62
    2
 10
1767.5674
 20
1929.603
  0
POINT
  8
0-8
 62
    2
 10
1767.5674
 20
2409.6032
  0
POINT
  8
0-8
 62
    2
 10
1767.5674
 20
2519.6033
  0
ENDSEC
  0
EOF
