  0
SECTION
  2
HEADER
  9
$EXTMIN
 10
0
 20
0
  9
$EXTMAX
 10
4200
 20
2970
  0
ENDSEC
  0
SECTION
  2
TABLES
  0
TABLE
  2
LTYPE
 70
     9
  0
LTYPE
  2
CONTINUOUS
 70
    64
  3
実線
 72
    65
 73
     0
 40
0.0
  0
LTYPE
  2
DASHED1
 70
    64
  3
--  --  --  --  --  --  --  --  
 72
    65
 73
     2
 40
2.5
 49
1.25
 49
-1.25
  0
LTYPE
  2
DASHED2
 70
    64
  3
----    ----    ----    ----    
 72
    65
 73
     2
 40
5.0
 49
2.5
 49
-2.5
  0
LTYPE
  2
DASHED3
 70
    64
  3
------  ------  ------  ------  
 72
    65
 73
     2
 40
5.0
 49
3.75
 49
-1.25
  0
LTYPE
  2
CENTER1
 70
    64
  3
----- - ----- - ----- - ----- - 
 72
    65
 73
     4
 40
10.0
 49
6.25
 49
-1.25
 49
1.25
 49
-1.25
  0
LTYPE
  2
CENTER2
 70
    64
  3
----------  --  ----------  --  
 72
    65
 73
     4
 40
20.0
 49
12.5
 49
-2.5
 49
2.5
 49
-2.5
  0
LTYPE
  2
PHANTOM1
 70
    64
  3
--- - - --- - - --- - - --- - - 
 72
    65
 73
     6
 40
10.0
 49
3.25
 49
-1.25
 49
1.25
 49
-1.25
 49
1.25
 49
-1.25
  0
LTYPE
  2
PHANTOM2
 70
    64
  3
--------  -  -  --------  -  -  
 72
    65
 73
     6
 40
20.0
 49
10.0
 49
-2.5
 49
1.25
 49
-2.5
 49
1.25
 49
-2.5
  0
LTYPE
  2
DOT
 70
    64
  3
-   -   -   -   -   -   -   -   
 72
    65
 73
     2
 40
2.5
 49
0.625
 49
-1.875
  0
ENDTAB
  0
TABLE
  2
STYLE
 70
    1
  0
STYLE
  2
STANDARD
 70
    64
 40
0.0
 41
1.0
 42
0.0
 50
0.0
 71
     0
  3
TXT
  4
BIGFONT
  0
ENDTAB
  0
TABLE
  2
LAYER
 70
    4
  0
LAYER
  2
1-2
 70
   64
 62
    7
  6
CONTINUOUS
  0
LAYER
  2
1-8
 70
   64
 62
    7
  6
CONTINUOUS
  0
LAYER
  2
1-d
 70
   64
 62
    7
  6
CONTINUOUS
  0
LAYER
  2
ADD_LINE
 70
   64
 62
    7
  6
CONTINUOUS
  0
ENDTAB
  0
ENDSEC
  0
SECTION
  2
ENTITIES
  0
LINE
  8
1-d
  6
CONTINUOUS
 62
    7
 10
250.00006
 20
2757.7013
 11
1850.0001
 21
2757.7013
  0
LINE
  8
1-d
  6
CONTINUOUS
 62
    7
 10
250.00006
 20
2767.7016
 11
1850.0001
 21
2767.7016
  0
LINE
  8
1-d
  6
CONTINUOUS
 62
    7
 10
249.99969
 20
189.99989
 11
1850.0005
 21
189.99989
  0
LINE
  8
1-d
  6
CONTINUOUS
 62
    7
 10
249.99969
 20
89.999806
 11
249.99969
 21
269.99991
  0
LINE
  8
1-d
  6
CONTINUOUS
 62
    7
 10
249.99969
 20
89.999806
 11
1850.0005
 21
89.999806
  0
LINE
  8
1-d
  6
CONTINUOUS
 62
    7
 10
1850.0005
 20
269.99991
 11
1850.0005
 21
89.999806
  0
LINE
  8
1-d
  6
CONTINUOUS
 62
    7
 10
249.99969
 20
269.99991
 11
1850.0005
 21
269.99991
  0
LINE
  8
1-d
  6
CONTINUOUS
 62
    7
 10
1050
 20
269.99991
 11
1050
 21
89.999806
  0
LINE
  8
1-d
  6
CONTINUOUS
 62
    7
 10
650.00019
 20
89.999806
 11
650.00019
 21
189.99989
  0
LINE
  8
1-d
  6
CONTINUOUS
 62
    7
 10
1050
 20
189.99989
 11
1050
 21
269.99991
  0
LINE
  8
1-d
  6
CONTINUOUS
 62
    7
 10
849.99981
 20
89.999806
 11
849.99981
 21
189.99989
  0
LINE
  8
1-d
  6
CONTINUOUS
 62
    7
 10
285.00002
 20
89.999806
 11
285.00002
 21
189.99989
  0
LINE
  8
1-d
  6
CONTINUOUS
 62
    7
 10
685.00006
 20
89.999806
 11
685.00006
 21
189.99989
  0
LINE
  8
1-d
  6
CONTINUOUS
 62
    7
 10
885.00018
 20
89.999806
 11
885.00018
 21
189.99989
  0
LINE
  8
1-d
  6
CONTINUOUS
 62
    7
 10
1015
 20
189.99989
 11
1015
 21
269.99991
  0
LINE
  8
1-d
  6
CONTINUOUS
 62
    7
 10
1550.0004
 20
189.99989
 11
1550.0004
 21
269.99991
  0
LINE
  8
1-d
  6
CONTINUOUS
 62
    7
 10
1585.0002
 20
189.99989
 11
1585.0002
 21
269.99991
  0
LINE
  8
1-8
  6
CONTINUOUS
 62
    7
 10
410.00022
 20
2087.2591
 11
410.00022
 21
2567.259
  0
LINE
  8
1-8
  6
CONTINUOUS
 62
    7
 10
733.33335
 20
2683.675
 11
1366.6668
 21
2683.675
  0
LINE
  8
1-8
  6
CONTINUOUS
 62
    7
 10
748.66769
 20
1655.2592
 11
410.00022
 21
1655.2592
  0
LINE
  8
1-8
  6
CONTINUOUS
 62
    7
 10
844.99998
 20
1973.7906
 11
1254.9999
 21
1973.7906
  0
LINE
  8
1-8
  6
CONTINUOUS
 62
    7
 10
859.98593
 20
716.7774
 11
1240.0144
 21
849.88914
  0
LINE
  8
1-2
  6
CONTINUOUS
 62
    3
 10
848.33337
 20
1655.2592
 11
1251.6666
 21
1655.2592
  0
LINE
  8
1-2
  6
CONTINUOUS
 62
    3
 10
848.33337
 20
1715.2592
 11
1251.6666
 21
1715.2592
  0
LINE
  8
1-8
  6
CONTINUOUS
 62
    7
 10
848.33337
 20
1842.8659
 11
1251.6666
 21
1842.8659
  0
LINE
  8
1-8
  6
CONTINUOUS
 62
    7
 10
844.99998
 20
2042.9214
 11
844.99998
 21
1973.7906
  0
LINE
  8
1-8
  6
CONTINUOUS
 62
    7
 10
1254.9999
 20
2042.9214
 11
1254.9999
 21
1973.7906
  0
LINE
  8
1-8
  6
CONTINUOUS
 62
    7
 10
848.33337
 20
1736.8614
 11
848.33337
 21
1842.8659
  0
LINE
  8
1-8
  6
CONTINUOUS
 62
    7
 10
1251.6666
 20
1736.8614
 11
1251.6666
 21
1842.8659
  0
LINE
  8
1-8
  6
CONTINUOUS
 62
    7
 10
624.20744
 20
1324.8165
 11
698.66109
 21
1324.8165
  0
LINE
  8
1-8
  6
CONTINUOUS
 62
    7
 10
624.20744
 20
1324.8165
 11
698.66109
 21
1347.1516
  0
LINE
  8
1-8
  6
CONTINUOUS
 62
    7
 10
698.66109
 20
1324.8165
 11
698.66109
 21
1347.1516
  0
LINE
  8
1-2
  6
CONTINUOUS
 62
    3
 10
733.33335
 20
2209.2588
 11
1366.6668
 21
2209.2588
  0
LINE
  8
1-2
  6
CONTINUOUS
 62
    3
 10
733.33335
 20
2217.2586
 11
1366.6668
 21
2217.2586
  0
LINE
  8
1-2
  6
CONTINUOUS
 62
    3
 10
733.33335
 20
2185.2587
 11
1366.6668
 21
2185.2587
  0
LINE
  8
1-2
  6
CONTINUOUS
 62
    3
 10
733.33335
 20
2177.2589
 11
1366.6668
 21
2177.2589
  0
LINE
  8
1-2
  6
CONTINUOUS
 62
    3
 10
848.33337
 20
1715.2592
 11
848.33337
 21
1707.259
  0
LINE
  8
1-2
  6
CONTINUOUS
 62
    3
 10
848.33337
 20
1699.2592
 11
848.33337
 21
1655.2592
  0
LINE
  8
1-2
  6
CONTINUOUS
 62
    3
 10
848.33337
 20
1699.2592
 11
1251.6666
 21
1699.2592
  0
LINE
  8
1-2
  6
CONTINUOUS
 62
    3
 10
1251.6666
 20
1699.2592
 11
1251.6666
 21
1655.2592
  0
LINE
  8
1-2
  6
CONTINUOUS
 62
    3
 10
848.33337
 20
1707.259
 11
1251.6668
 21
1707.259
  0
LINE
  8
1-2
  6
CONTINUOUS
 62
    3
 10
1251.6668
 20
1715.2592
 11
1251.6668
 21
1707.259
  0
LINE
  8
1-2
  6
CONTINUOUS
 62
    3
 10
733.33335
 20
2209.2588
 11
733.33335
 21
2185.2587
  0
LINE
  8
1-2
  6
CONTINUOUS
 62
    3
 10
1366.6668
 20
2209.2588
 11
1366.6668
 21
2185.2587
  0
LINE
  8
1-2
  6
CONTINUOUS
 62
    3
 10
844.99998
 20
2139.2591
 11
1254.9999
 21
2139.2591
  0
LINE
  8
1-2
  6
CONTINUOUS
 62
    3
 10
844.99998
 20
2147.2588
 11
1254.9999
 21
2147.2588
  0
LINE
  8
1-2
  6
CONTINUOUS
 62
    3
 10
844.99998
 20
2095.2589
 11
1254.9999
 21
2095.2589
  0
LINE
  8
1-2
  6
CONTINUOUS
 62
    3
 10
844.99998
 20
2139.2591
 11
844.99998
 21
2095.2589
  0
LINE
  8
1-2
  6
CONTINUOUS
 62
    3
 10
844.99998
 20
2087.2591
 11
1254.9999
 21
2087.2591
  0
LINE
  8
1-2
  6
CONTINUOUS
 62
    3
 10
1254.9999
 20
2139.2591
 11
1254.9999
 21
2095.2589
  0
LINE
  8
1-2
  6
CONTINUOUS
 62
    3
 10
1254.9999
 20
2177.2589
 11
1254.9999
 21
2147.2588
  0
LINE
  8
1-2
  6
CONTINUOUS
 62
    3
 10
844.99998
 20
2177.2589
 11
844.99998
 21
2147.2588
  0
LINE
  8
1-8
  6
CONTINUOUS
 62
    7
 10
410.00022
 20
376.66668
 11
410.00022
 21
1190.0003
  0
LINE
  8
1-8
  6
CONTINUOUS
 62
    7
 10
1690.0002
 20
533.33318
 11
1690.0002
 21
1033.3333
  0
LINE
  8
1-2
  6
CONTINUOUS
 62
    3
 10
800.00032
 20
1033.3333
 11
866.56857
 21
966.76512
  0
LINE
  8
1-2
  6
CONTINUOUS
 62
    3
 10
1299.9999
 20
1033.3333
 11
1233.4315
 21
966.76512
  0
LINE
  8
1-2
  6
CONTINUOUS
 62
    3
 10
799.99971
 20
533.33342
 11
866.56857
 21
599.90216
  0
LINE
  8
1-2
  6
CONTINUOUS
 62
    3
 10
1300.0003
 20
533.33342
 11
1233.4315
 21
599.90216
  0
LINE
  8
1-2
  6
CONTINUOUS
 62
    3
 10
800.00008
 20
1033.3333
 11
800.00008
 21
533.33342
  0
LINE
  8
1-2
  6
CONTINUOUS
 62
    3
 10
800.00008
 20
533.33342
 11
1300.0001
 21
533.33342
  0
LINE
  8
1-2
  6
CONTINUOUS
 62
    3
 10
1300.0001
 20
1033.3333
 11
1300.0001
 21
533.33342
  0
LINE
  8
1-2
  6
CONTINUOUS
 62
    3
 10
800.00008
 20
1033.3333
 11
1300.0001
 21
1033.3333
  0
LINE
  8
1-2
  6
CONTINUOUS
 62
    3
 10
1050
 20
2567.259
 11
928.75651
 21
2497.259
  0
LINE
  8
1-2
  6
CONTINUOUS
 62
    3
 10
1050
 20
2567.259
 11
1171.2437
 21
2497.259
  0
LINE
  8
1-8
  6
CENTER2
 62
    7
 10
643.3333
 20
783.33352
 11
1456.6669
 21
783.33352
  0
LINE
  8
1-8
  6
CONTINUOUS
 62
    7
 10
733.29327
 20
2087.2591
 11
410.00022
 21
2087.2591
  0
LINE
  8
1-8
  6
CONTINUOUS
 62
    7
 10
921.8564
 20
2567.259
 11
410.00022
 21
2567.259
  0
LINE
  8
1-8
  6
CONTINUOUS
 62
    7
 10
733.33335
 20
2522.9821
 11
733.33335
 21
2683.675
  0
LINE
  8
1-8
  6
CONTINUOUS
 62
    7
 10
1366.6668
 20
2522.9821
 11
1366.6668
 21
2683.675
  0
LINE
  8
1-2
  6
CONTINUOUS
 62
    3
 10
733.33335
 20
2465.2594
 11
1366.6668
 21
2465.2594
  0
LINE
  8
1-2
  6
CONTINUOUS
 62
    3
 10
733.33335
 20
2457.2594
 11
1366.6668
 21
2457.2594
  0
LINE
  8
1-2
  6
CONTINUOUS
 62
    3
 10
733.33335
 20
2489.2593
 11
1366.6668
 21
2489.2593
  0
LINE
  8
1-2
  6
CONTINUOUS
 62
    3
 10
733.33335
 20
2497.2593
 11
1366.6668
 21
2497.2593
  0
LINE
  8
1-2
  6
CONTINUOUS
 62
    3
 10
733.33335
 20
2465.2594
 11
733.33335
 21
2489.2593
  0
LINE
  8
1-2
  6
CONTINUOUS
 62
    3
 10
1366.6668
 20
2465.2594
 11
1366.6668
 21
2489.2593
  0
LINE
  8
1-2
  6
CONTINUOUS
 62
    3
 10
733.33335
 20
2457.2594
 11
733.33335
 21
2217.2586
  0
LINE
  8
1-2
  6
CONTINUOUS
 62
    3
 10
1366.6668
 20
2457.2594
 11
1366.6668
 21
2217.2586
  0
LINE
  8
1-8
  6
CENTER2
 62
    7
 10
1050
 20
2567.259
 11
1050
 21
310.00001
  0
LINE
  8
1-8
  6
CONTINUOUS
 62
    7
 10
748.66769
 20
1715.2592
 11
410.00022
 21
1715.2592
  0
LINE
  8
1-2
  6
CONTINUOUS
 62
    3
 10
1474.4342
 20
1190.0003
 11
1474.4342
 21
376.66668
  0
LINE
  8
1-2
  6
CONTINUOUS
 62
    3
 10
625.56588
 20
1190.0003
 11
1474.4342
 21
1190.0003
  0
LINE
  8
1-2
  6
CONTINUOUS
 62
    3
 10
625.56588
 20
376.66668
 11
1474.4342
 21
376.66668
  0
LINE
  8
1-2
  6
CONTINUOUS
 62
    3
 10
625.56588
 20
1190.0003
 11
625.56588
 21
376.66668
  0
LINE
  8
1-8
  6
CONTINUOUS
 62
    7
 10
583.82785
 20
1190.0003
 11
410.00022
 21
1190.0003
  0
LINE
  8
1-8
  6
CONTINUOUS
 62
    7
 10
559.45948
 20
376.66668
 11
410.00022
 21
376.66668
  0
LINE
  8
1-8
  6
CONTINUOUS
 62
    7
 10
1520.8337
 20
1033.3333
 11
1690.0002
 21
1033.3333
  0
LINE
  8
1-8
  6
CONTINUOUS
 62
    7
 10
1520.8337
 20
533.33342
 11
1690.0002
 21
533.33342
  0
LINE
  8
1-8
  6
CONTINUOUS
 62
    7
 10
410.00022
 20
1441.9259
 11
410.00022
 21
1715.2592
  0
LINE
  8
1-8
  6
CONTINUOUS
 62
    7
 10
800.00032
 20
1279.929
 11
1300
 21
1279.929
  0
LINE
  8
1-2
  6
CONTINUOUS
 62
    3
 10
848.33337
 20
1655.2592
 11
800.00032
 21
1441.9259
  0
LINE
  8
1-2
  6
CONTINUOUS
 62
    3
 10
1300
 20
1441.9259
 11
1251.6666
 21
1655.2592
  0
LINE
  8
1-8
  6
CONTINUOUS
 62
    7
 10
1300
 20
1396.2381
 11
1300
 21
1279.929
  0
LINE
  8
1-8
  6
CONTINUOUS
 62
    7
 10
800.00032
 20
1396.2381
 11
800.00032
 21
1279.929
  0
LINE
  8
1-2
  6
CONTINUOUS
 62
    3
 10
1050
 20
1516.9227
 11
625.56588
 21
1389.5977
  0
LINE
  8
1-2
  6
CONTINUOUS
 62
    3
 10
1474.4342
 20
1389.3331
 11
1050
 21
1516.9227
  0
LINE
  8
1-8
  6
CONTINUOUS
 62
    7
 10
748.66769
 20
1441.9259
 11
410.00022
 21
1441.9259
  0
CIRCLE
  8
1-2
  6
CONTINUOUS
 62
    3
 10
1050
 20
783.33352
 40
201.33335
  0
ARC
  8
1-2
  6
CONTINUOUS
 62
    3
 10
848.33337
 20
1703.2591
 40
3.9999475
 50
270
 51
90
  0
ARC
  8
1-2
  6
CONTINUOUS
 62
    3
 10
1366.6668
 20
2213.2587
 40
3.9999475
 50
270
 51
90
  0
ARC
  8
1-2
  6
CONTINUOUS
 62
    3
 10
1366.6668
 20
2181.2588
 40
3.9999475
 50
270
 51
90
  0
ARC
  8
1-2
  6
CONTINUOUS
 62
    3
 10
1251.6668
 20
1703.2591
 40
3.9999475
 50
90
 51
270
  0
ARC
  8
1-2
  6
CONTINUOUS
 62
    3
 10
733.33335
 20
2213.2587
 40
3.9999475
 50
90
 51
270
  0
ARC
  8
1-2
  6
CONTINUOUS
 62
    3
 10
733.33335
 20
2181.2588
 40
3.9999475
 50
90
 51
270
  0
ARC
  8
1-2
  6
CONTINUOUS
 62
    3
 10
1254.9999
 20
2143.259
 40
3.9999475
 50
270
 51
90
  0
ARC
  8
1-2
  6
CONTINUOUS
 62
    3
 10
1254.9999
 20
2091.259
 40
3.9999475
 50
270
 51
90
  0
ARC
  8
1-2
  6
CONTINUOUS
 62
    3
 10
844.99998
 20
2143.259
 40
3.9999475
 50
90
 51
270
  0
ARC
  8
1-2
  6
CONTINUOUS
 62
    3
 10
844.99998
 20
2091.259
 40
3.9999475
 50
90
 51
270
  0
ARC
  8
1-2
  6
CONTINUOUS
 62
    3
 10
1366.6668
 20
2461.2595
 40
3.9999475
 50
270
 51
90
  0
ARC
  8
1-2
  6
CONTINUOUS
 62
    3
 10
1366.6668
 20
2493.2594
 40
3.9999475
 50
270
 51
90
  0
ARC
  8
1-2
  6
CONTINUOUS
 62
    3
 10
733.33335
 20
2461.2595
 40
3.9999475
 50
90
 51
270
  0
ARC
  8
1-2
  6
CONTINUOUS
 62
    3
 10
733.33335
 20
2493.2594
 40
3.9999475
 50
90
 51
270
  0
TEXT
  8
1-d
 10
254.9998
 20
157.4999
 40
25
 41
1
 50
0
  1
図
  0
TEXT
  8
1-d
 10
254.9998
 20
97.49997
 40
25
 41
1
 50
0
  1
番
  0
TEXT
  8
1-d
 10
655.00046
 20
157.4999
 40
25
 41
1
 50
0
  1
承
  0
TEXT
  8
1-d
 10
655.00046
 20
97.49997
 40
25
 41
1
 50
0
  1
認
  0
TEXT
  8
1-d
 10
1020.0003
 20
237.49996
 40
25
 41
1
 50
0
  1
尺
  0
TEXT
  8
1-d
 10
1020.0003
 20
197.49979
 40
25
 41
1
 50
0.0000762
  1
度
  0
TEXT
  8
1-d
 10
855.00014
 20
157.4999
 40
25
 41
1
 50
0
  1
製
  0
TEXT
  8
1-d
 10
855.00014
 20
97.49997
 40
25
 41
1
 50
0
  1
図
  0
TEXT
  8
1-d
 10
1555.0001
 20
237.49996
 40
25
 41
1
 50
0
  1
日
  0
TEXT
  8
1-d
 10
1555.0001
 20
197.49979
 40
25
 41
1
 50
0.0000762
  1
付
  0
TEXT
  8
1-d
 10
1111.4263
 20
163.48226
 40
20
 41
1
 50
0
  1
株式
  0
TEXT
  8
1-d
 10
1111.4263
 20
141.85181
 40
20
 41
1
 50
0.0000152
  1
会社
  0
TEXT
  8
1-d
 10
1174.2247
 20
143.24712
 40
40
 41
1
 50
0
  1
スズキベンチレーター
  0
TEXT
  8
1-d
 10
1237.9182
 20
94.024183
 40
20
 41
1
 50
0
  1
TEL(054)296-7000  FAX(054)296-7001
  0
TEXT
  8
1-8
 10
717.29987
 20
1335.0201
 40
30
 41
1
 50
0
  1
3
  0
TEXT
  8
1-8
 10
647.88297
 20
1282.7153
 40
30
 41
1
 50
0
  1
10
  0
TEXT
  8
1-8
 10
1028.75
 20
2709.6757
 40
30
 41
1
 50
0
  1
950
  0
TEXT
  8
1-8
 10
384.00017
 20
2216.6749
 40
30
 41
1
 50
90
  1
720
  0
TEXT
  8
1-8
 10
1015
 20
1994.4576
 40
30
 41
1
 50
359.9999
  1
615φ
  0
TEXT
  8
1-8
 10
1015
 20
1863.5326
 40
30
 41
1
 50
0
  1
605φ
  0
TEXT
  8
1-8
 10
1028.7321
 20
1300.5957
 40
30
 41
1
 50
0
  1
750
  0
TEXT
  8
1-8
 10
384.00017
 20
1535.3427
 40
30
 41
1
 50
90
  1
320
  0
TEXT
  8
1-8
 10
384.00017
 20
1668.1759
 40
30
 41
1
 50
90
  1
90
  0
TEXT
  8
1-8
 10
1010.1361
 20
791.2678
 40
30
 41
1
 50
19.303741
  1
605φ
  0
TEXT
  8
1-8
 10
1669.3335
 20
762.08363
 40
30
 41
1
 50
90
  1
750
  0
TEXT
  8
1-8
 10
389.33349
 20
747.08334
 40
30
 41
1
 50
90
  1
≒ 1,220
  0
TEXT
  8
1-d
 10
308.45927
 20
140.30214
 40
30
 41
1
 50
0
  1
60-D06
  0
TEXT
  8
1-d
 10
1084.349
 20
210.10066
 40
40
 41
1
 50
0
  1
１／１５
  0
TEXT
  8
1-d
 10
255.00006
 20
2792.7014
 40
50
 41
1
 50
0
  1
ＤＳ－６００　自然換気　直付型立面、直付袴立面・平面
  0
TEXT
  8
1-2
 10
689.61865
 20
198.18583
 40
30
 41
1
 50
0
  1
直付袴立面・平面
  0
TEXT
  8
1-d
 10
270.25097
 20
234.3749
 40
30
 41
1
 50
0
  1
ＤＳ－６００　自然換気　直付型立面、
  0
TEXT
  8
1-d
 10
1235.6794
 20
118.64593
 40
20
 41
1
 50
0
  1
〒421-2114　静岡市葵区安倍口新田１５２番地
  0
POINT
  8
1-8
 62
    2
 10
410.00022
 20
2087.2591
  0
POINT
  8
1-8
 62
    2
 10
410.00022
 20
2567.259
  0
POINT
  8
1-8
 62
    2
 10
733.33335
 20
2683.675
  0
POINT
  8
1-8
 62
    2
 10
1366.6668
 20
2683.675
  0
POINT
  8
1-8
 62
    2
 10
410.00022
 20
1655.2592
  0
POINT
  8
1-8
 62
    2
 10
410.00022
 20
1715.2592
  0
POINT
  8
1-8
 62
    2
 10
410.00022
 20
376.66668
  0
POINT
  8
1-8
 62
    2
 10
410.00022
 20
1190.0003
  0
POINT
  8
1-8
 62
    2
 10
1690.0002
 20
533.33342
  0
POINT
  8
1-8
 62
    2
 10
1690.0002
 20
1033.3333
  0
POINT
  8
1-8
 62
    2
 10
800.00032
 20
1279.929
  0
POINT
  8
1-8
 62
    2
 10
1300
 20
1279.929
  0
POINT
  8
1-8
 62
    2
 10
844.99998
 20
1973.7906
  0
POINT
  8
1-8
 62
    2
 10
1254.9999
 20
1973.7906
  0
POINT
  8
1-8
 62
    2
 10
859.98593
 20
716.7774
  0
POINT
  8
1-8
 62
    2
 10
1240.0144
 20
849.88914
  0
POINT
  8
1-8
 62
    2
 10
848.33337
 20
1842.8659
  0
POINT
  8
1-8
 62
    2
 10
1251.6666
 20
1842.8659
  0
POINT
  8
1-8
 62
    2
 10
410.00022
 20
1441.9259
  0
ENDSEC
  0
EOF
