  0
SECTION
  2
HEADER
  9
$EXTMIN
 10
0
 20
0
  9
$EXTMAX
 10
4200
 20
2970
  0
ENDSEC
  0
SECTION
  2
TABLES
  0
TABLE
  2
LTYPE
 70
     9
  0
LTYPE
  2
CONTINUOUS
 70
    64
  3
実線
 72
    65
 73
     0
 40
0.0
  0
LTYPE
  2
DASHED1
 70
    64
  3
--  --  --  --  --  --  --  --  
 72
    65
 73
     2
 40
2.5
 49
1.25
 49
-1.25
  0
LTYPE
  2
DASHED2
 70
    64
  3
----    ----    ----    ----    
 72
    65
 73
     2
 40
5.0
 49
2.5
 49
-2.5
  0
LTYPE
  2
DASHED3
 70
    64
  3
------  ------  ------  ------  
 72
    65
 73
     2
 40
5.0
 49
3.75
 49
-1.25
  0
LTYPE
  2
CENTER1
 70
    64
  3
----- - ----- - ----- - ----- - 
 72
    65
 73
     4
 40
10.0
 49
6.25
 49
-1.25
 49
1.25
 49
-1.25
  0
LTYPE
  2
CENTER2
 70
    64
  3
----------  --  ----------  --  
 72
    65
 73
     4
 40
20.0
 49
12.5
 49
-2.5
 49
2.5
 49
-2.5
  0
LTYPE
  2
PHANTOM1
 70
    64
  3
--- - - --- - - --- - - --- - - 
 72
    65
 73
     6
 40
10.0
 49
3.25
 49
-1.25
 49
1.25
 49
-1.25
 49
1.25
 49
-1.25
  0
LTYPE
  2
PHANTOM2
 70
    64
  3
--------  -  -  --------  -  -  
 72
    65
 73
     6
 40
20.0
 49
10.0
 49
-2.5
 49
1.25
 49
-2.5
 49
1.25
 49
-2.5
  0
LTYPE
  2
DOT
 70
    64
  3
-   -   -   -   -   -   -   -   
 72
    65
 73
     2
 40
2.5
 49
0.625
 49
-1.875
  0
ENDTAB
  0
TABLE
  2
STYLE
 70
    1
  0
STYLE
  2
STANDARD
 70
    64
 40
0.0
 41
1.0
 42
0.0
 50
0.0
 71
     0
  3
TXT
  4
BIGFONT
  0
ENDTAB
  0
TABLE
  2
LAYER
 70
    6
  0
LAYER
  2
0-0
 70
   64
 62
    7
  6
CONTINUOUS
  0
LAYER
  2
0-1
 70
   64
 62
    7
  6
CONTINUOUS
  0
LAYER
  2
0-2
 70
   64
 62
    7
  6
CONTINUOUS
  0
LAYER
  2
0-8
 70
   64
 62
    7
  6
CONTINUOUS
  0
LAYER
  2
0-d
 70
   64
 62
    7
  6
CONTINUOUS
  0
LAYER
  2
ADD_LINE
 70
   64
 62
    7
  6
CONTINUOUS
  0
ENDTAB
  0
ENDSEC
  0
SECTION
  2
ENTITIES
  0
LINE
  8
0-d
  6
CONTINUOUS
 62
    7
 10
250.00004
 20
2757.7013
 11
1850.0001
 21
2757.7013
  0
LINE
  8
0-d
  6
CONTINUOUS
 62
    7
 10
250.00004
 20
2767.7016
 11
1850.0001
 21
2767.7016
  0
LINE
  8
0-d
  6
CONTINUOUS
 62
    7
 10
249.99967
 20
189.99989
 11
1850.0003
 21
189.99989
  0
LINE
  8
0-d
  6
CONTINUOUS
 62
    7
 10
249.99967
 20
89.999806
 11
249.99967
 21
269.99991
  0
LINE
  8
0-d
  6
CONTINUOUS
 62
    7
 10
249.99967
 20
89.999806
 11
1850.0003
 21
89.999806
  0
LINE
  8
0-d
  6
CONTINUOUS
 62
    7
 10
1850.0003
 20
269.99991
 11
1850.0003
 21
89.999806
  0
LINE
  8
0-d
  6
CONTINUOUS
 62
    7
 10
249.99967
 20
269.99991
 11
1850.0003
 21
269.99991
  0
LINE
  8
0-d
  6
CONTINUOUS
 62
    7
 10
1050
 20
269.99991
 11
1050
 21
89.999806
  0
LINE
  8
0-d
  6
CONTINUOUS
 62
    7
 10
650.00019
 20
89.999806
 11
650.00019
 21
189.99989
  0
LINE
  8
0-d
  6
CONTINUOUS
 62
    7
 10
1050
 20
189.99989
 11
1050
 21
269.99991
  0
LINE
  8
0-d
  6
CONTINUOUS
 62
    7
 10
849.99975
 20
89.999806
 11
849.99975
 21
189.99989
  0
LINE
  8
0-d
  6
CONTINUOUS
 62
    7
 10
285.00002
 20
89.999806
 11
285.00002
 21
189.99989
  0
LINE
  8
0-d
  6
CONTINUOUS
 62
    7
 10
685.00006
 20
89.999806
 11
685.00006
 21
189.99989
  0
LINE
  8
0-d
  6
CONTINUOUS
 62
    7
 10
885.00011
 20
89.999806
 11
885.00011
 21
189.99989
  0
LINE
  8
0-d
  6
CONTINUOUS
 62
    7
 10
1015
 20
189.99989
 11
1015
 21
269.99991
  0
LINE
  8
0-d
  6
CONTINUOUS
 62
    7
 10
1550.0004
 20
189.99989
 11
1550.0004
 21
269.99991
  0
LINE
  8
0-d
  6
CONTINUOUS
 62
    7
 10
1585.0002
 20
189.99989
 11
1585.0002
 21
269.99991
  0
LINE
  8
0-8
  6
CONTINUOUS
 62
    7
 10
330.53136
 20
1699.4204
 11
330.53136
 21
2269.8628
  0
LINE
  8
0-8
  6
CONTINUOUS
 62
    7
 10
570.00005
 20
2371.0568
 11
1530
 21
2371.0568
  0
LINE
  8
0-8
  6
CONTINUOUS
 62
    7
 10
742.50013
 20
1553.1891
 11
1357.4999
 21
1553.1891
  0
LINE
  8
0-8
  6
CONTINUOUS
 62
    7
 10
570.00005
 20
2215.3822
 11
570.00005
 21
2371.0568
  0
LINE
  8
0-8
  6
CONTINUOUS
 62
    7
 10
710.26565
 20
2269.8628
 11
330.53136
 21
2269.8628
  0
LINE
  8
0-8
  6
CONTINUOUS
 62
    7
 10
1530
 20
2215.3822
 11
1530
 21
2371.0568
  0
LINE
  8
0-2
  6
CONTINUOUS
 62
    3
 10
570.00005
 20
2000.3057
 11
570.00005
 21
1962.076
  0
LINE
  8
0-2
  6
CONTINUOUS
 62
    3
 10
570.00005
 20
1949.3328
 11
570.00005
 21
1919.4209
  0
LINE
  8
0-2
  6
CONTINUOUS
 62
    3
 10
742.50013
 20
1712.1636
 11
1357.4999
 21
1712.1636
  0
LINE
  8
0-2
  6
CONTINUOUS
 62
    3
 10
742.50013
 20
1750.3938
 11
742.50013
 21
1712.1636
  0
LINE
  8
0-2
  6
CONTINUOUS
 62
    3
 10
742.50013
 20
1699.4209
 11
1357.4999
 21
1699.4209
  0
LINE
  8
0-2
  6
CONTINUOUS
 62
    3
 10
1357.4999
 20
1750.3938
 11
1357.4999
 21
1712.1636
  0
LINE
  8
0-8
  6
CONTINUOUS
 62
    7
 10
742.50013
 20
1676.802
 11
742.50013
 21
1553.1891
  0
LINE
  8
0-8
  6
CONTINUOUS
 62
    7
 10
1357.4999
 20
1676.802
 11
1357.4999
 21
1553.1891
  0
LINE
  8
0-2
  6
CONTINUOUS
 62
    3
 10
570.00005
 20
2013.0491
 11
1050
 21
2013.0491
  0
LINE
  8
0-2
  6
CONTINUOUS
 62
    3
 10
570.00005
 20
2000.3057
 11
1050
 21
2000.3057
  0
LINE
  8
0-2
  6
CONTINUOUS
 62
    3
 10
570.00005
 20
1962.076
 11
1050
 21
1962.076
  0
LINE
  8
0-2
  6
CONTINUOUS
 62
    3
 10
570.00005
 20
1949.3328
 11
1050
 21
1949.3328
  0
LINE
  8
0-2
  6
CONTINUOUS
 62
    3
 10
570.00005
 20
1919.4209
 11
1050
 21
1919.4209
  0
LINE
  8
0-2
  6
CONTINUOUS
 62
    3
 10
742.50013
 20
1763.1372
 11
1357.4999
 21
1763.1372
  0
LINE
  8
0-2
  6
CONTINUOUS
 62
    3
 10
742.50013
 20
1750.3938
 11
1357.4999
 21
1750.3938
  0
LINE
  8
0-2
  6
CONTINUOUS
 62
    3
 10
570.00005
 20
2159.421
 11
570.00005
 21
2013.0491
  0
LINE
  8
0-8
  6
CONTINUOUS
 62
    7
 10
664.86489
 20
1699.4204
 11
330.53136
 21
1699.4204
  0
LINE
  8
0-2
  6
CONTINUOUS
 62
    3
 10
742.50013
 20
1919.4209
 11
742.50013
 21
1763.1372
  0
LINE
  8
0-8
  6
CONTINUOUS
 62
    7
 10
1718.919
 20
1699.4204
 11
1718.919
 21
1919.4209
  0
LINE
  8
0-8
  6
CONTINUOUS
 62
    7
 10
1564.8649
 20
1699.4204
 11
1718.919
 21
1699.4204
  0
LINE
  8
0-8
  6
CONTINUOUS
 62
    7
 10
1564.8653
 20
1919.4209
 11
1718.919
 21
1919.4209
  0
LINE
  8
0-8
  6
CONTINUOUS
 62
    7
 10
1718.919
 20
1919.4209
 11
1718.919
 21
2159.421
  0
LINE
  8
0-8
  6
CONTINUOUS
 62
    7
 10
1564.8653
 20
2159.421
 11
1718.919
 21
2159.421
  0
LINE
  8
0-8
  6
CONTINUOUS
 62
    7
 10
1718.919
 20
2159.421
 11
1718.919
 21
2269.8633
  0
LINE
  8
0-8
  6
CONTINUOUS
 62
    7
 10
1564.8653
 20
2269.8633
 11
1718.919
 21
2269.8633
  0
LINE
  8
0-1
  6
CENTER2
 62
    7
 10
1050
 20
2529.7298
 11
1050
 21
1427.027
  0
LINE
  8
ADD_LINE
  6
DOT
 62
    7
 10
742.50001
 20
1516.5687
 11
742.50001
 21
2148.6487
  0
LINE
  8
ADD_LINE
  6
DOT
 62
    7
 10
1357.5
 20
1516.5687
 11
1357.5
 21
2148.6487
  0
LINE
  8
ADD_LINE
  6
DOT
 62
    7
 10
1530
 20
2472.973
 11
1530
 21
1508.1081
  0
LINE
  8
ADD_LINE
  6
DOT
 62
    7
 10
570.00005
 20
2472.973
 11
570.00005
 21
1508.1081
  0
LINE
  8
ADD_LINE
  6
DOT
 62
    7
 10
178.37838
 20
2269.4211
 11
1805.1117
 21
2269.4211
  0
LINE
  8
ADD_LINE
  6
DOT
 62
    7
 10
178.37838
 20
2159.4212
 11
1805.1117
 21
2159.4212
  0
LINE
  8
ADD_LINE
  6
DOT
 62
    7
 10
178.37838
 20
1919.4209
 11
1819.0365
 21
1919.4209
  0
LINE
  8
ADD_LINE
  6
DOT
 62
    7
 10
210.81082
 20
1699.4209
 11
1901.5496
 21
1699.4209
  0
LINE
  8
0-2
  6
CONTINUOUS
 62
    3
 10
550.65898
 20
2154.9886
 11
1050
 21
2269.4211
  0
LINE
  8
0-2
  6
CONTINUOUS
 62
    3
 10
570.00005
 20
2159.421
 11
1530
 21
2159.421
  0
LINE
  8
0-2
  6
CONTINUOUS
 62
    3
 10
1530
 20
2000.3057
 11
1530
 21
1962.076
  0
LINE
  8
0-2
  6
CONTINUOUS
 62
    3
 10
1530
 20
1949.3328
 11
1530
 21
1919.4209
  0
LINE
  8
0-2
  6
CONTINUOUS
 62
    3
 10
1530
 20
2013.0491
 11
1050
 21
2013.0491
  0
LINE
  8
0-2
  6
CONTINUOUS
 62
    3
 10
1530
 20
2000.3057
 11
1050
 21
2000.3057
  0
LINE
  8
0-2
  6
CONTINUOUS
 62
    3
 10
1530
 20
1962.076
 11
1050
 21
1962.076
  0
LINE
  8
0-2
  6
CONTINUOUS
 62
    3
 10
1530
 20
1949.3328
 11
1050
 21
1949.3328
  0
LINE
  8
0-2
  6
CONTINUOUS
 62
    3
 10
1530
 20
1919.4209
 11
1050
 21
1919.4209
  0
LINE
  8
0-2
  6
CONTINUOUS
 62
    3
 10
1530
 20
2159.421
 11
1530
 21
2013.0491
  0
LINE
  8
0-2
  6
CONTINUOUS
 62
    3
 10
1549.341
 20
2154.9886
 11
1050
 21
2269.4211
  0
LINE
  8
0-2
  6
CONTINUOUS
 62
    3
 10
1357.4999
 20
1919.4209
 11
1357.4999
 21
1763.1377
  0
ARC
  8
0-2
  6
CONTINUOUS
 62
    3
 10
570.00005
 20
2006.6775
 40
6.3715979
 50
90
 51
270
  0
ARC
  8
0-2
  6
CONTINUOUS
 62
    3
 10
570.00005
 20
1955.7042
 40
6.3715979
 50
90
 51
270
  0
ARC
  8
0-2
  6
CONTINUOUS
 62
    3
 10
1357.4999
 20
1756.7659
 40
6.3715979
 50
270
 51
90
  0
ARC
  8
0-2
  6
CONTINUOUS
 62
    3
 10
1357.4999
 20
1705.7923
 40
6.3715979
 50
270
 51
90
  0
ARC
  8
0-2
  6
CONTINUOUS
 62
    3
 10
742.50013
 20
1756.7659
 40
6.3715979
 50
90
 51
270
  0
ARC
  8
0-2
  6
CONTINUOUS
 62
    3
 10
742.50013
 20
1705.7923
 40
6.3715979
 50
90
 51
270
  0
ARC
  8
0-2
  6
CONTINUOUS
 62
    3
 10
1530
 20
2006.6775
 40
6.3715979
 50
270
 51
90
  0
ARC
  8
0-2
  6
CONTINUOUS
 62
    3
 10
1530
 20
1955.7042
 40
6.3715979
 50
270
 51
90
  0
TEXT
  8
0-d
 10
254.9998
 20
157.4999
 40
25
 41
1
 50
0
  1
図
  0
TEXT
  8
0-d
 10
254.9998
 20
97.499963
 40
25
 41
1
 50
0
  1
番
  0
TEXT
  8
0-d
 10
655.00046
 20
157.4999
 40
25
 41
1
 50
0
  1
承
  0
TEXT
  8
0-d
 10
655.00046
 20
97.499963
 40
25
 41
1
 50
0
  1
認
  0
TEXT
  8
0-d
 10
1020.0003
 20
237.49994
 40
25
 41
1
 50
0
  1
尺
  0
TEXT
  8
0-d
 10
1020.0003
 20
197.49978
 40
25
 41
1
 50
0.0000762
  1
度
  0
TEXT
  8
0-d
 10
855.00014
 20
157.4999
 40
25
 41
1
 50
0
  1
製
  0
TEXT
  8
0-d
 10
855.00014
 20
97.499963
 40
25
 41
1
 50
0
  1
図
  0
TEXT
  8
0-d
 10
1555.0001
 20
237.49994
 40
25
 41
1
 50
0
  1
日
  0
TEXT
  8
0-d
 10
1555.0001
 20
197.49978
 40
25
 41
1
 50
0.0000762
  1
付
  0
TEXT
  8
0-d
 10
1111.4263
 20
163.48226
 40
20
 41
1
 50
0
  1
株式
  0
TEXT
  8
0-d
 10
1111.4263
 20
141.85179
 40
20
 41
1
 50
0.0000152
  1
会社
  0
TEXT
  8
0-d
 10
1174.2247
 20
143.24712
 40
40
 41
1
 50
0
  1
スズキベンチレーター
  0
TEXT
  8
0-d
 10
1237.9182
 20
94.024183
 40
20
 41
1
 50
0
  1
TEL(054)296-7000  FAX(054)296-7001
  0
TEXT
  8
0-8
 10
1008.1139
 20
2392.0446
 40
30
 41
1
 50
0.0001678
  1
  960
  0
TEXT
  8
0-8
 10
1035.6247
 20
1587.6579
 40
30
 41
1
 50
0.0001678
  1
615φ
  0
TEXT
  8
0-8
 10
287.56665
 20
1961.3782
 40
30
 41
1
 50
90
  1
570
  0
TEXT
  8
0-8
 10
1708.9194
 20
2205.8922
 40
30
 41
1
 50
90
  1
110
  0
TEXT
  8
0-8
 10
1708.9194
 20
2015.759
 40
30
 41
1
 50
90
  1
240
  0
TEXT
  8
0-8
 10
1708.9194
 20
1785.98
 40
30
 41
1
 50
90
  1
220
  0
TEXT
  8
0-d
 10
1084.349
 20
210.10065
 40
40
 41
1
 50
0
  1
１／１０
  0
TEXT
  8
0-d
 10
255.00005
 20
2792.7014
 40
50
 41
1
 50
0
  1
ＳＴ－６０　直付型立面
  0
TEXT
  8
0-d
 10
280.67567
 20
215.81082
 40
30
 41
1
 50
0
  1
ＳＴ－６０　直付型立面
  0
TEXT
  8
0-d
 10
308.45927
 20
140.30214
 40
30
 41
1
 50
0
  1
60-D01a
  0
TEXT
  8
0-d
 10
1235.6792
 20
118.64593
 40
20
 41
1
 50
0
  1
〒421-2114　静岡市葵区安倍口新田１５２番地
  0
POINT
  8
0-8
 62
    2
 10
330.53136
 20
1699.4204
  0
POINT
  8
0-8
 62
    2
 10
330.53136
 20
2269.8628
  0
POINT
  8
0-8
 62
    2
 10
570.00005
 20
2371.0568
  0
POINT
  8
0-8
 62
    2
 10
1530
 20
2371.0568
  0
POINT
  8
0-8
 62
    2
 10
742.50013
 20
1553.1891
  0
POINT
  8
0-8
 62
    2
 10
1357.4999
 20
1553.1891
  0
POINT
  8
0-8
 62
    2
 10
1718.919
 20
1699.4204
  0
POINT
  8
0-8
 62
    2
 10
1718.919
 20
1919.4209
  0
POINT
  8
0-8
 62
    2
 10
1718.919
 20
2159.421
  0
POINT
  8
0-8
 62
    2
 10
1718.919
 20
2269.8633
  0
ENDSEC
  0
EOF
