  0
SECTION
  2
HEADER
  9
$EXTMIN
 10
0
 20
0
  9
$EXTMAX
 10
4200
 20
2970
  0
ENDSEC
  0
SECTION
  2
TABLES
  0
TABLE
  2
LTYPE
 70
     9
  0
LTYPE
  2
CONTINUOUS
 70
    64
  3
実線
 72
    65
 73
     0
 40
0.0
  0
LTYPE
  2
DASHED1
 70
    64
  3
--  --  --  --  --  --  --  --  
 72
    65
 73
     2
 40
2.5
 49
1.25
 49
-1.25
  0
LTYPE
  2
DASHED2
 70
    64
  3
----    ----    ----    ----    
 72
    65
 73
     2
 40
5.0
 49
2.5
 49
-2.5
  0
LTYPE
  2
DASHED3
 70
    64
  3
------  ------  ------  ------  
 72
    65
 73
     2
 40
5.0
 49
3.75
 49
-1.25
  0
LTYPE
  2
CENTER1
 70
    64
  3
----- - ----- - ----- - ----- - 
 72
    65
 73
     4
 40
10.0
 49
6.25
 49
-1.25
 49
1.25
 49
-1.25
  0
LTYPE
  2
CENTER2
 70
    64
  3
----------  --  ----------  --  
 72
    65
 73
     4
 40
20.0
 49
12.5
 49
-2.5
 49
2.5
 49
-2.5
  0
LTYPE
  2
PHANTOM1
 70
    64
  3
--- - - --- - - --- - - --- - - 
 72
    65
 73
     6
 40
10.0
 49
3.25
 49
-1.25
 49
1.25
 49
-1.25
 49
1.25
 49
-1.25
  0
LTYPE
  2
PHANTOM2
 70
    64
  3
--------  -  -  --------  -  -  
 72
    65
 73
     6
 40
20.0
 49
10.0
 49
-2.5
 49
1.25
 49
-2.5
 49
1.25
 49
-2.5
  0
LTYPE
  2
DOT
 70
    64
  3
-   -   -   -   -   -   -   -   
 72
    65
 73
     2
 40
2.5
 49
0.625
 49
-1.875
  0
ENDTAB
  0
TABLE
  2
STYLE
 70
    1
  0
STYLE
  2
STANDARD
 70
    64
 40
0.0
 41
1.0
 42
0.0
 50
0.0
 71
     0
  3
TXT
  4
BIGFONT
  0
ENDTAB
  0
TABLE
  2
LAYER
 70
    5
  0
LAYER
  2
0-2
 70
   64
 62
    7
  6
CONTINUOUS
  0
LAYER
  2
0-4
 70
   64
 62
    7
  6
CONTINUOUS
  0
LAYER
  2
0-8
 70
   64
 62
    7
  6
CONTINUOUS
  0
LAYER
  2
0-d
 70
   64
 62
    7
  6
CONTINUOUS
  0
LAYER
  2
ADD_LINE
 70
   64
 62
    7
  6
CONTINUOUS
  0
ENDTAB
  0
ENDSEC
  0
SECTION
  2
ENTITIES
  0
LINE
  8
0-d
  6
CONTINUOUS
 62
    7
 10
250.00004
 20
2757.7013
 11
1850.0001
 21
2757.7013
  0
LINE
  8
0-d
  6
CONTINUOUS
 62
    7
 10
250.00004
 20
2767.7016
 11
1850.0001
 21
2767.7016
  0
LINE
  8
0-d
  6
CONTINUOUS
 62
    7
 10
254.99974
 20
200.00017
 11
1855.0003
 21
200.00017
  0
LINE
  8
0-d
  6
CONTINUOUS
 62
    7
 10
254.99974
 20
100.00008
 11
254.99974
 21
280.00019
  0
LINE
  8
0-d
  6
CONTINUOUS
 62
    7
 10
254.99974
 20
100.00008
 11
1855.0003
 21
100.00008
  0
LINE
  8
0-d
  6
CONTINUOUS
 62
    7
 10
254.99974
 20
280.00019
 11
1855.0003
 21
280.00019
  0
LINE
  8
0-d
  6
CONTINUOUS
 62
    7
 10
1055.0001
 20
280.00019
 11
1055.0001
 21
100.00008
  0
LINE
  8
0-d
  6
CONTINUOUS
 62
    7
 10
655.00033
 20
100.00008
 11
655.00033
 21
200.00017
  0
LINE
  8
0-d
  6
CONTINUOUS
 62
    7
 10
1055.0001
 20
200.00017
 11
1055.0001
 21
280.00019
  0
LINE
  8
0-d
  6
CONTINUOUS
 62
    7
 10
854.99977
 20
100.00008
 11
854.99977
 21
200.00017
  0
LINE
  8
0-d
  6
CONTINUOUS
 62
    7
 10
290.0001
 20
100.00008
 11
290.0001
 21
200.00017
  0
LINE
  8
0-d
  6
CONTINUOUS
 62
    7
 10
690.0002
 20
100.00008
 11
690.0002
 21
200.00017
  0
LINE
  8
0-d
  6
CONTINUOUS
 62
    7
 10
890.00013
 20
100.00008
 11
890.00013
 21
200.00017
  0
LINE
  8
0-d
  6
CONTINUOUS
 62
    7
 10
1020
 20
200.00017
 11
1020
 21
280.00019
  0
LINE
  8
0-d
  6
CONTINUOUS
 62
    7
 10
1555.0003
 20
200.00017
 11
1555.0003
 21
280.00019
  0
LINE
  8
0-d
  6
CONTINUOUS
 62
    7
 10
1590.0002
 20
200.00017
 11
1590.0002
 21
280.00019
  0
LINE
  8
0-d
  6
CONTINUOUS
 62
    7
 10
1855.0003
 20
280.00019
 11
1855.0003
 21
100.00008
  0
LINE
  8
0-8
  6
CONTINUOUS
 62
    7
 10
625.00023
 20
2567.7089
 11
1485.0001
 21
2567.7089
  0
LINE
  8
0-8
  6
CONTINUOUS
 62
    7
 10
1485.0001
 20
2343.9488
 11
1485.0001
 21
2567.7089
  0
LINE
  8
0-8
  6
CONTINUOUS
 62
    7
 10
625.00023
 20
2567.7089
 11
625.00023
 21
2343.9488
  0
LINE
  8
0-2
  6
CONTINUOUS
 62
    3
 10
625.00147
 20
1778.785
 11
625.00036
 21
1684.4628
  0
LINE
  8
0-2
  6
CONTINUOUS
 62
    3
 10
797.50019
 20
1571.2796
 11
797.49896
 21
1475.0505
  0
LINE
  8
0-2
  6
CONTINUOUS
 62
    3
 10
1485.0012
 20
1778.785
 11
1485.0001
 21
1684.4628
  0
LINE
  8
0-2
  6
CONTINUOUS
 62
    3
 10
625.00023
 20
2174.9288
 11
1485.0012
 21
2174.9288
  0
LINE
  8
0-2
  6
CONTINUOUS
 62
    3
 10
625.00023
 20
2193.7926
 11
1485.0012
 21
2193.7926
  0
LINE
  8
0-2
  6
CONTINUOUS
 62
    3
 10
625.00023
 20
2174.9288
 11
625.00023
 21
2080.6082
  0
LINE
  8
0-2
  6
CONTINUOUS
 62
    3
 10
1485.0001
 20
2174.9288
 11
1485.0001
 21
2080.6082
  0
LINE
  8
0-8
  6
CONTINUOUS
 62
    7
 10
635.81954
 20
1399.5939
 11
460.45039
 21
1399.5939
  0
LINE
  8
0-2
  6
CONTINUOUS
 62
    3
 10
625.00036
 20
1665.5999
 11
709.23358
 21
1571.2796
  0
LINE
  8
0-2
  6
CONTINUOUS
 62
    3
 10
1055.0001
 20
2429.5939
 11
1274.105
 21
2288.1132
  0
LINE
  8
0-2
  6
CONTINUOUS
 62
    3
 10
1055.0001
 20
2429.5939
 11
843.60157
 21
2293.0892
  0
LINE
  8
0-2
  6
CONTINUOUS
 62
    3
 10
1485.0001
 20
2193.7926
 11
1400.7669
 21
2288.1132
  0
LINE
  8
0-2
  6
CONTINUOUS
 62
    3
 10
625.00023
 20
2193.7926
 11
709.23333
 21
2288.1132
  0
LINE
  8
0-2
  6
CONTINUOUS
 62
    3
 10
980.07231
 20
2280.3174
 11
980.76638
 21
2280.5247
  0
LINE
  8
0-2
  6
CONTINUOUS
 62
    3
 10
980.76638
 20
2280.5247
 11
981.41851
 21
2280.8073
  0
LINE
  8
0-2
  6
CONTINUOUS
 62
    3
 10
981.41851
 20
2280.8073
 11
982.02882
 21
2281.1592
  0
LINE
  8
0-2
  6
CONTINUOUS
 62
    3
 10
982.02882
 20
2281.1592
 11
982.59855
 21
2281.5759
  0
LINE
  8
0-2
  6
CONTINUOUS
 62
    3
 10
982.59855
 20
2281.5759
 11
983.12832
 21
2282.0524
  0
LINE
  8
0-2
  6
CONTINUOUS
 62
    3
 10
983.12832
 20
2282.0524
 11
983.6185
 21
2282.5815
  0
LINE
  8
0-2
  6
CONTINUOUS
 62
    3
 10
983.6185
 20
2282.5815
 11
984.07057
 21
2283.1585
  0
LINE
  8
0-2
  6
CONTINUOUS
 62
    3
 10
984.07057
 20
2283.1585
 11
984.48503
 21
2283.7796
  0
LINE
  8
0-2
  6
CONTINUOUS
 62
    3
 10
984.48503
 20
2283.7796
 11
984.86225
 21
2284.4382
  0
LINE
  8
0-2
  6
CONTINUOUS
 62
    3
 10
984.86225
 20
2284.4382
 11
985.2036
 21
2285.1291
  0
LINE
  8
0-2
  6
CONTINUOUS
 62
    3
 10
985.2036
 20
2285.1291
 11
985.50931
 21
2285.8477
  0
LINE
  8
0-2
  6
CONTINUOUS
 62
    3
 10
985.50931
 20
2285.8477
 11
985.7805
 21
2286.588
  0
LINE
  8
0-2
  6
CONTINUOUS
 62
    3
 10
985.7805
 20
2286.588
 11
986.01767
 21
2287.3452
  0
LINE
  8
0-2
  6
CONTINUOUS
 62
    3
 10
986.01767
 20
2287.3452
 11
986.22194
 21
2288.1132
  0
LINE
  8
0-2
  6
CONTINUOUS
 62
    3
 10
976.25964
 20
2280.2758
 11
975.45707
 21
2280.5638
  0
LINE
  8
0-2
  6
CONTINUOUS
 62
    3
 10
975.45707
 20
2280.5638
 11
974.70398
 21
2280.9048
  0
LINE
  8
0-2
  6
CONTINUOUS
 62
    3
 10
974.70398
 20
2280.9048
 11
973.99965
 21
2281.2953
  0
LINE
  8
0-2
  6
CONTINUOUS
 62
    3
 10
973.99965
 20
2281.2953
 11
973.34418
 21
2281.7327
  0
LINE
  8
0-2
  6
CONTINUOUS
 62
    3
 10
973.34418
 20
2281.7327
 11
972.73646
 21
2282.2143
  0
LINE
  8
0-2
  6
CONTINUOUS
 62
    3
 10
972.73646
 20
2282.2143
 11
972.17614
 21
2282.7383
  0
LINE
  8
0-2
  6
CONTINUOUS
 62
    3
 10
972.17614
 20
2282.7383
 11
971.66295
 21
2283.301
  0
LINE
  8
0-2
  6
CONTINUOUS
 62
    3
 10
971.66295
 20
2283.301
 11
971.19603
 21
2283.9008
  0
LINE
  8
0-2
  6
CONTINUOUS
 62
    3
 10
971.19603
 20
2283.9008
 11
970.77476
 21
2284.5333
  0
LINE
  8
0-2
  6
CONTINUOUS
 62
    3
 10
970.77476
 20
2284.5333
 11
970.39902
 21
2285.1974
  0
LINE
  8
0-2
  6
CONTINUOUS
 62
    3
 10
970.39902
 20
2285.1974
 11
970.06807
 21
2285.8902
  0
LINE
  8
0-2
  6
CONTINUOUS
 62
    3
 10
970.06807
 20
2285.8902
 11
969.78129
 21
2286.6088
  0
LINE
  8
0-2
  6
CONTINUOUS
 62
    3
 10
969.78129
 20
2286.6088
 11
969.53831
 21
2287.3511
  0
LINE
  8
0-2
  6
CONTINUOUS
 62
    3
 10
969.53831
 20
2287.3511
 11
969.33837
 21
2288.1132
  0
LINE
  8
0-2
  6
CONTINUOUS
 62
    3
 10
936.2308
 20
2288.1132
 11
935.45334
 21
2286.8468
  0
LINE
  8
0-2
  6
CONTINUOUS
 62
    3
 10
935.45334
 20
2286.8468
 11
934.66686
 21
2285.721
  0
LINE
  8
0-2
  6
CONTINUOUS
 62
    3
 10
934.66686
 20
2285.721
 11
933.87443
 21
2284.7265
  0
LINE
  8
0-2
  6
CONTINUOUS
 62
    3
 10
933.87443
 20
2284.7265
 11
933.07916
 21
2283.8568
  0
LINE
  8
0-2
  6
CONTINUOUS
 62
    3
 10
933.07916
 20
2283.8568
 11
932.28426
 21
2283.1026
  0
LINE
  8
0-2
  6
CONTINUOUS
 62
    3
 10
932.28426
 20
2283.1026
 11
931.49245
 21
2282.4582
  0
LINE
  8
0-2
  6
CONTINUOUS
 62
    3
 10
931.49245
 20
2282.4582
 11
930.70732
 21
2281.9144
  0
LINE
  8
0-2
  6
CONTINUOUS
 62
    3
 10
930.70732
 20
2281.9144
 11
929.93148
 21
2281.4633
  0
LINE
  8
0-2
  6
CONTINUOUS
 62
    3
 10
929.93148
 20
2281.4633
 11
929.1685
 21
2281.0973
  0
LINE
  8
0-2
  6
CONTINUOUS
 62
    3
 10
929.1685
 20
2281.0973
 11
928.42086
 21
2280.8098
  0
LINE
  8
0-2
  6
CONTINUOUS
 62
    3
 10
928.42086
 20
2280.8098
 11
927.69227
 21
2280.5911
  0
LINE
  8
0-2
  6
CONTINUOUS
 62
    3
 10
927.69227
 20
2280.5911
 11
926.98558
 21
2280.4342
  0
LINE
  8
0-2
  6
CONTINUOUS
 62
    3
 10
926.98558
 20
2280.4342
 11
926.30376
 21
2280.3317
  0
LINE
  8
0-2
  6
CONTINUOUS
 62
    3
 10
926.30376
 20
2280.3317
 11
925.65003
 21
2280.2758
  0
LINE
  8
0-2
  6
CONTINUOUS
 62
    3
 10
920.08659
 20
2288.1132
 11
920.10985
 21
2287.2026
  0
LINE
  8
0-2
  6
CONTINUOUS
 62
    3
 10
920.10985
 20
2287.2026
 11
920.18024
 21
2286.3604
  0
LINE
  8
0-2
  6
CONTINUOUS
 62
    3
 10
920.18024
 20
2286.3604
 11
920.3
 21
2285.5844
  0
LINE
  8
0-2
  6
CONTINUOUS
 62
    3
 10
920.3
 20
2285.5844
 11
920.47235
 21
2284.8693
  0
LINE
  8
0-2
  6
CONTINUOUS
 62
    3
 10
920.47235
 20
2284.8693
 11
920.69974
 21
2284.2126
  0
LINE
  8
0-2
  6
CONTINUOUS
 62
    3
 10
920.69974
 20
2284.2126
 11
920.98442
 21
2283.6101
  0
LINE
  8
0-2
  6
CONTINUOUS
 62
    3
 10
920.98442
 20
2283.6101
 11
921.32935
 21
2283.0575
  0
LINE
  8
0-2
  6
CONTINUOUS
 62
    3
 10
921.32935
 20
2283.0575
 11
921.73701
 21
2282.5513
  0
LINE
  8
0-2
  6
CONTINUOUS
 62
    3
 10
921.73701
 20
2282.5513
 11
922.21036
 21
2282.0876
  0
LINE
  8
0-2
  6
CONTINUOUS
 62
    3
 10
922.21036
 20
2282.0876
 11
922.75152
 21
2281.6625
  0
LINE
  8
0-2
  6
CONTINUOUS
 62
    3
 10
922.75152
 20
2281.6625
 11
923.36356
 21
2281.273
  0
LINE
  8
0-2
  6
CONTINUOUS
 62
    3
 10
923.36356
 20
2281.273
 11
924.04897
 21
2280.914
  0
LINE
  8
0-2
  6
CONTINUOUS
 62
    3
 10
924.04897
 20
2280.914
 11
924.81034
 21
2280.5826
  0
LINE
  8
0-2
  6
CONTINUOUS
 62
    3
 10
924.81034
 20
2280.5826
 11
925.65003
 21
2280.2758
  0
LINE
  8
0-2
  6
CONTINUOUS
 62
    3
 10
873.75521
 20
2288.1132
 11
874.15167
 21
2287.0438
  0
LINE
  8
0-2
  6
CONTINUOUS
 62
    3
 10
874.15167
 20
2287.0438
 11
874.56459
 21
2286.0728
  0
LINE
  8
0-2
  6
CONTINUOUS
 62
    3
 10
874.56459
 20
2286.0728
 11
874.99365
 21
2285.1974
  0
LINE
  8
0-2
  6
CONTINUOUS
 62
    3
 10
874.99365
 20
2285.1974
 11
875.43842
 21
2284.411
  0
LINE
  8
0-2
  6
CONTINUOUS
 62
    3
 10
875.43842
 20
2284.411
 11
875.89829
 21
2283.7108
  0
LINE
  8
0-2
  6
CONTINUOUS
 62
    3
 10
875.89829
 20
2283.7108
 11
876.37306
 21
2283.0902
  0
LINE
  8
0-2
  6
CONTINUOUS
 62
    3
 10
876.37306
 20
2283.0902
 11
876.86207
 21
2282.5448
  0
LINE
  8
0-2
  6
CONTINUOUS
 62
    3
 10
876.86207
 20
2282.5448
 11
877.3653
 21
2282.0707
  0
LINE
  8
0-2
  6
CONTINUOUS
 62
    3
 10
877.3653
 20
2282.0707
 11
877.88183
 21
2281.662
  0
LINE
  8
0-2
  6
CONTINUOUS
 62
    3
 10
877.88183
 20
2281.662
 11
878.41178
 21
2281.3151
  0
LINE
  8
0-2
  6
CONTINUOUS
 62
    3
 10
878.41178
 20
2281.3151
 11
878.95442
 21
2281.0241
  0
LINE
  8
0-2
  6
CONTINUOUS
 62
    3
 10
878.95442
 20
2281.0241
 11
879.50942
 21
2280.785
  0
LINE
  8
0-2
  6
CONTINUOUS
 62
    3
 10
879.50942
 20
2280.785
 11
880.07643
 21
2280.593
  0
LINE
  8
0-2
  6
CONTINUOUS
 62
    3
 10
880.07643
 20
2280.593
 11
880.65495
 21
2280.4426
  0
LINE
  8
0-2
  6
CONTINUOUS
 62
    3
 10
881.92704
 20
2280.4426
 11
882.53029
 21
2280.5703
  0
LINE
  8
0-2
  6
CONTINUOUS
 62
    3
 10
882.53029
 20
2280.5703
 11
883.12879
 21
2280.7747
  0
LINE
  8
0-2
  6
CONTINUOUS
 62
    3
 10
883.12879
 20
2280.7747
 11
883.72215
 21
2281.0538
  0
LINE
  8
0-2
  6
CONTINUOUS
 62
    3
 10
883.72215
 20
2281.0538
 11
884.31093
 21
2281.4091
  0
LINE
  8
0-2
  6
CONTINUOUS
 62
    3
 10
884.31093
 20
2281.4091
 11
884.89464
 21
2281.8401
  0
LINE
  8
0-2
  6
CONTINUOUS
 62
    3
 10
884.89464
 20
2281.8401
 11
885.47353
 21
2282.3464
  0
LINE
  8
0-2
  6
CONTINUOUS
 62
    3
 10
885.47353
 20
2282.3464
 11
886.04753
 21
2282.9286
  0
LINE
  8
0-2
  6
CONTINUOUS
 62
    3
 10
886.04753
 20
2282.9286
 11
886.61658
 21
2283.5866
  0
LINE
  8
0-2
  6
CONTINUOUS
 62
    3
 10
886.61658
 20
2283.5866
 11
887.1808
 21
2284.3195
  0
LINE
  8
0-2
  6
CONTINUOUS
 62
    3
 10
831.34712
 20
2288.1132
 11
831.46193
 21
2287.2977
  0
LINE
  8
0-2
  6
CONTINUOUS
 62
    3
 10
831.46193
 20
2287.2977
 11
831.62462
 21
2286.5385
  0
LINE
  8
0-2
  6
CONTINUOUS
 62
    3
 10
831.62462
 20
2286.5385
 11
831.83197
 21
2285.8333
  0
LINE
  8
0-2
  6
CONTINUOUS
 62
    3
 10
831.83197
 20
2285.8333
 11
832.07954
 21
2285.1806
  0
LINE
  8
0-2
  6
CONTINUOUS
 62
    3
 10
832.07954
 20
2285.1806
 11
832.36409
 21
2284.5763
  0
LINE
  8
0-2
  6
CONTINUOUS
 62
    3
 10
832.36409
 20
2284.5763
 11
832.6823
 21
2284.0201
  0
LINE
  8
0-2
  6
CONTINUOUS
 62
    3
 10
832.6823
 20
2284.0201
 11
833.03082
 21
2283.5091
  0
LINE
  8
0-2
  6
CONTINUOUS
 62
    3
 10
833.03082
 20
2283.5091
 11
833.40656
 21
2283.0427
  0
LINE
  8
0-2
  6
CONTINUOUS
 62
    3
 10
833.40656
 20
2283.0427
 11
833.80716
 21
2282.6181
  0
LINE
  8
0-2
  6
CONTINUOUS
 62
    3
 10
833.80716
 20
2282.6181
 11
834.2293
 21
2282.2341
  0
LINE
  8
0-2
  6
CONTINUOUS
 62
    3
 10
834.2293
 20
2282.2341
 11
834.67122
 21
2281.8896
  0
LINE
  8
0-2
  6
CONTINUOUS
 62
    3
 10
834.67122
 20
2281.8896
 11
835.13022
 21
2281.5848
  0
LINE
  8
0-2
  6
CONTINUOUS
 62
    3
 10
835.13022
 20
2281.5848
 11
835.60432
 21
2281.3151
  0
LINE
  8
0-2
  6
CONTINUOUS
 62
    3
 10
835.60432
 20
2281.3151
 11
836.09178
 21
2281.083
  0
LINE
  8
0-2
  6
CONTINUOUS
 62
    3
 10
836.09178
 20
2281.083
 11
836.59086
 21
2280.886
  0
LINE
  8
0-2
  6
CONTINUOUS
 62
    3
 10
836.59086
 20
2280.886
 11
837.10009
 21
2280.7237
  0
LINE
  8
0-2
  6
CONTINUOUS
 62
    3
 10
837.10009
 20
2280.7237
 11
837.61798
 21
2280.596
  0
LINE
  8
0-2
  6
CONTINUOUS
 62
    3
 10
837.61798
 20
2280.596
 11
838.14379
 21
2280.5027
  0
LINE
  8
0-2
  6
CONTINUOUS
 62
    3
 10
838.14379
 20
2280.5027
 11
838.67628
 21
2280.4426
  0
LINE
  8
0-2
  6
CONTINUOUS
 62
    3
 10
838.81064
 20
2280.4495
 11
839.11042
 21
2280.4827
  0
LINE
  8
0-2
  6
CONTINUOUS
 62
    3
 10
839.11042
 20
2280.4827
 11
839.40512
 21
2280.5302
  0
LINE
  8
0-2
  6
CONTINUOUS
 62
    3
 10
839.40512
 20
2280.5302
 11
839.6945
 21
2280.593
  0
LINE
  8
0-2
  6
CONTINUOUS
 62
    3
 10
839.6945
 20
2280.593
 11
839.97881
 21
2280.6692
  0
LINE
  8
0-2
  6
CONTINUOUS
 62
    3
 10
839.97881
 20
2280.6692
 11
840.25817
 21
2280.7598
  0
LINE
  8
0-2
  6
CONTINUOUS
 62
    3
 10
840.25817
 20
2280.7598
 11
840.53208
 21
2280.8652
  0
LINE
  8
0-2
  6
CONTINUOUS
 62
    3
 10
840.53208
 20
2280.8652
 11
840.80105
 21
2280.9855
  0
LINE
  8
0-2
  6
CONTINUOUS
 62
    3
 10
840.80105
 20
2280.9855
 11
841.06457
 21
2281.1201
  0
LINE
  8
0-2
  6
CONTINUOUS
 62
    3
 10
841.06457
 20
2281.1201
 11
841.32315
 21
2281.2685
  0
LINE
  8
0-2
  6
CONTINUOUS
 62
    3
 10
717.63428
 20
2288.1132
 11
717.7371
 21
2287.2556
  0
LINE
  8
0-2
  6
CONTINUOUS
 62
    3
 10
717.7371
 20
2287.2556
 11
717.84547
 21
2286.4712
  0
LINE
  8
0-2
  6
CONTINUOUS
 62
    3
 10
717.84547
 20
2286.4712
 11
717.96016
 21
2285.7616
  0
LINE
  8
0-2
  6
CONTINUOUS
 62
    3
 10
717.96016
 20
2285.7616
 11
718.08079
 21
2285.1256
  0
LINE
  8
0-2
  6
CONTINUOUS
 62
    3
 10
718.08079
 20
2285.1256
 11
718.20711
 21
2284.5644
  0
LINE
  8
0-2
  6
CONTINUOUS
 62
    3
 10
718.20711
 20
2284.5644
 11
718.33986
 21
2284.0765
  0
LINE
  8
0-2
  6
CONTINUOUS
 62
    3
 10
718.33986
 20
2284.0765
 11
718.47805
 21
2283.6623
  0
LINE
  8
0-2
  6
CONTINUOUS
 62
    3
 10
718.47805
 20
2283.6623
 11
718.62231
 21
2283.3233
  0
LINE
  8
0-2
  6
CONTINUOUS
 62
    3
 10
718.62231
 20
2283.3233
 11
718.77263
 21
2283.0575
  0
LINE
  8
0-2
  6
CONTINUOUS
 62
    3
 10
736.30201
 20
2288.1132
 11
736.35892
 21
2287.4342
  0
LINE
  8
0-2
  6
CONTINUOUS
 62
    3
 10
736.35892
 20
2287.4342
 11
736.45283
 21
2286.7916
  0
LINE
  8
0-2
  6
CONTINUOUS
 62
    3
 10
736.45283
 20
2286.7916
 11
736.57939
 21
2286.1862
  0
LINE
  8
0-2
  6
CONTINUOUS
 62
    3
 10
736.57939
 20
2286.1862
 11
736.73577
 21
2285.618
  0
LINE
  8
0-2
  6
CONTINUOUS
 62
    3
 10
736.73577
 20
2285.618
 11
736.91789
 21
2285.0875
  0
LINE
  8
0-2
  6
CONTINUOUS
 62
    3
 10
736.91789
 20
2285.0875
 11
737.1224
 21
2284.5951
  0
LINE
  8
0-2
  6
CONTINUOUS
 62
    3
 10
737.1224
 20
2284.5951
 11
737.34547
 21
2284.1393
  0
LINE
  8
0-2
  6
CONTINUOUS
 62
    3
 10
737.34547
 20
2284.1393
 11
737.58338
 21
2283.7226
  0
LINE
  8
0-2
  6
CONTINUOUS
 62
    3
 10
737.58338
 20
2283.7226
 11
737.83255
 21
2283.3431
  0
LINE
  8
0-2
  6
CONTINUOUS
 62
    3
 10
737.83255
 20
2283.3431
 11
738.08927
 21
2283.0031
  0
LINE
  8
0-2
  6
CONTINUOUS
 62
    3
 10
738.08927
 20
2283.0031
 11
738.35007
 21
2282.7012
  0
LINE
  8
0-2
  6
CONTINUOUS
 62
    3
 10
738.35007
 20
2282.7012
 11
738.61137
 21
2282.4379
  0
LINE
  8
0-2
  6
CONTINUOUS
 62
    3
 10
738.61137
 20
2282.4379
 11
738.8692
 21
2282.2143
  0
LINE
  8
0-2
  6
CONTINUOUS
 62
    3
 10
738.8692
 20
2282.2143
 11
739.12023
 21
2282.0292
  0
LINE
  8
0-2
  6
CONTINUOUS
 62
    3
 10
761.86873
 20
2288.1132
 11
762.0381
 21
2287.357
  0
LINE
  8
0-2
  6
CONTINUOUS
 62
    3
 10
762.0381
 20
2287.357
 11
762.24459
 21
2286.6494
  0
LINE
  8
0-2
  6
CONTINUOUS
 62
    3
 10
762.24459
 20
2286.6494
 11
762.48634
 21
2285.9887
  0
LINE
  8
0-2
  6
CONTINUOUS
 62
    3
 10
762.48634
 20
2285.9887
 11
762.76199
 21
2285.3765
  0
LINE
  8
0-2
  6
CONTINUOUS
 62
    3
 10
762.76199
 20
2285.3765
 11
763.06981
 21
2284.8099
  0
LINE
  8
0-2
  6
CONTINUOUS
 62
    3
 10
763.06981
 20
2284.8099
 11
763.4088
 21
2284.2908
  0
LINE
  8
0-2
  6
CONTINUOUS
 62
    3
 10
763.4088
 20
2284.2908
 11
763.77699
 21
2283.8182
  0
LINE
  8
0-2
  6
CONTINUOUS
 62
    3
 10
763.77699
 20
2283.8182
 11
764.17339
 21
2283.3906
  0
LINE
  8
0-2
  6
CONTINUOUS
 62
    3
 10
764.17339
 20
2283.3906
 11
764.59601
 21
2283.01
  0
LINE
  8
0-2
  6
CONTINUOUS
 62
    3
 10
764.59601
 20
2283.01
 11
765.04388
 21
2282.673
  0
LINE
  8
0-2
  6
CONTINUOUS
 62
    3
 10
765.04388
 20
2282.673
 11
765.51501
 21
2282.381
  0
LINE
  8
0-2
  6
CONTINUOUS
 62
    3
 10
765.51501
 20
2282.381
 11
766.0084
 21
2282.1341
  0
LINE
  8
0-2
  6
CONTINUOUS
 62
    3
 10
766.0084
 20
2282.1341
 11
766.52209
 21
2281.9317
  0
LINE
  8
0-2
  6
CONTINUOUS
 62
    3
 10
766.52209
 20
2281.9317
 11
767.05507
 21
2281.7723
  0
LINE
  8
0-2
  6
CONTINUOUS
 62
    3
 10
793.7662
 20
2288.1132
 11
794.02267
 21
2287.3204
  0
LINE
  8
0-2
  6
CONTINUOUS
 62
    3
 10
794.02267
 20
2287.3204
 11
794.32294
 21
2286.5865
  0
LINE
  8
0-2
  6
CONTINUOUS
 62
    3
 10
794.32294
 20
2286.5865
 11
794.66342
 21
2285.91
  0
LINE
  8
0-2
  6
CONTINUOUS
 62
    3
 10
794.66342
 20
2285.91
 11
795.04076
 21
2285.2914
  0
LINE
  8
0-2
  6
CONTINUOUS
 62
    3
 10
795.04076
 20
2285.2914
 11
795.45102
 21
2284.7317
  0
LINE
  8
0-2
  6
CONTINUOUS
 62
    3
 10
795.45102
 20
2284.7317
 11
795.89035
 21
2284.2304
  0
LINE
  8
0-2
  6
CONTINUOUS
 62
    3
 10
795.89035
 20
2284.2304
 11
796.35504
 21
2283.7855
  0
LINE
  8
0-2
  6
CONTINUOUS
 62
    3
 10
796.35504
 20
2283.7855
 11
796.84077
 21
2283.399
  0
LINE
  8
0-2
  6
CONTINUOUS
 62
    3
 10
796.84077
 20
2283.399
 11
797.34393
 21
2283.0674
  0
LINE
  8
0-2
  6
CONTINUOUS
 62
    3
 10
797.34393
 20
2283.0674
 11
797.85985
 21
2282.7928
  0
LINE
  8
0-2
  6
CONTINUOUS
 62
    3
 10
797.85985
 20
2282.7928
 11
798.38491
 21
2282.5721
  0
LINE
  8
0-2
  6
CONTINUOUS
 62
    3
 10
798.38491
 20
2282.5721
 11
798.91382
 21
2282.4033
  0
LINE
  8
0-2
  6
CONTINUOUS
 62
    3
 10
798.91382
 20
2282.4033
 11
799.44247
 21
2282.286
  0
LINE
  8
0-2
  6
CONTINUOUS
 62
    3
 10
799.44247
 20
2282.286
 11
799.96667
 21
2282.2192
  0
LINE
  8
0-2
  6
CONTINUOUS
 62
    3
 10
799.96667
 20
2282.2192
 11
800.48122
 21
2282.1984
  0
LINE
  8
0-2
  6
CONTINUOUS
 62
    3
 10
800.48122
 20
2282.1984
 11
800.9813
 21
2282.2237
  0
LINE
  8
0-2
  6
CONTINUOUS
 62
    3
 10
800.9813
 20
2282.2237
 11
801.46257
 21
2282.291
  0
LINE
  8
0-2
  6
CONTINUOUS
 62
    3
 10
801.46257
 20
2282.291
 11
801.91959
 21
2282.3984
  0
LINE
  8
0-2
  6
CONTINUOUS
 62
    3
 10
801.91959
 20
2282.3984
 11
802.34729
 21
2282.5429
  0
LINE
  8
0-2
  6
CONTINUOUS
 62
    3
 10
717.63428
 20
2288.1132
 11
709.23333
 21
2288.1132
  0
LINE
  8
0-2
  6
CONTINUOUS
 62
    3
 10
635.3499
 20
2193.7926
 11
717.63428
 21
2288.1132
  0
LINE
  8
0-2
  6
CONTINUOUS
 62
    3
 10
723.06237
 20
2288.1132
 11
642.10179
 21
2193.7926
  0
LINE
  8
0-2
  6
CONTINUOUS
 62
    3
 10
658.57077
 20
2193.7926
 11
736.30201
 21
2288.1132
  0
LINE
  8
0-2
  6
CONTINUOUS
 62
    3
 10
736.30201
 20
2288.1132
 11
723.06237
 21
2288.1132
  0
LINE
  8
0-2
  6
CONTINUOUS
 62
    3
 10
744.08201
 20
2288.1132
 11
668.24826
 21
2193.7926
  0
LINE
  8
0-2
  6
CONTINUOUS
 62
    3
 10
761.86873
 20
2288.1132
 11
744.08201
 21
2288.1132
  0
LINE
  8
0-2
  6
CONTINUOUS
 62
    3
 10
690.37322
 20
2193.7926
 11
761.86873
 21
2288.1132
  0
LINE
  8
0-2
  6
CONTINUOUS
 62
    3
 10
771.83239
 20
2288.1132
 11
702.76699
 21
2193.7926
  0
LINE
  8
0-2
  6
CONTINUOUS
 62
    3
 10
793.78055
 20
2288.1132
 11
771.83239
 21
2288.1132
  0
LINE
  8
0-2
  6
CONTINUOUS
 62
    3
 10
730.06851
 20
2193.7926
 11
793.78055
 21
2288.1132
  0
LINE
  8
0-2
  6
CONTINUOUS
 62
    3
 10
805.71235
 20
2288.1132
 11
744.91032
 21
2193.7926
  0
LINE
  8
0-2
  6
CONTINUOUS
 62
    3
 10
831.34712
 20
2288.1132
 11
805.71235
 21
2288.1132
  0
LINE
  8
0-2
  6
CONTINUOUS
 62
    3
 10
776.79764
 20
2193.7926
 11
831.34712
 21
2288.1132
  0
LINE
  8
0-2
  6
CONTINUOUS
 62
    3
 10
844.98866
 20
2288.1132
 11
793.7662
 21
2193.7926
  0
LINE
  8
0-2
  6
CONTINUOUS
 62
    3
 10
873.75521
 20
2288.1132
 11
844.98866
 21
2288.1132
  0
LINE
  8
0-2
  6
CONTINUOUS
 62
    3
 10
829.54897
 20
2193.7926
 11
873.75521
 21
2288.1132
  0
LINE
  8
0-2
  6
CONTINUOUS
 62
    3
 10
888.81094
 20
2288.1132
 11
848.27695
 21
2193.7926
  0
LINE
  8
0-2
  6
CONTINUOUS
 62
    3
 10
920.08659
 20
2288.1132
 11
888.81094
 21
2288.1132
  0
LINE
  8
0-2
  6
CONTINUOUS
 62
    3
 10
887.1808
 20
2193.7926
 11
920.08659
 21
2288.1132
  0
LINE
  8
0-2
  6
CONTINUOUS
 62
    3
 10
907.26265
 20
2193.7926
 11
936.2308
 21
2288.1132
  0
LINE
  8
0-2
  6
CONTINUOUS
 62
    3
 10
969.33837
 20
2288.1132
 11
936.2308
 21
2288.1132
  0
LINE
  8
0-2
  6
CONTINUOUS
 62
    3
 10
969.33837
 20
2288.1132
 11
948.44517
 21
2193.7926
  0
LINE
  8
0-2
  6
CONTINUOUS
 62
    3
 10
969.4465
 20
2193.7926
 11
986.22194
 21
2288.1132
  0
LINE
  8
0-2
  6
CONTINUOUS
 62
    3
 10
1020.4447
 20
2288.1132
 11
986.22194
 21
2288.1132
  0
LINE
  8
0-2
  6
CONTINUOUS
 62
    3
 10
1020.4447
 20
2288.1132
 11
1012.0165
 21
2193.7926
  0
LINE
  8
0-2
  6
CONTINUOUS
 62
    3
 10
1037.7015
 20
2288.1132
 11
1033.4824
 21
2193.7926
  0
LINE
  8
0-2
  6
CONTINUOUS
 62
    3
 10
1055.0001
 20
2288.1132
 11
1037.7015
 21
2288.1132
  0
LINE
  8
0-2
  6
CONTINUOUS
 62
    3
 10
1485.0001
 20
2193.7926
 11
1400.7669
 21
2288.1132
  0
LINE
  8
0-2
  6
CONTINUOUS
 62
    3
 10
1129.928
 20
2280.3174
 11
1129.234
 21
2280.5247
  0
LINE
  8
0-2
  6
CONTINUOUS
 62
    3
 10
1129.234
 20
2280.5247
 11
1128.5818
 21
2280.8073
  0
LINE
  8
0-2
  6
CONTINUOUS
 62
    3
 10
1128.5818
 20
2280.8073
 11
1127.9713
 21
2281.1592
  0
LINE
  8
0-2
  6
CONTINUOUS
 62
    3
 10
1127.9713
 20
2281.1592
 11
1127.4015
 21
2281.5759
  0
LINE
  8
0-2
  6
CONTINUOUS
 62
    3
 10
1127.4015
 20
2281.5759
 11
1126.8723
 21
2282.0524
  0
LINE
  8
0-2
  6
CONTINUOUS
 62
    3
 10
1126.8723
 20
2282.0524
 11
1126.3816
 21
2282.5815
  0
LINE
  8
0-2
  6
CONTINUOUS
 62
    3
 10
1126.3816
 20
2282.5815
 11
1125.9299
 21
2283.1585
  0
LINE
  8
0-2
  6
CONTINUOUS
 62
    3
 10
1125.9299
 20
2283.1585
 11
1125.5153
 21
2283.7796
  0
LINE
  8
0-2
  6
CONTINUOUS
 62
    3
 10
1125.5153
 20
2283.7796
 11
1125.1378
 21
2284.4382
  0
LINE
  8
0-2
  6
CONTINUOUS
 62
    3
 10
1125.1378
 20
2284.4382
 11
1124.7967
 21
2285.1291
  0
LINE
  8
0-2
  6
CONTINUOUS
 62
    3
 10
1124.7967
 20
2285.1291
 11
1124.4913
 21
2285.8477
  0
LINE
  8
0-2
  6
CONTINUOUS
 62
    3
 10
1124.4913
 20
2285.8477
 11
1124.22
 21
2286.588
  0
LINE
  8
0-2
  6
CONTINUOUS
 62
    3
 10
1124.22
 20
2286.588
 11
1123.9824
 21
2287.3452
  0
LINE
  8
0-2
  6
CONTINUOUS
 62
    3
 10
1123.9824
 20
2287.3452
 11
1123.7783
 21
2288.1132
  0
LINE
  8
0-2
  6
CONTINUOUS
 62
    3
 10
1133.7406
 20
2280.2758
 11
1134.5434
 21
2280.5638
  0
LINE
  8
0-2
  6
CONTINUOUS
 62
    3
 10
1134.5434
 20
2280.5638
 11
1135.2965
 21
2280.9048
  0
LINE
  8
0-2
  6
CONTINUOUS
 62
    3
 10
1135.2965
 20
2280.9048
 11
1136.0009
 21
2281.2953
  0
LINE
  8
0-2
  6
CONTINUOUS
 62
    3
 10
1136.0009
 20
2281.2953
 11
1136.656
 21
2281.7327
  0
LINE
  8
0-2
  6
CONTINUOUS
 62
    3
 10
1136.656
 20
2281.7327
 11
1137.2636
 21
2282.2143
  0
LINE
  8
0-2
  6
CONTINUOUS
 62
    3
 10
1137.2636
 20
2282.2143
 11
1137.8241
 21
2282.7383
  0
LINE
  8
0-2
  6
CONTINUOUS
 62
    3
 10
1137.8241
 20
2282.7383
 11
1138.3374
 21
2283.301
  0
LINE
  8
0-2
  6
CONTINUOUS
 62
    3
 10
1138.3374
 20
2283.301
 11
1138.8039
 21
2283.9008
  0
LINE
  8
0-2
  6
CONTINUOUS
 62
    3
 10
1138.8039
 20
2283.9008
 11
1139.2256
 21
2284.5333
  0
LINE
  8
0-2
  6
CONTINUOUS
 62
    3
 10
1139.2256
 20
2284.5333
 11
1139.6012
 21
2285.1974
  0
LINE
  8
0-2
  6
CONTINUOUS
 62
    3
 10
1139.6012
 20
2285.1974
 11
1139.9323
 21
2285.8902
  0
LINE
  8
0-2
  6
CONTINUOUS
 62
    3
 10
1139.9323
 20
2285.8902
 11
1140.2188
 21
2286.6088
  0
LINE
  8
0-2
  6
CONTINUOUS
 62
    3
 10
1140.2188
 20
2286.6088
 11
1140.4619
 21
2287.3511
  0
LINE
  8
0-2
  6
CONTINUOUS
 62
    3
 10
1140.4619
 20
2287.3511
 11
1140.6616
 21
2288.1132
  0
LINE
  8
0-2
  6
CONTINUOUS
 62
    3
 10
1173.7694
 20
2288.1132
 11
1174.547
 21
2286.8468
  0
LINE
  8
0-2
  6
CONTINUOUS
 62
    3
 10
1174.547
 20
2286.8468
 11
1175.3335
 21
2285.721
  0
LINE
  8
0-2
  6
CONTINUOUS
 62
    3
 10
1175.3335
 20
2285.721
 11
1176.1259
 21
2284.7265
  0
LINE
  8
0-2
  6
CONTINUOUS
 62
    3
 10
1176.1259
 20
2284.7265
 11
1176.9209
 21
2283.8568
  0
LINE
  8
0-2
  6
CONTINUOUS
 62
    3
 10
1176.9209
 20
2283.8568
 11
1177.716
 21
2283.1026
  0
LINE
  8
0-2
  6
CONTINUOUS
 62
    3
 10
1177.716
 20
2283.1026
 11
1178.5076
 21
2282.4582
  0
LINE
  8
0-2
  6
CONTINUOUS
 62
    3
 10
1178.5076
 20
2282.4582
 11
1179.2934
 21
2281.9144
  0
LINE
  8
0-2
  6
CONTINUOUS
 62
    3
 10
1179.2934
 20
2281.9144
 11
1180.0687
 21
2281.4633
  0
LINE
  8
0-2
  6
CONTINUOUS
 62
    3
 10
1180.0687
 20
2281.4633
 11
1180.8318
 21
2281.0973
  0
LINE
  8
0-2
  6
CONTINUOUS
 62
    3
 10
1180.8318
 20
2281.0973
 11
1181.5794
 21
2280.8098
  0
LINE
  8
0-2
  6
CONTINUOUS
 62
    3
 10
1181.5794
 20
2280.8098
 11
1182.3083
 21
2280.5911
  0
LINE
  8
0-2
  6
CONTINUOUS
 62
    3
 10
1182.3083
 20
2280.5911
 11
1183.0146
 21
2280.4342
  0
LINE
  8
0-2
  6
CONTINUOUS
 62
    3
 10
1183.0146
 20
2280.4342
 11
1183.6968
 21
2280.3317
  0
LINE
  8
0-2
  6
CONTINUOUS
 62
    3
 10
1183.6968
 20
2280.3317
 11
1184.3501
 21
2280.2758
  0
LINE
  8
0-2
  6
CONTINUOUS
 62
    3
 10
1189.9137
 20
2288.1132
 11
1189.8904
 21
2287.2026
  0
LINE
  8
0-2
  6
CONTINUOUS
 62
    3
 10
1189.8904
 20
2287.2026
 11
1189.8198
 21
2286.3604
  0
LINE
  8
0-2
  6
CONTINUOUS
 62
    3
 10
1189.8198
 20
2286.3604
 11
1189.7003
 21
2285.5844
  0
LINE
  8
0-2
  6
CONTINUOUS
 62
    3
 10
1189.7003
 20
2285.5844
 11
1189.5277
 21
2284.8693
  0
LINE
  8
0-2
  6
CONTINUOUS
 62
    3
 10
1189.5277
 20
2284.8693
 11
1189.301
 21
2284.2126
  0
LINE
  8
0-2
  6
CONTINUOUS
 62
    3
 10
1189.301
 20
2284.2126
 11
1189.0159
 21
2283.6101
  0
LINE
  8
0-2
  6
CONTINUOUS
 62
    3
 10
1189.0159
 20
2283.6101
 11
1188.6711
 21
2283.0575
  0
LINE
  8
0-2
  6
CONTINUOUS
 62
    3
 10
1188.6711
 20
2283.0575
 11
1188.2632
 21
2282.5513
  0
LINE
  8
0-2
  6
CONTINUOUS
 62
    3
 10
1188.2632
 20
2282.5513
 11
1187.79
 21
2282.0876
  0
LINE
  8
0-2
  6
CONTINUOUS
 62
    3
 10
1187.79
 20
2282.0876
 11
1187.2488
 21
2281.6625
  0
LINE
  8
0-2
  6
CONTINUOUS
 62
    3
 10
1187.2488
 20
2281.6625
 11
1186.6368
 21
2281.273
  0
LINE
  8
0-2
  6
CONTINUOUS
 62
    3
 10
1186.6368
 20
2281.273
 11
1185.9516
 21
2280.914
  0
LINE
  8
0-2
  6
CONTINUOUS
 62
    3
 10
1185.9516
 20
2280.914
 11
1185.19
 21
2280.5826
  0
LINE
  8
0-2
  6
CONTINUOUS
 62
    3
 10
1185.19
 20
2280.5826
 11
1184.3501
 21
2280.2758
  0
LINE
  8
0-2
  6
CONTINUOUS
 62
    3
 10
1236.2452
 20
2288.1132
 11
1235.8485
 21
2287.0438
  0
LINE
  8
0-2
  6
CONTINUOUS
 62
    3
 10
1235.8485
 20
2287.0438
 11
1235.4357
 21
2286.0728
  0
LINE
  8
0-2
  6
CONTINUOUS
 62
    3
 10
1235.4357
 20
2286.0728
 11
1235.0067
 21
2285.1974
  0
LINE
  8
0-2
  6
CONTINUOUS
 62
    3
 10
1235.0067
 20
2285.1974
 11
1234.5617
 21
2284.411
  0
LINE
  8
0-2
  6
CONTINUOUS
 62
    3
 10
1234.5617
 20
2284.411
 11
1234.1022
 21
2283.7108
  0
LINE
  8
0-2
  6
CONTINUOUS
 62
    3
 10
1234.1022
 20
2283.7108
 11
1233.6275
 21
2283.0902
  0
LINE
  8
0-2
  6
CONTINUOUS
 62
    3
 10
1233.6275
 20
2283.0902
 11
1233.1383
 21
2282.5448
  0
LINE
  8
0-2
  6
CONTINUOUS
 62
    3
 10
1233.1383
 20
2282.5448
 11
1232.635
 21
2282.0707
  0
LINE
  8
0-2
  6
CONTINUOUS
 62
    3
 10
1232.635
 20
2282.0707
 11
1232.1182
 21
2281.662
  0
LINE
  8
0-2
  6
CONTINUOUS
 62
    3
 10
1232.1182
 20
2281.662
 11
1231.5887
 21
2281.3151
  0
LINE
  8
0-2
  6
CONTINUOUS
 62
    3
 10
1231.5887
 20
2281.3151
 11
1231.046
 21
2281.0241
  0
LINE
  8
0-2
  6
CONTINUOUS
 62
    3
 10
1231.046
 20
2281.0241
 11
1230.4908
 21
2280.785
  0
LINE
  8
0-2
  6
CONTINUOUS
 62
    3
 10
1230.4908
 20
2280.785
 11
1229.9237
 21
2280.593
  0
LINE
  8
0-2
  6
CONTINUOUS
 62
    3
 10
1229.9237
 20
2280.593
 11
1229.3454
 21
2280.4426
  0
LINE
  8
0-2
  6
CONTINUOUS
 62
    3
 10
1228.0731
 20
2280.4426
 11
1227.4703
 21
2280.5703
  0
LINE
  8
0-2
  6
CONTINUOUS
 62
    3
 10
1227.4703
 20
2280.5703
 11
1226.8716
 21
2280.7747
  0
LINE
  8
0-2
  6
CONTINUOUS
 62
    3
 10
1226.8716
 20
2280.7747
 11
1226.2781
 21
2281.0538
  0
LINE
  8
0-2
  6
CONTINUOUS
 62
    3
 10
1226.2781
 20
2281.0538
 11
1225.6895
 21
2281.4091
  0
LINE
  8
0-2
  6
CONTINUOUS
 62
    3
 10
1225.6895
 20
2281.4091
 11
1225.1055
 21
2281.8401
  0
LINE
  8
0-2
  6
CONTINUOUS
 62
    3
 10
1225.1055
 20
2281.8401
 11
1224.5266
 21
2282.3464
  0
LINE
  8
0-2
  6
CONTINUOUS
 62
    3
 10
1224.5266
 20
2282.3464
 11
1223.9528
 21
2282.9286
  0
LINE
  8
0-2
  6
CONTINUOUS
 62
    3
 10
1223.9528
 20
2282.9286
 11
1223.3834
 21
2283.5866
  0
LINE
  8
0-2
  6
CONTINUOUS
 62
    3
 10
1223.3834
 20
2283.5866
 11
1222.8197
 21
2284.3195
  0
LINE
  8
0-2
  6
CONTINUOUS
 62
    3
 10
1278.6532
 20
2288.1132
 11
1278.5385
 21
2287.2977
  0
LINE
  8
0-2
  6
CONTINUOUS
 62
    3
 10
1278.5385
 20
2287.2977
 11
1278.3756
 21
2286.5385
  0
LINE
  8
0-2
  6
CONTINUOUS
 62
    3
 10
1278.3756
 20
2286.5385
 11
1278.1685
 21
2285.8333
  0
LINE
  8
0-2
  6
CONTINUOUS
 62
    3
 10
1278.1685
 20
2285.8333
 11
1277.9209
 21
2285.1806
  0
LINE
  8
0-2
  6
CONTINUOUS
 62
    3
 10
1277.9209
 20
2285.1806
 11
1277.6362
 21
2284.5763
  0
LINE
  8
0-2
  6
CONTINUOUS
 62
    3
 10
1277.6362
 20
2284.5763
 11
1277.3177
 21
2284.0201
  0
LINE
  8
0-2
  6
CONTINUOUS
 62
    3
 10
1277.3177
 20
2284.0201
 11
1276.9693
 21
2283.5091
  0
LINE
  8
0-2
  6
CONTINUOUS
 62
    3
 10
1276.9693
 20
2283.5091
 11
1276.5937
 21
2283.0427
  0
LINE
  8
0-2
  6
CONTINUOUS
 62
    3
 10
1276.5937
 20
2283.0427
 11
1276.1932
 21
2282.6181
  0
LINE
  8
0-2
  6
CONTINUOUS
 62
    3
 10
1276.1932
 20
2282.6181
 11
1275.7707
 21
2282.2341
  0
LINE
  8
0-2
  6
CONTINUOUS
 62
    3
 10
1275.7707
 20
2282.2341
 11
1275.3291
 21
2281.8896
  0
LINE
  8
0-2
  6
CONTINUOUS
 62
    3
 10
1275.3291
 20
2281.8896
 11
1274.87
 21
2281.5848
  0
LINE
  8
0-2
  6
CONTINUOUS
 62
    3
 10
1274.87
 20
2281.5848
 11
1274.396
 21
2281.3151
  0
LINE
  8
0-2
  6
CONTINUOUS
 62
    3
 10
1274.396
 20
2281.3151
 11
1273.9087
 21
2281.083
  0
LINE
  8
0-2
  6
CONTINUOUS
 62
    3
 10
1273.9087
 20
2281.083
 11
1273.4095
 21
2280.886
  0
LINE
  8
0-2
  6
CONTINUOUS
 62
    3
 10
1273.4095
 20
2280.886
 11
1272.9002
 21
2280.7237
  0
LINE
  8
0-2
  6
CONTINUOUS
 62
    3
 10
1272.9002
 20
2280.7237
 11
1272.3825
 21
2280.596
  0
LINE
  8
0-2
  6
CONTINUOUS
 62
    3
 10
1272.3825
 20
2280.596
 11
1271.8565
 21
2280.5027
  0
LINE
  8
0-2
  6
CONTINUOUS
 62
    3
 10
1271.8565
 20
2280.5027
 11
1271.3243
 21
2280.4426
  0
LINE
  8
0-2
  6
CONTINUOUS
 62
    3
 10
1271.1899
 20
2280.4495
 11
1270.89
 21
2280.4827
  0
LINE
  8
0-2
  6
CONTINUOUS
 62
    3
 10
1270.89
 20
2280.4827
 11
1270.5953
 21
2280.5302
  0
LINE
  8
0-2
  6
CONTINUOUS
 62
    3
 10
1270.5953
 20
2280.5302
 11
1270.3058
 21
2280.593
  0
LINE
  8
0-2
  6
CONTINUOUS
 62
    3
 10
1270.3058
 20
2280.593
 11
1270.0214
 21
2280.6692
  0
LINE
  8
0-2
  6
CONTINUOUS
 62
    3
 10
1270.0214
 20
2280.6692
 11
1269.7424
 21
2280.7598
  0
LINE
  8
0-2
  6
CONTINUOUS
 62
    3
 10
1269.7424
 20
2280.7598
 11
1269.4681
 21
2280.8652
  0
LINE
  8
0-2
  6
CONTINUOUS
 62
    3
 10
1269.4681
 20
2280.8652
 11
1269.1994
 21
2280.9855
  0
LINE
  8
0-2
  6
CONTINUOUS
 62
    3
 10
1269.1994
 20
2280.9855
 11
1268.9359
 21
2281.1201
  0
LINE
  8
0-2
  6
CONTINUOUS
 62
    3
 10
1268.9359
 20
2281.1201
 11
1268.6772
 21
2281.2685
  0
LINE
  8
0-2
  6
CONTINUOUS
 62
    3
 10
1392.3662
 20
2288.1132
 11
1392.2634
 21
2287.2556
  0
LINE
  8
0-2
  6
CONTINUOUS
 62
    3
 10
1392.2634
 20
2287.2556
 11
1392.1546
 21
2286.4712
  0
LINE
  8
0-2
  6
CONTINUOUS
 62
    3
 10
1392.1546
 20
2286.4712
 11
1392.0403
 21
2285.7616
  0
LINE
  8
0-2
  6
CONTINUOUS
 62
    3
 10
1392.0403
 20
2285.7616
 11
1391.9197
 21
2285.1256
  0
LINE
  8
0-2
  6
CONTINUOUS
 62
    3
 10
1391.9197
 20
2285.1256
 11
1391.7931
 21
2284.5644
  0
LINE
  8
0-2
  6
CONTINUOUS
 62
    3
 10
1391.7931
 20
2284.5644
 11
1391.6606
 21
2284.0765
  0
LINE
  8
0-2
  6
CONTINUOUS
 62
    3
 10
1391.6606
 20
2284.0765
 11
1391.5222
 21
2283.6623
  0
LINE
  8
0-2
  6
CONTINUOUS
 62
    3
 10
1391.5222
 20
2283.6623
 11
1391.3781
 21
2283.3233
  0
LINE
  8
0-2
  6
CONTINUOUS
 62
    3
 10
1391.3781
 20
2283.3233
 11
1391.2277
 21
2283.0575
  0
LINE
  8
0-2
  6
CONTINUOUS
 62
    3
 10
1373.6983
 20
2288.1132
 11
1373.6415
 21
2287.4342
  0
LINE
  8
0-2
  6
CONTINUOUS
 62
    3
 10
1373.6415
 20
2287.4342
 11
1373.5476
 21
2286.7916
  0
LINE
  8
0-2
  6
CONTINUOUS
 62
    3
 10
1373.5476
 20
2286.7916
 11
1373.4206
 21
2286.1862
  0
LINE
  8
0-2
  6
CONTINUOUS
 62
    3
 10
1373.4206
 20
2286.1862
 11
1373.2647
 21
2285.618
  0
LINE
  8
0-2
  6
CONTINUOUS
 62
    3
 10
1373.2647
 20
2285.618
 11
1373.0821
 21
2285.0875
  0
LINE
  8
0-2
  6
CONTINUOUS
 62
    3
 10
1373.0821
 20
2285.0875
 11
1372.8781
 21
2284.5951
  0
LINE
  8
0-2
  6
CONTINUOUS
 62
    3
 10
1372.8781
 20
2284.5951
 11
1372.655
 21
2284.1393
  0
LINE
  8
0-2
  6
CONTINUOUS
 62
    3
 10
1372.655
 20
2284.1393
 11
1372.4171
 21
2283.7226
  0
LINE
  8
0-2
  6
CONTINUOUS
 62
    3
 10
1372.4171
 20
2283.7226
 11
1372.1677
 21
2283.3431
  0
LINE
  8
0-2
  6
CONTINUOUS
 62
    3
 10
1372.1677
 20
2283.3431
 11
1371.9112
 21
2283.0031
  0
LINE
  8
0-2
  6
CONTINUOUS
 62
    3
 10
1371.9112
 20
2283.0031
 11
1371.6503
 21
2282.7012
  0
LINE
  8
0-2
  6
CONTINUOUS
 62
    3
 10
1371.6503
 20
2282.7012
 11
1371.3888
 21
2282.4379
  0
LINE
  8
0-2
  6
CONTINUOUS
 62
    3
 10
1371.3888
 20
2282.4379
 11
1371.131
 21
2282.2143
  0
LINE
  8
0-2
  6
CONTINUOUS
 62
    3
 10
1371.131
 20
2282.2143
 11
1370.8801
 21
2282.0292
  0
LINE
  8
0-2
  6
CONTINUOUS
 62
    3
 10
1348.1317
 20
2288.1132
 11
1347.9621
 21
2287.357
  0
LINE
  8
0-2
  6
CONTINUOUS
 62
    3
 10
1347.9621
 20
2287.357
 11
1347.7557
 21
2286.6494
  0
LINE
  8
0-2
  6
CONTINUOUS
 62
    3
 10
1347.7557
 20
2286.6494
 11
1347.5141
 21
2285.9887
  0
LINE
  8
0-2
  6
CONTINUOUS
 62
    3
 10
1347.5141
 20
2285.9887
 11
1347.2383
 21
2285.3765
  0
LINE
  8
0-2
  6
CONTINUOUS
 62
    3
 10
1347.2383
 20
2285.3765
 11
1346.9303
 21
2284.8099
  0
LINE
  8
0-2
  6
CONTINUOUS
 62
    3
 10
1346.9303
 20
2284.8099
 11
1346.5914
 21
2284.2908
  0
LINE
  8
0-2
  6
CONTINUOUS
 62
    3
 10
1346.5914
 20
2284.2908
 11
1346.2232
 21
2283.8182
  0
LINE
  8
0-2
  6
CONTINUOUS
 62
    3
 10
1346.2232
 20
2283.8182
 11
1345.8267
 21
2283.3906
  0
LINE
  8
0-2
  6
CONTINUOUS
 62
    3
 10
1345.8267
 20
2283.3906
 11
1345.4044
 21
2283.01
  0
LINE
  8
0-2
  6
CONTINUOUS
 62
    3
 10
1345.4044
 20
2283.01
 11
1344.9563
 21
2282.673
  0
LINE
  8
0-2
  6
CONTINUOUS
 62
    3
 10
1344.9563
 20
2282.673
 11
1344.4855
 21
2282.381
  0
LINE
  8
0-2
  6
CONTINUOUS
 62
    3
 10
1344.4855
 20
2282.381
 11
1343.9918
 21
2282.1341
  0
LINE
  8
0-2
  6
CONTINUOUS
 62
    3
 10
1343.9918
 20
2282.1341
 11
1343.4781
 21
2281.9317
  0
LINE
  8
0-2
  6
CONTINUOUS
 62
    3
 10
1343.4781
 20
2281.9317
 11
1342.9451
 21
2281.7723
  0
LINE
  8
0-2
  6
CONTINUOUS
 62
    3
 10
1316.2343
 20
2288.1132
 11
1315.9778
 21
2287.3204
  0
LINE
  8
0-2
  6
CONTINUOUS
 62
    3
 10
1315.9778
 20
2287.3204
 11
1315.6775
 21
2286.5865
  0
LINE
  8
0-2
  6
CONTINUOUS
 62
    3
 10
1315.6775
 20
2286.5865
 11
1315.3368
 21
2285.91
  0
LINE
  8
0-2
  6
CONTINUOUS
 62
    3
 10
1315.3368
 20
2285.91
 11
1314.9597
 21
2285.2914
  0
LINE
  8
0-2
  6
CONTINUOUS
 62
    3
 10
1314.9597
 20
2285.2914
 11
1314.5492
 21
2284.7317
  0
LINE
  8
0-2
  6
CONTINUOUS
 62
    3
 10
1314.5492
 20
2284.7317
 11
1314.1101
 21
2284.2304
  0
LINE
  8
0-2
  6
CONTINUOUS
 62
    3
 10
1314.1101
 20
2284.2304
 11
1313.6453
 21
2283.7855
  0
LINE
  8
0-2
  6
CONTINUOUS
 62
    3
 10
1313.6453
 20
2283.7855
 11
1313.1596
 21
2283.399
  0
LINE
  8
0-2
  6
CONTINUOUS
 62
    3
 10
1313.1596
 20
2283.399
 11
1312.6563
 21
2283.0674
  0
LINE
  8
0-2
  6
CONTINUOUS
 62
    3
 10
1312.6563
 20
2283.0674
 11
1312.1404
 21
2282.7928
  0
LINE
  8
0-2
  6
CONTINUOUS
 62
    3
 10
1312.1404
 20
2282.7928
 11
1311.6155
 21
2282.5721
  0
LINE
  8
0-2
  6
CONTINUOUS
 62
    3
 10
1311.6155
 20
2282.5721
 11
1311.0863
 21
2282.4033
  0
LINE
  8
0-2
  6
CONTINUOUS
 62
    3
 10
1311.0863
 20
2282.4033
 11
1310.5577
 21
2282.286
  0
LINE
  8
0-2
  6
CONTINUOUS
 62
    3
 10
1310.5577
 20
2282.286
 11
1310.034
 21
2282.2192
  0
LINE
  8
0-2
  6
CONTINUOUS
 62
    3
 10
1310.034
 20
2282.2192
 11
1309.5192
 21
2282.1984
  0
LINE
  8
0-2
  6
CONTINUOUS
 62
    3
 10
1309.5192
 20
2282.1984
 11
1309.0189
 21
2282.2237
  0
LINE
  8
0-2
  6
CONTINUOUS
 62
    3
 10
1309.0189
 20
2282.2237
 11
1308.5378
 21
2282.291
  0
LINE
  8
0-2
  6
CONTINUOUS
 62
    3
 10
1308.5378
 20
2282.291
 11
1308.081
 21
2282.3984
  0
LINE
  8
0-2
  6
CONTINUOUS
 62
    3
 10
1308.081
 20
2282.3984
 11
1307.653
 21
2282.5429
  0
LINE
  8
0-2
  6
CONTINUOUS
 62
    3
 10
1392.3662
 20
2288.1132
 11
1400.7669
 21
2288.1132
  0
LINE
  8
0-2
  6
CONTINUOUS
 62
    3
 10
1474.6503
 20
2193.7926
 11
1392.3662
 21
2288.1132
  0
LINE
  8
0-2
  6
CONTINUOUS
 62
    3
 10
1386.938
 20
2288.1132
 11
1467.8982
 21
2193.7926
  0
LINE
  8
0-2
  6
CONTINUOUS
 62
    3
 10
1451.4294
 20
2193.7926
 11
1373.6983
 21
2288.1132
  0
LINE
  8
0-2
  6
CONTINUOUS
 62
    3
 10
1373.6983
 20
2288.1132
 11
1386.938
 21
2288.1132
  0
LINE
  8
0-2
  6
CONTINUOUS
 62
    3
 10
1365.9181
 20
2288.1132
 11
1441.7518
 21
2193.7926
  0
LINE
  8
0-2
  6
CONTINUOUS
 62
    3
 10
1348.1317
 20
2288.1132
 11
1365.9181
 21
2288.1132
  0
LINE
  8
0-2
  6
CONTINUOUS
 62
    3
 10
1419.627
 20
2193.7926
 11
1348.1317
 21
2288.1132
  0
LINE
  8
0-2
  6
CONTINUOUS
 62
    3
 10
1338.1679
 20
2288.1132
 11
1407.233
 21
2193.7926
  0
LINE
  8
0-2
  6
CONTINUOUS
 62
    3
 10
1316.2198
 20
2288.1132
 11
1338.1679
 21
2288.1132
  0
LINE
  8
0-2
  6
CONTINUOUS
 62
    3
 10
1379.9319
 20
2193.7926
 11
1316.2198
 21
2288.1132
  0
LINE
  8
0-2
  6
CONTINUOUS
 62
    3
 10
1304.2881
 20
2288.1132
 11
1365.0899
 21
2193.7926
  0
LINE
  8
0-2
  6
CONTINUOUS
 62
    3
 10
1278.6532
 20
2288.1132
 11
1304.2881
 21
2288.1132
  0
LINE
  8
0-2
  6
CONTINUOUS
 62
    3
 10
1333.2026
 20
2193.7926
 11
1278.6532
 21
2288.1132
  0
LINE
  8
0-2
  6
CONTINUOUS
 62
    3
 10
1265.0116
 20
2288.1132
 11
1316.2343
 21
2193.7926
  0
LINE
  8
0-2
  6
CONTINUOUS
 62
    3
 10
1236.2452
 20
2288.1132
 11
1265.0116
 21
2288.1132
  0
LINE
  8
0-2
  6
CONTINUOUS
 62
    3
 10
1280.4511
 20
2193.7926
 11
1236.2452
 21
2288.1132
  0
LINE
  8
0-2
  6
CONTINUOUS
 62
    3
 10
1221.1892
 20
2288.1132
 11
1261.7231
 21
2193.7926
  0
LINE
  8
0-2
  6
CONTINUOUS
 62
    3
 10
1189.9137
 20
2288.1132
 11
1221.1892
 21
2288.1132
  0
LINE
  8
0-2
  6
CONTINUOUS
 62
    3
 10
1222.8197
 20
2193.7926
 11
1189.9137
 21
2288.1132
  0
LINE
  8
0-2
  6
CONTINUOUS
 62
    3
 10
1202.7377
 20
2193.7926
 11
1173.7694
 21
2288.1132
  0
LINE
  8
0-2
  6
CONTINUOUS
 62
    3
 10
1140.6616
 20
2288.1132
 11
1173.7694
 21
2288.1132
  0
LINE
  8
0-2
  6
CONTINUOUS
 62
    3
 10
1140.6616
 20
2288.1132
 11
1161.5549
 21
2193.7926
  0
LINE
  8
0-2
  6
CONTINUOUS
 62
    3
 10
1140.5536
 20
2193.7926
 11
1123.7783
 21
2288.1132
  0
LINE
  8
0-2
  6
CONTINUOUS
 62
    3
 10
1089.5555
 20
2288.1132
 11
1123.7783
 21
2288.1132
  0
LINE
  8
0-2
  6
CONTINUOUS
 62
    3
 10
1089.5555
 20
2288.1132
 11
1097.9838
 21
2193.7926
  0
LINE
  8
0-2
  6
CONTINUOUS
 62
    3
 10
1072.2984
 20
2288.1132
 11
1076.5178
 21
2193.7926
  0
LINE
  8
0-2
  6
CONTINUOUS
 62
    3
 10
1055.0001
 20
2288.1132
 11
1072.2984
 21
2288.1132
  0
LINE
  8
0-2
  6
CONTINUOUS
 62
    3
 10
1012.0165
 20
2061.7445
 11
1012.0165
 21
1797.648
  0
LINE
  8
0-2
  6
CONTINUOUS
 62
    3
 10
969.44663
 20
2061.7445
 11
969.44663
 21
1797.648
  0
LINE
  8
0-2
  6
CONTINUOUS
 62
    3
 10
887.1808
 20
2061.7445
 11
887.1808
 21
1797.648
  0
LINE
  8
0-2
  6
CONTINUOUS
 62
    3
 10
848.27695
 20
2061.7445
 11
848.27695
 21
1797.648
  0
LINE
  8
0-2
  6
CONTINUOUS
 62
    3
 10
776.79764
 20
2061.7445
 11
776.79764
 21
1797.648
  0
LINE
  8
0-2
  6
CONTINUOUS
 62
    3
 10
744.91032
 20
2061.7445
 11
744.91032
 21
1797.648
  0
LINE
  8
0-2
  6
CONTINUOUS
 62
    3
 10
690.37322
 20
2061.7445
 11
690.37322
 21
1797.648
  0
LINE
  8
0-2
  6
CONTINUOUS
 62
    3
 10
969.44663
 20
1797.648
 11
887.1808
 21
1820.5129
  0
LINE
  8
0-2
  6
CONTINUOUS
 62
    3
 10
744.91032
 20
1797.648
 11
690.37322
 21
1820.5129
  0
LINE
  8
0-2
  6
CONTINUOUS
 62
    3
 10
791.22685
 20
2061.7445
 11
791.22685
 21
1797.648
  0
LINE
  8
0-2
  6
CONTINUOUS
 62
    3
 10
808.09346
 20
2061.7445
 11
808.09346
 21
1797.648
  0
LINE
  8
0-2
  6
CONTINUOUS
 62
    3
 10
848.27695
 20
1797.648
 11
808.09346
 21
1810.5018
  0
LINE
  8
0-2
  6
CONTINUOUS
 62
    3
 10
791.22685
 20
1815.8972
 11
776.79777
 21
1820.5129
  0
LINE
  8
0-2
  6
CONTINUOUS
 62
    3
 10
625.00023
 20
1684.4641
 11
625.00023
 21
1778.7854
  0
LINE
  8
0-2
  6
CONTINUOUS
 62
    3
 10
1419.627
 20
2061.7445
 11
1419.627
 21
1797.648
  0
LINE
  8
0-2
  6
CONTINUOUS
 62
    3
 10
625.00023
 20
1665.5999
 11
709.23333
 21
1571.2796
  0
LINE
  8
0-2
  6
CONTINUOUS
 62
    3
 10
980.07231
 20
1579.0757
 11
980.76638
 21
1578.868
  0
LINE
  8
0-2
  6
CONTINUOUS
 62
    3
 10
980.76638
 20
1578.868
 11
981.41851
 21
1578.5856
  0
LINE
  8
0-2
  6
CONTINUOUS
 62
    3
 10
981.41851
 20
1578.5856
 11
982.02882
 21
1578.2328
  0
LINE
  8
0-2
  6
CONTINUOUS
 62
    3
 10
982.02882
 20
1578.2328
 11
982.59855
 21
1577.8169
  0
LINE
  8
0-2
  6
CONTINUOUS
 62
    3
 10
982.59855
 20
1577.8169
 11
983.12832
 21
1577.3411
  0
LINE
  8
0-2
  6
CONTINUOUS
 62
    3
 10
983.12832
 20
1577.3411
 11
983.6185
 21
1576.8118
  0
LINE
  8
0-2
  6
CONTINUOUS
 62
    3
 10
983.6185
 20
1576.8118
 11
984.07057
 21
1576.2339
  0
LINE
  8
0-2
  6
CONTINUOUS
 62
    3
 10
984.07057
 20
1576.2339
 11
984.48503
 21
1575.6129
  0
LINE
  8
0-2
  6
CONTINUOUS
 62
    3
 10
984.48503
 20
1575.6129
 11
984.86225
 21
1574.9545
  0
LINE
  8
0-2
  6
CONTINUOUS
 62
    3
 10
984.86225
 20
1574.9545
 11
985.2036
 21
1574.2638
  0
LINE
  8
0-2
  6
CONTINUOUS
 62
    3
 10
985.2036
 20
1574.2638
 11
985.50931
 21
1573.5448
  0
LINE
  8
0-2
  6
CONTINUOUS
 62
    3
 10
985.50931
 20
1573.5448
 11
985.7805
 21
1572.8046
  0
LINE
  8
0-2
  6
CONTINUOUS
 62
    3
 10
985.7805
 20
1572.8046
 11
986.01767
 21
1572.0479
  0
LINE
  8
0-2
  6
CONTINUOUS
 62
    3
 10
986.01767
 20
1572.0479
 11
986.22194
 21
1571.2796
  0
LINE
  8
0-2
  6
CONTINUOUS
 62
    3
 10
976.25964
 20
1579.1174
 11
975.45707
 21
1578.8289
  0
LINE
  8
0-2
  6
CONTINUOUS
 62
    3
 10
975.45707
 20
1578.8289
 11
974.70398
 21
1578.4879
  0
LINE
  8
0-2
  6
CONTINUOUS
 62
    3
 10
974.70398
 20
1578.4879
 11
973.99965
 21
1578.0979
  0
LINE
  8
0-2
  6
CONTINUOUS
 62
    3
 10
973.99965
 20
1578.0979
 11
973.34418
 21
1577.6599
  0
LINE
  8
0-2
  6
CONTINUOUS
 62
    3
 10
973.34418
 20
1577.6599
 11
972.73646
 21
1577.1781
  0
LINE
  8
0-2
  6
CONTINUOUS
 62
    3
 10
972.73646
 20
1577.1781
 11
972.17614
 21
1576.6544
  0
LINE
  8
0-2
  6
CONTINUOUS
 62
    3
 10
972.17614
 20
1576.6544
 11
971.66295
 21
1576.0912
  0
LINE
  8
0-2
  6
CONTINUOUS
 62
    3
 10
971.66295
 20
1576.0912
 11
971.19603
 21
1575.4927
  0
LINE
  8
0-2
  6
CONTINUOUS
 62
    3
 10
971.19603
 20
1575.4927
 11
970.77476
 21
1574.8595
  0
LINE
  8
0-2
  6
CONTINUOUS
 62
    3
 10
970.77476
 20
1574.8595
 11
970.39902
 21
1574.1954
  0
LINE
  8
0-2
  6
CONTINUOUS
 62
    3
 10
970.39902
 20
1574.1954
 11
970.06807
 21
1573.5025
  0
LINE
  8
0-2
  6
CONTINUOUS
 62
    3
 10
970.06807
 20
1573.5025
 11
969.78129
 21
1572.7843
  0
LINE
  8
0-2
  6
CONTINUOUS
 62
    3
 10
969.78129
 20
1572.7843
 11
969.53831
 21
1572.0424
  0
LINE
  8
0-2
  6
CONTINUOUS
 62
    3
 10
969.53831
 20
1572.0424
 11
969.33837
 21
1571.2796
  0
LINE
  8
0-2
  6
CONTINUOUS
 62
    3
 10
936.2308
 20
1571.2796
 11
935.45334
 21
1572.546
  0
LINE
  8
0-2
  6
CONTINUOUS
 62
    3
 10
935.45334
 20
1572.546
 11
934.66686
 21
1573.6725
  0
LINE
  8
0-2
  6
CONTINUOUS
 62
    3
 10
934.66686
 20
1573.6725
 11
933.87443
 21
1574.6665
  0
LINE
  8
0-2
  6
CONTINUOUS
 62
    3
 10
933.87443
 20
1574.6665
 11
933.07916
 21
1575.5365
  0
LINE
  8
0-2
  6
CONTINUOUS
 62
    3
 10
933.07916
 20
1575.5365
 11
932.28426
 21
1576.2899
  0
LINE
  8
0-2
  6
CONTINUOUS
 62
    3
 10
932.28426
 20
1576.2899
 11
931.49245
 21
1576.9345
  0
LINE
  8
0-2
  6
CONTINUOUS
 62
    3
 10
931.49245
 20
1576.9345
 11
930.70732
 21
1577.4788
  0
LINE
  8
0-2
  6
CONTINUOUS
 62
    3
 10
930.70732
 20
1577.4788
 11
929.93148
 21
1577.9297
  0
LINE
  8
0-2
  6
CONTINUOUS
 62
    3
 10
929.93148
 20
1577.9297
 11
929.1685
 21
1578.2953
  0
LINE
  8
0-2
  6
CONTINUOUS
 62
    3
 10
929.1685
 20
1578.2953
 11
928.42086
 21
1578.5833
  0
LINE
  8
0-2
  6
CONTINUOUS
 62
    3
 10
928.42086
 20
1578.5833
 11
927.69227
 21
1578.8018
  0
LINE
  8
0-2
  6
CONTINUOUS
 62
    3
 10
927.69227
 20
1578.8018
 11
926.98558
 21
1578.9586
  0
LINE
  8
0-2
  6
CONTINUOUS
 62
    3
 10
926.98558
 20
1578.9586
 11
926.30376
 21
1579.0618
  0
LINE
  8
0-2
  6
CONTINUOUS
 62
    3
 10
926.30376
 20
1579.0618
 11
925.65003
 21
1579.1174
  0
LINE
  8
0-2
  6
CONTINUOUS
 62
    3
 10
920.08659
 20
1571.2796
 11
920.10985
 21
1572.1904
  0
LINE
  8
0-2
  6
CONTINUOUS
 62
    3
 10
920.10985
 20
1572.1904
 11
920.18024
 21
1573.0325
  0
LINE
  8
0-2
  6
CONTINUOUS
 62
    3
 10
920.18024
 20
1573.0325
 11
920.3
 21
1573.8087
  0
LINE
  8
0-2
  6
CONTINUOUS
 62
    3
 10
920.3
 20
1573.8087
 11
920.47235
 21
1574.5232
  0
LINE
  8
0-2
  6
CONTINUOUS
 62
    3
 10
920.47235
 20
1574.5232
 11
920.69974
 21
1575.1798
  0
LINE
  8
0-2
  6
CONTINUOUS
 62
    3
 10
920.69974
 20
1575.1798
 11
920.98442
 21
1575.7829
  0
LINE
  8
0-2
  6
CONTINUOUS
 62
    3
 10
920.98442
 20
1575.7829
 11
921.32935
 21
1576.3352
  0
LINE
  8
0-2
  6
CONTINUOUS
 62
    3
 10
921.32935
 20
1576.3352
 11
921.73701
 21
1576.8414
  0
LINE
  8
0-2
  6
CONTINUOUS
 62
    3
 10
921.73701
 20
1576.8414
 11
922.21036
 21
1577.3054
  0
LINE
  8
0-2
  6
CONTINUOUS
 62
    3
 10
922.21036
 20
1577.3054
 11
922.75152
 21
1577.7299
  0
LINE
  8
0-2
  6
CONTINUOUS
 62
    3
 10
922.75152
 20
1577.7299
 11
923.36356
 21
1578.1201
  0
LINE
  8
0-2
  6
CONTINUOUS
 62
    3
 10
923.36356
 20
1578.1201
 11
924.04897
 21
1578.4787
  0
LINE
  8
0-2
  6
CONTINUOUS
 62
    3
 10
924.04897
 20
1578.4787
 11
924.81034
 21
1578.8104
  0
LINE
  8
0-2
  6
CONTINUOUS
 62
    3
 10
924.81034
 20
1578.8104
 11
925.65003
 21
1579.1174
  0
LINE
  8
0-2
  6
CONTINUOUS
 62
    3
 10
873.75521
 20
1571.2796
 11
874.15167
 21
1572.3497
  0
LINE
  8
0-2
  6
CONTINUOUS
 62
    3
 10
874.15167
 20
1572.3497
 11
874.56459
 21
1573.3199
  0
LINE
  8
0-2
  6
CONTINUOUS
 62
    3
 10
874.56459
 20
1573.3199
 11
874.99365
 21
1574.1954
  0
LINE
  8
0-2
  6
CONTINUOUS
 62
    3
 10
874.99365
 20
1574.1954
 11
875.43842
 21
1574.9812
  0
LINE
  8
0-2
  6
CONTINUOUS
 62
    3
 10
875.43842
 20
1574.9812
 11
875.89829
 21
1575.6823
  0
LINE
  8
0-2
  6
CONTINUOUS
 62
    3
 10
875.89829
 20
1575.6823
 11
876.37306
 21
1576.3028
  0
LINE
  8
0-2
  6
CONTINUOUS
 62
    3
 10
876.37306
 20
1576.3028
 11
876.86207
 21
1576.8482
  0
LINE
  8
0-2
  6
CONTINUOUS
 62
    3
 10
876.86207
 20
1576.8482
 11
877.3653
 21
1577.3225
  0
LINE
  8
0-2
  6
CONTINUOUS
 62
    3
 10
877.3653
 20
1577.3225
 11
877.88183
 21
1577.7307
  0
LINE
  8
0-2
  6
CONTINUOUS
 62
    3
 10
877.88183
 20
1577.7307
 11
878.41178
 21
1578.0781
  0
LINE
  8
0-2
  6
CONTINUOUS
 62
    3
 10
878.41178
 20
1578.0781
 11
878.95442
 21
1578.3684
  0
LINE
  8
0-2
  6
CONTINUOUS
 62
    3
 10
878.95442
 20
1578.3684
 11
879.50942
 21
1578.6081
  0
LINE
  8
0-2
  6
CONTINUOUS
 62
    3
 10
879.50942
 20
1578.6081
 11
880.07643
 21
1578.7997
  0
LINE
  8
0-2
  6
CONTINUOUS
 62
    3
 10
880.07643
 20
1578.7997
 11
880.65495
 21
1578.95
  0
LINE
  8
0-2
  6
CONTINUOUS
 62
    3
 10
881.92704
 20
1578.95
 11
882.53029
 21
1578.822
  0
LINE
  8
0-2
  6
CONTINUOUS
 62
    3
 10
882.53029
 20
1578.822
 11
883.12879
 21
1578.6177
  0
LINE
  8
0-2
  6
CONTINUOUS
 62
    3
 10
883.12879
 20
1578.6177
 11
883.72215
 21
1578.3387
  0
LINE
  8
0-2
  6
CONTINUOUS
 62
    3
 10
883.72215
 20
1578.3387
 11
884.31093
 21
1577.9832
  0
LINE
  8
0-2
  6
CONTINUOUS
 62
    3
 10
884.31093
 20
1577.9832
 11
884.89464
 21
1577.5534
  0
LINE
  8
0-2
  6
CONTINUOUS
 62
    3
 10
884.89464
 20
1577.5534
 11
885.47353
 21
1577.0467
  0
LINE
  8
0-2
  6
CONTINUOUS
 62
    3
 10
885.47353
 20
1577.0467
 11
886.04753
 21
1576.4636
  0
LINE
  8
0-2
  6
CONTINUOUS
 62
    3
 10
886.04753
 20
1576.4636
 11
886.61658
 21
1575.8063
  0
LINE
  8
0-2
  6
CONTINUOUS
 62
    3
 10
886.61658
 20
1575.8063
 11
887.1808
 21
1575.0733
  0
LINE
  8
0-2
  6
CONTINUOUS
 62
    3
 10
831.34712
 20
1571.2796
 11
831.46193
 21
1572.0951
  0
LINE
  8
0-2
  6
CONTINUOUS
 62
    3
 10
831.46193
 20
1572.0951
 11
831.62462
 21
1572.8541
  0
LINE
  8
0-2
  6
CONTINUOUS
 62
    3
 10
831.62462
 20
1572.8541
 11
831.83197
 21
1573.5597
  0
LINE
  8
0-2
  6
CONTINUOUS
 62
    3
 10
831.83197
 20
1573.5597
 11
832.07954
 21
1574.2129
  0
LINE
  8
0-2
  6
CONTINUOUS
 62
    3
 10
832.07954
 20
1574.2129
 11
832.36409
 21
1574.8161
  0
LINE
  8
0-2
  6
CONTINUOUS
 62
    3
 10
832.36409
 20
1574.8161
 11
832.6823
 21
1575.3728
  0
LINE
  8
0-2
  6
CONTINUOUS
 62
    3
 10
832.6823
 20
1575.3728
 11
833.03082
 21
1575.8839
  0
LINE
  8
0-2
  6
CONTINUOUS
 62
    3
 10
833.03082
 20
1575.8839
 11
833.40656
 21
1576.3501
  0
LINE
  8
0-2
  6
CONTINUOUS
 62
    3
 10
833.40656
 20
1576.3501
 11
833.80716
 21
1576.775
  0
LINE
  8
0-2
  6
CONTINUOUS
 62
    3
 10
833.80716
 20
1576.775
 11
834.2293
 21
1577.1584
  0
LINE
  8
0-2
  6
CONTINUOUS
 62
    3
 10
834.2293
 20
1577.1584
 11
834.67122
 21
1577.5025
  0
LINE
  8
0-2
  6
CONTINUOUS
 62
    3
 10
834.67122
 20
1577.5025
 11
835.13022
 21
1577.8087
  0
LINE
  8
0-2
  6
CONTINUOUS
 62
    3
 10
835.13022
 20
1577.8087
 11
835.60432
 21
1578.0777
  0
LINE
  8
0-2
  6
CONTINUOUS
 62
    3
 10
835.60432
 20
1578.0777
 11
836.09178
 21
1578.3098
  0
LINE
  8
0-2
  6
CONTINUOUS
 62
    3
 10
836.09178
 20
1578.3098
 11
836.59086
 21
1578.5065
  0
LINE
  8
0-2
  6
CONTINUOUS
 62
    3
 10
836.59086
 20
1578.5065
 11
837.10009
 21
1578.6691
  0
LINE
  8
0-2
  6
CONTINUOUS
 62
    3
 10
837.10009
 20
1578.6691
 11
837.61798
 21
1578.7964
  0
LINE
  8
0-2
  6
CONTINUOUS
 62
    3
 10
837.61798
 20
1578.7964
 11
838.14379
 21
1578.8903
  0
LINE
  8
0-2
  6
CONTINUOUS
 62
    3
 10
838.14379
 20
1578.8903
 11
838.67628
 21
1578.95
  0
LINE
  8
0-2
  6
CONTINUOUS
 62
    3
 10
838.81064
 20
1578.9437
 11
839.11042
 21
1578.9096
  0
LINE
  8
0-2
  6
CONTINUOUS
 62
    3
 10
839.11042
 20
1578.9096
 11
839.40512
 21
1578.8621
  0
LINE
  8
0-2
  6
CONTINUOUS
 62
    3
 10
839.40512
 20
1578.8621
 11
839.6945
 21
1578.8001
  0
LINE
  8
0-2
  6
CONTINUOUS
 62
    3
 10
839.6945
 20
1578.8001
 11
839.97881
 21
1578.724
  0
LINE
  8
0-2
  6
CONTINUOUS
 62
    3
 10
839.97881
 20
1578.724
 11
840.25817
 21
1578.6327
  0
LINE
  8
0-2
  6
CONTINUOUS
 62
    3
 10
840.25817
 20
1578.6327
 11
840.53208
 21
1578.5272
  0
LINE
  8
0-2
  6
CONTINUOUS
 62
    3
 10
840.53208
 20
1578.5272
 11
840.80105
 21
1578.4069
  0
LINE
  8
0-2
  6
CONTINUOUS
 62
    3
 10
840.80105
 20
1578.4069
 11
841.06457
 21
1578.2727
  0
LINE
  8
0-2
  6
CONTINUOUS
 62
    3
 10
841.06457
 20
1578.2727
 11
841.32315
 21
1578.1237
  0
LINE
  8
0-2
  6
CONTINUOUS
 62
    3
 10
717.63428
 20
1571.2796
 11
717.7371
 21
1572.1374
  0
LINE
  8
0-2
  6
CONTINUOUS
 62
    3
 10
717.7371
 20
1572.1374
 11
717.84547
 21
1572.9213
  0
LINE
  8
0-2
  6
CONTINUOUS
 62
    3
 10
717.84547
 20
1572.9213
 11
717.96016
 21
1573.6313
  0
LINE
  8
0-2
  6
CONTINUOUS
 62
    3
 10
717.96016
 20
1573.6313
 11
718.08079
 21
1574.2667
  0
LINE
  8
0-2
  6
CONTINUOUS
 62
    3
 10
718.08079
 20
1574.2667
 11
718.20711
 21
1574.8289
  0
LINE
  8
0-2
  6
CONTINUOUS
 62
    3
 10
718.20711
 20
1574.8289
 11
718.33986
 21
1575.3168
  0
LINE
  8
0-2
  6
CONTINUOUS
 62
    3
 10
718.33986
 20
1575.3168
 11
718.47805
 21
1575.7302
  0
LINE
  8
0-2
  6
CONTINUOUS
 62
    3
 10
718.47805
 20
1575.7302
 11
718.62231
 21
1576.0702
  0
LINE
  8
0-2
  6
CONTINUOUS
 62
    3
 10
718.62231
 20
1576.0702
 11
718.77263
 21
1576.3352
  0
LINE
  8
0-2
  6
CONTINUOUS
 62
    3
 10
736.30201
 20
1571.2796
 11
736.35892
 21
1571.9592
  0
LINE
  8
0-2
  6
CONTINUOUS
 62
    3
 10
736.35892
 20
1571.9592
 11
736.45283
 21
1572.6017
  0
LINE
  8
0-2
  6
CONTINUOUS
 62
    3
 10
736.45283
 20
1572.6017
 11
736.57939
 21
1573.2063
  0
LINE
  8
0-2
  6
CONTINUOUS
 62
    3
 10
736.57939
 20
1573.2063
 11
736.73577
 21
1573.7752
  0
LINE
  8
0-2
  6
CONTINUOUS
 62
    3
 10
736.73577
 20
1573.7752
 11
736.91789
 21
1574.3056
  0
LINE
  8
0-2
  6
CONTINUOUS
 62
    3
 10
736.91789
 20
1574.3056
 11
737.1224
 21
1574.7979
  0
LINE
  8
0-2
  6
CONTINUOUS
 62
    3
 10
737.1224
 20
1574.7979
 11
737.34547
 21
1575.2529
  0
LINE
  8
0-2
  6
CONTINUOUS
 62
    3
 10
737.34547
 20
1575.2529
 11
737.58338
 21
1575.67
  0
LINE
  8
0-2
  6
CONTINUOUS
 62
    3
 10
737.58338
 20
1575.67
 11
737.83255
 21
1576.0494
  0
LINE
  8
0-2
  6
CONTINUOUS
 62
    3
 10
737.83255
 20
1576.0494
 11
738.08927
 21
1576.3898
  0
LINE
  8
0-2
  6
CONTINUOUS
 62
    3
 10
738.08927
 20
1576.3898
 11
738.35007
 21
1576.6915
  0
LINE
  8
0-2
  6
CONTINUOUS
 62
    3
 10
738.35007
 20
1576.6915
 11
738.61137
 21
1576.9551
  0
LINE
  8
0-2
  6
CONTINUOUS
 62
    3
 10
738.61137
 20
1576.9551
 11
738.8692
 21
1577.1792
  0
LINE
  8
0-2
  6
CONTINUOUS
 62
    3
 10
738.8692
 20
1577.1792
 11
739.12023
 21
1577.3639
  0
LINE
  8
0-2
  6
CONTINUOUS
 62
    3
 10
793.7662
 20
1571.2796
 11
794.02267
 21
1572.0723
  0
LINE
  8
0-2
  6
CONTINUOUS
 62
    3
 10
794.02267
 20
1572.0723
 11
794.32294
 21
1572.8066
  0
LINE
  8
0-2
  6
CONTINUOUS
 62
    3
 10
794.32294
 20
1572.8066
 11
794.66342
 21
1573.4827
  0
LINE
  8
0-2
  6
CONTINUOUS
 62
    3
 10
794.66342
 20
1573.4827
 11
795.04076
 21
1574.1012
  0
LINE
  8
0-2
  6
CONTINUOUS
 62
    3
 10
795.04076
 20
1574.1012
 11
795.45102
 21
1574.6613
  0
LINE
  8
0-2
  6
CONTINUOUS
 62
    3
 10
795.45102
 20
1574.6613
 11
795.89035
 21
1575.1631
  0
LINE
  8
0-2
  6
CONTINUOUS
 62
    3
 10
795.89035
 20
1575.1631
 11
796.35504
 21
1575.6069
  0
LINE
  8
0-2
  6
CONTINUOUS
 62
    3
 10
796.35504
 20
1575.6069
 11
796.84077
 21
1575.9945
  0
LINE
  8
0-2
  6
CONTINUOUS
 62
    3
 10
796.84077
 20
1575.9945
 11
797.34393
 21
1576.3248
  0
LINE
  8
0-2
  6
CONTINUOUS
 62
    3
 10
797.34393
 20
1576.3248
 11
797.85985
 21
1576.5995
  0
LINE
  8
0-2
  6
CONTINUOUS
 62
    3
 10
797.85985
 20
1576.5995
 11
798.38491
 21
1576.8211
  0
LINE
  8
0-2
  6
CONTINUOUS
 62
    3
 10
798.38491
 20
1576.8211
 11
798.91382
 21
1576.9899
  0
LINE
  8
0-2
  6
CONTINUOUS
 62
    3
 10
798.91382
 20
1576.9899
 11
799.44247
 21
1577.1061
  0
LINE
  8
0-2
  6
CONTINUOUS
 62
    3
 10
799.44247
 20
1577.1061
 11
799.96667
 21
1577.174
  0
LINE
  8
0-2
  6
CONTINUOUS
 62
    3
 10
799.96667
 20
1577.174
 11
800.48122
 21
1577.1941
  0
LINE
  8
0-2
  6
CONTINUOUS
 62
    3
 10
800.48122
 20
1577.1941
 11
800.9813
 21
1577.1696
  0
LINE
  8
0-2
  6
CONTINUOUS
 62
    3
 10
800.9813
 20
1577.1696
 11
801.46257
 21
1577.102
  0
LINE
  8
0-2
  6
CONTINUOUS
 62
    3
 10
801.46257
 20
1577.102
 11
801.91959
 21
1576.994
  0
LINE
  8
0-2
  6
CONTINUOUS
 62
    3
 10
801.91959
 20
1576.994
 11
802.34729
 21
1576.8496
  0
LINE
  8
0-2
  6
CONTINUOUS
 62
    3
 10
717.63428
 20
1571.2796
 11
709.23333
 21
1571.2796
  0
LINE
  8
0-2
  6
CONTINUOUS
 62
    3
 10
635.3499
 20
1665.5999
 11
717.63428
 21
1571.2796
  0
LINE
  8
0-2
  6
CONTINUOUS
 62
    3
 10
723.06237
 20
1571.2796
 11
642.10179
 21
1665.5999
  0
LINE
  8
0-2
  6
CONTINUOUS
 62
    3
 10
658.57077
 20
1665.5999
 11
736.30201
 21
1571.2796
  0
LINE
  8
0-2
  6
CONTINUOUS
 62
    3
 10
736.30201
 20
1571.2796
 11
723.06237
 21
1571.2796
  0
LINE
  8
0-2
  6
CONTINUOUS
 62
    3
 10
744.08201
 20
1571.2796
 11
668.24826
 21
1665.5999
  0
LINE
  8
0-2
  6
CONTINUOUS
 62
    3
 10
770.01866
 20
1571.2796
 11
744.08201
 21
1571.2796
  0
LINE
  8
0-2
  6
CONTINUOUS
 62
    3
 10
690.37322
 20
1665.5999
 11
770.01866
 21
1571.2796
  0
LINE
  8
0-2
  6
CONTINUOUS
 62
    3
 10
779.98232
 20
1571.2796
 11
702.76699
 21
1665.5999
  0
LINE
  8
0-2
  6
CONTINUOUS
 62
    3
 10
793.78055
 20
1571.2796
 11
779.98232
 21
1571.2796
  0
LINE
  8
0-2
  6
CONTINUOUS
 62
    3
 10
730.06851
 20
1665.5999
 11
793.78055
 21
1571.2796
  0
LINE
  8
0-2
  6
CONTINUOUS
 62
    3
 10
805.71235
 20
1571.2796
 11
744.91032
 21
1665.5999
  0
LINE
  8
0-2
  6
CONTINUOUS
 62
    3
 10
831.34712
 20
1571.2796
 11
805.71235
 21
1571.2796
  0
LINE
  8
0-2
  6
CONTINUOUS
 62
    3
 10
776.79764
 20
1665.5999
 11
831.34712
 21
1571.2796
  0
LINE
  8
0-2
  6
CONTINUOUS
 62
    3
 10
844.98866
 20
1571.2796
 11
793.7662
 21
1665.5999
  0
LINE
  8
0-2
  6
CONTINUOUS
 62
    3
 10
873.75521
 20
1571.2796
 11
844.98866
 21
1571.2796
  0
LINE
  8
0-2
  6
CONTINUOUS
 62
    3
 10
888.81094
 20
1571.2796
 11
848.27695
 21
1665.5999
  0
LINE
  8
0-2
  6
CONTINUOUS
 62
    3
 10
920.08659
 20
1571.2796
 11
888.81094
 21
1571.2796
  0
LINE
  8
0-2
  6
CONTINUOUS
 62
    3
 10
887.1808
 20
1665.5999
 11
920.08659
 21
1571.2796
  0
LINE
  8
0-2
  6
CONTINUOUS
 62
    3
 10
907.26265
 20
1665.5999
 11
936.2308
 21
1571.2796
  0
LINE
  8
0-2
  6
CONTINUOUS
 62
    3
 10
969.33837
 20
1571.2796
 11
936.2308
 21
1571.2796
  0
LINE
  8
0-2
  6
CONTINUOUS
 62
    3
 10
969.33837
 20
1571.2796
 11
948.44517
 21
1665.5999
  0
LINE
  8
0-2
  6
CONTINUOUS
 62
    3
 10
969.4465
 20
1665.5999
 11
986.22194
 21
1571.2796
  0
LINE
  8
0-2
  6
CONTINUOUS
 62
    3
 10
1020.4447
 20
1571.2796
 11
986.22194
 21
1571.2796
  0
LINE
  8
0-2
  6
CONTINUOUS
 62
    3
 10
1020.4447
 20
1571.2796
 11
1012.0165
 21
1665.5999
  0
LINE
  8
0-2
  6
CONTINUOUS
 62
    3
 10
1037.7015
 20
1571.2796
 11
1033.4824
 21
1665.5999
  0
LINE
  8
0-2
  6
CONTINUOUS
 62
    3
 10
1055.0001
 20
1571.2796
 11
1037.7015
 21
1571.2796
  0
LINE
  8
0-2
  6
CONTINUOUS
 62
    3
 10
829.54897
 20
1665.5999
 11
873.7554
 21
1571.2796
  0
LINE
  8
0-2
  6
CONTINUOUS
 62
    3
 10
881.21874
 20
1571.2796
 11
881.21874
 21
1475.0505
  0
LINE
  8
0-2
  6
CONTINUOUS
 62
    3
 10
847.48545
 20
1571.2796
 11
847.48545
 21
1475.0505
  0
LINE
  8
0-8
  6
CONTINUOUS
 62
    7
 10
460.45039
 20
1399.5939
 11
460.45039
 21
2429.5939
  0
LINE
  8
0-8
  6
CONTINUOUS
 62
    7
 10
635.81954
 20
1399.5946
 11
460.45039
 21
1399.5946
  0
LINE
  8
0-2
  6
CONTINUOUS
 62
    3
 10
880.65495
 20
2280.4426
 11
880.8091
 21
2280.4302
  0
LINE
  8
0-2
  6
CONTINUOUS
 62
    3
 10
880.8091
 20
2280.4302
 11
880.96023
 21
2280.4213
  0
LINE
  8
0-2
  6
CONTINUOUS
 62
    3
 10
880.96023
 20
2280.4213
 11
881.10795
 21
2280.4154
  0
LINE
  8
0-2
  6
CONTINUOUS
 62
    3
 10
881.10795
 20
2280.4154
 11
881.25245
 21
2280.4124
  0
LINE
  8
0-2
  6
CONTINUOUS
 62
    3
 10
881.25245
 20
2280.4124
 11
881.3938
 21
2280.4124
  0
LINE
  8
0-2
  6
CONTINUOUS
 62
    3
 10
881.3938
 20
2280.4124
 11
881.53187
 21
2280.4154
  0
LINE
  8
0-2
  6
CONTINUOUS
 62
    3
 10
881.53187
 20
2280.4154
 11
881.66685
 21
2280.4213
  0
LINE
  8
0-2
  6
CONTINUOUS
 62
    3
 10
881.66685
 20
2280.4213
 11
881.79861
 21
2280.4302
  0
LINE
  8
0-2
  6
CONTINUOUS
 62
    3
 10
881.79861
 20
2280.4302
 11
881.92704
 21
2280.4426
  0
LINE
  8
0-2
  6
CONTINUOUS
 62
    3
 10
976.25964
 20
2280.2758
 11
976.67274
 21
2280.2471
  0
LINE
  8
0-2
  6
CONTINUOUS
 62
    3
 10
976.67274
 20
2280.2471
 11
977.08856
 21
2280.2268
  0
LINE
  8
0-2
  6
CONTINUOUS
 62
    3
 10
977.08856
 20
2280.2268
 11
977.50673
 21
2280.2154
  0
LINE
  8
0-2
  6
CONTINUOUS
 62
    3
 10
977.50673
 20
2280.2154
 11
977.92763
 21
2280.212
  0
LINE
  8
0-2
  6
CONTINUOUS
 62
    3
 10
977.92763
 20
2280.212
 11
978.35149
 21
2280.2164
  0
LINE
  8
0-2
  6
CONTINUOUS
 62
    3
 10
978.35149
 20
2280.2164
 11
978.77771
 21
2280.2288
  0
LINE
  8
0-2
  6
CONTINUOUS
 62
    3
 10
978.77771
 20
2280.2288
 11
979.20652
 21
2280.2503
  0
LINE
  8
0-2
  6
CONTINUOUS
 62
    3
 10
979.20652
 20
2280.2503
 11
979.63793
 21
2280.2793
  0
LINE
  8
0-2
  6
CONTINUOUS
 62
    3
 10
979.63793
 20
2280.2793
 11
980.07231
 21
2280.3174
  0
LINE
  8
0-2
  6
CONTINUOUS
 62
    3
 10
1133.7406
 20
2280.2758
 11
1133.3275
 21
2280.2471
  0
LINE
  8
0-2
  6
CONTINUOUS
 62
    3
 10
1133.3275
 20
2280.2471
 11
1132.9121
 21
2280.2268
  0
LINE
  8
0-2
  6
CONTINUOUS
 62
    3
 10
1132.9121
 20
2280.2268
 11
1132.4935
 21
2280.2154
  0
LINE
  8
0-2
  6
CONTINUOUS
 62
    3
 10
1132.4935
 20
2280.2154
 11
1132.0726
 21
2280.212
  0
LINE
  8
0-2
  6
CONTINUOUS
 62
    3
 10
1132.0726
 20
2280.212
 11
1131.6487
 21
2280.2164
  0
LINE
  8
0-2
  6
CONTINUOUS
 62
    3
 10
1131.6487
 20
2280.2164
 11
1131.2226
 21
2280.2288
  0
LINE
  8
0-2
  6
CONTINUOUS
 62
    3
 10
1131.2226
 20
2280.2288
 11
1130.7939
 21
2280.2503
  0
LINE
  8
0-2
  6
CONTINUOUS
 62
    3
 10
1130.7939
 20
2280.2503
 11
1130.3623
 21
2280.2793
  0
LINE
  8
0-2
  6
CONTINUOUS
 62
    3
 10
1130.3623
 20
2280.2793
 11
1129.928
 21
2280.3174
  0
LINE
  8
0-2
  6
CONTINUOUS
 62
    3
 10
1271.1899
 20
2280.4495
 11
1270.89
 21
2280.4827
  0
LINE
  8
0-2
  6
CONTINUOUS
 62
    3
 10
1270.89
 20
2280.4827
 11
1270.5953
 21
2280.5302
  0
LINE
  8
0-2
  6
CONTINUOUS
 62
    3
 10
1270.5953
 20
2280.5302
 11
1270.3058
 21
2280.593
  0
LINE
  8
0-2
  6
CONTINUOUS
 62
    3
 10
1270.3058
 20
2280.593
 11
1270.0214
 21
2280.6692
  0
LINE
  8
0-2
  6
CONTINUOUS
 62
    3
 10
1270.0214
 20
2280.6692
 11
1269.7424
 21
2280.7598
  0
LINE
  8
0-2
  6
CONTINUOUS
 62
    3
 10
1269.7424
 20
2280.7598
 11
1269.4681
 21
2280.8652
  0
LINE
  8
0-2
  6
CONTINUOUS
 62
    3
 10
1269.4681
 20
2280.8652
 11
1269.1994
 21
2280.9855
  0
LINE
  8
0-2
  6
CONTINUOUS
 62
    3
 10
1269.1994
 20
2280.9855
 11
1268.9359
 21
2281.1201
  0
LINE
  8
0-2
  6
CONTINUOUS
 62
    3
 10
1268.9359
 20
2281.1201
 11
1268.6772
 21
2281.2685
  0
LINE
  8
0-2
  6
CONTINUOUS
 62
    3
 10
1229.3454
 20
2280.4426
 11
1229.191
 21
2280.4302
  0
LINE
  8
0-2
  6
CONTINUOUS
 62
    3
 10
1229.191
 20
2280.4302
 11
1229.0403
 21
2280.4213
  0
LINE
  8
0-2
  6
CONTINUOUS
 62
    3
 10
1229.0403
 20
2280.4213
 11
1228.8926
 21
2280.4154
  0
LINE
  8
0-2
  6
CONTINUOUS
 62
    3
 10
1228.8926
 20
2280.4154
 11
1228.7478
 21
2280.4124
  0
LINE
  8
0-2
  6
CONTINUOUS
 62
    3
 10
1228.7478
 20
2280.4124
 11
1228.6064
 21
2280.4124
  0
LINE
  8
0-2
  6
CONTINUOUS
 62
    3
 10
1228.6064
 20
2280.4124
 11
1228.4687
 21
2280.4154
  0
LINE
  8
0-2
  6
CONTINUOUS
 62
    3
 10
1228.4687
 20
2280.4154
 11
1228.3336
 21
2280.4213
  0
LINE
  8
0-2
  6
CONTINUOUS
 62
    3
 10
1228.3336
 20
2280.4213
 11
1228.2018
 21
2280.4302
  0
LINE
  8
0-2
  6
CONTINUOUS
 62
    3
 10
1228.2018
 20
2280.4302
 11
1228.0731
 21
2280.4426
  0
LINE
  8
0-2
  6
CONTINUOUS
 62
    3
 10
976.25964
 20
1579.1174
 11
976.67274
 21
1579.146
  0
LINE
  8
0-2
  6
CONTINUOUS
 62
    3
 10
976.67274
 20
1579.146
 11
977.08856
 21
1579.1657
  0
LINE
  8
0-2
  6
CONTINUOUS
 62
    3
 10
977.08856
 20
1579.1657
 11
977.50673
 21
1579.1774
  0
LINE
  8
0-2
  6
CONTINUOUS
 62
    3
 10
977.50673
 20
1579.1774
 11
977.92763
 21
1579.1813
  0
LINE
  8
0-2
  6
CONTINUOUS
 62
    3
 10
977.92763
 20
1579.1813
 11
978.35149
 21
1579.1763
  0
LINE
  8
0-2
  6
CONTINUOUS
 62
    3
 10
978.35149
 20
1579.1763
 11
978.77771
 21
1579.1638
  0
LINE
  8
0-2
  6
CONTINUOUS
 62
    3
 10
978.77771
 20
1579.1638
 11
979.20652
 21
1579.143
  0
LINE
  8
0-2
  6
CONTINUOUS
 62
    3
 10
979.20652
 20
1579.143
 11
979.63793
 21
1579.1136
  0
LINE
  8
0-2
  6
CONTINUOUS
 62
    3
 10
979.63793
 20
1579.1136
 11
980.07231
 21
1579.0757
  0
LINE
  8
0-2
  6
CONTINUOUS
 62
    3
 10
880.65495
 20
1578.95
 11
880.8091
 21
1578.9623
  0
LINE
  8
0-2
  6
CONTINUOUS
 62
    3
 10
880.8091
 20
1578.9623
 11
880.96023
 21
1578.9712
  0
LINE
  8
0-2
  6
CONTINUOUS
 62
    3
 10
880.96023
 20
1578.9712
 11
881.10795
 21
1578.9779
  0
LINE
  8
0-2
  6
CONTINUOUS
 62
    3
 10
881.10795
 20
1578.9779
 11
881.25245
 21
1578.9808
  0
LINE
  8
0-2
  6
CONTINUOUS
 62
    3
 10
881.25245
 20
1578.9808
 11
881.3938
 21
1578.9808
  0
LINE
  8
0-2
  6
CONTINUOUS
 62
    3
 10
881.3938
 20
1578.9808
 11
881.53187
 21
1578.9779
  0
LINE
  8
0-2
  6
CONTINUOUS
 62
    3
 10
881.53187
 20
1578.9779
 11
881.66685
 21
1578.9712
  0
LINE
  8
0-2
  6
CONTINUOUS
 62
    3
 10
881.66685
 20
1578.9712
 11
881.79861
 21
1578.9623
  0
LINE
  8
0-2
  6
CONTINUOUS
 62
    3
 10
881.79861
 20
1578.9623
 11
881.92704
 21
1578.95
  0
LINE
  8
0-8
  6
CONTINUOUS
 62
    7
 10
927.40388
 20
2429.5939
 11
460.45039
 21
2429.5939
  0
LINE
  8
0-2
  6
CONTINUOUS
 62
    3
 10
695.00022
 20
1339.5947
 11
695.00022
 21
1399.5946
  0
LINE
  8
0-2
  6
CONTINUOUS
 62
    3
 10
695.00022
 20
1339.5947
 11
1415.0001
 21
1339.5944
  0
LINE
  8
0-2
  6
CONTINUOUS
 62
    3
 10
1415.0001
 20
1339.5944
 11
1415.0001
 21
1399.5944
  0
LINE
  8
0-2
  6
CONTINUOUS
 62
    3
 10
695.00022
 20
1399.5946
 11
1415.0001
 21
1399.5944
  0
LINE
  8
0-8
  6
CONTINUOUS
 62
    7
 10
460.45039
 20
1339.5947
 11
460.45039
 21
1399.5946
  0
LINE
  8
0-8
  6
CONTINUOUS
 62
    7
 10
635.81954
 20
1339.5947
 11
460.45039
 21
1339.5947
  0
LINE
  8
0-2
  6
CONTINUOUS
 62
    3
 10
1055.0001
 20
1809.0805
 11
1012.0165
 21
1820.5129
  0
LINE
  8
0-2
  6
CONTINUOUS
 62
    3
 10
625.00147
 20
1797.648
 11
1055.0001
 21
1797.648
  0
LINE
  8
0-2
  6
CONTINUOUS
 62
    3
 10
625.00147
 20
1778.785
 11
1055.0001
 21
1778.785
  0
LINE
  8
0-2
  6
CONTINUOUS
 62
    3
 10
625.00036
 20
1684.4632
 11
1055.0001
 21
1684.4632
  0
LINE
  8
0-2
  6
CONTINUOUS
 62
    3
 10
625.00036
 20
1665.5999
 11
1055.0001
 21
1665.5999
  0
LINE
  8
0-2
  6
CONTINUOUS
 62
    3
 10
625.00023
 20
2080.6082
 11
1055.0001
 21
2080.6082
  0
LINE
  8
0-2
  6
CONTINUOUS
 62
    3
 10
625.00023
 20
2061.7445
 11
1055.0001
 21
2061.7445
  0
LINE
  8
0-2
  6
CONTINUOUS
 62
    3
 10
1419.627
 20
2061.7449
 11
1419.627
 21
1797.6484
  0
LINE
  8
0-2
  6
CONTINUOUS
 62
    3
 10
1055.0001
 20
1714.8686
 11
1320.6502
 21
1714.8686
  0
LINE
  8
0-2
  6
CONTINUOUS
 62
    3
 10
1409.2
 20
1714.8686
 11
1055.0001
 21
1714.8686
  0
LINE
  8
0-2
  6
CONTINUOUS
 62
    3
 10
1409.2
 20
1702.2187
 11
1055.0001
 21
1702.2187
  0
LINE
  8
0-2
  6
CONTINUOUS
 62
    3
 10
1409.2
 20
2133.2914
 11
1409.2
 21
1714.8686
  0
LINE
  8
0-2
  6
CONTINUOUS
 62
    3
 10
1409.2
 20
2133.2914
 11
1055.0001
 21
2133.2914
  0
LINE
  8
0-2
  6
CONTINUOUS
 62
    3
 10
1409.2
 20
2145.9412
 11
1055.0001
 21
2145.9412
  0
LINE
  8
0-2
  6
CONTINUOUS
 62
    3
 10
1257.4002
 20
2057.3912
 11
1257.4002
 21
1790.7686
  0
LINE
  8
0-2
  6
CONTINUOUS
 62
    3
 10
1345.9497
 20
2057.3912
 11
1345.9497
 21
1790.7686
  0
LINE
  8
0-2
  6
CONTINUOUS
 62
    3
 10
1168.8501
 20
2057.3912
 11
1118.2502
 21
2057.3912
  0
LINE
  8
0-2
  6
CONTINUOUS
 62
    3
 10
1168.8501
 20
2057.3912
 11
1168.8501
 21
1790.7686
  0
LINE
  8
0-2
  6
CONTINUOUS
 62
    3
 10
1168.8501
 20
1790.7686
 11
1118.2502
 21
1790.7686
  0
LINE
  8
0-2
  6
CONTINUOUS
 62
    3
 10
1257.4002
 20
2057.3912
 11
1206.8
 21
2057.3912
  0
LINE
  8
0-2
  6
CONTINUOUS
 62
    3
 10
1345.9497
 20
2057.3912
 11
1295.3498
 21
2057.3912
  0
LINE
  8
0-2
  6
CONTINUOUS
 62
    3
 10
1345.9497
 20
1790.7686
 11
1295.3498
 21
1790.7686
  0
LINE
  8
0-2
  6
CONTINUOUS
 62
    3
 10
1257.4002
 20
1790.7686
 11
1206.8
 21
1790.7686
  0
LINE
  8
0-2
  6
DASHED1
 62
    3
 10
1139.3325
 20
2028.8802
 11
1055.0001
 21
2028.8802
  0
LINE
  8
0-2
  6
CONTINUOUS
 62
    3
 10
1296.0432
 20
1714.8686
 11
1283.3291
 21
1740.1679
  0
LINE
  8
0-2
  6
CONTINUOUS
 62
    3
 10
1271.4364
 20
1714.8686
 11
1260.4553
 21
1740.1679
  0
LINE
  8
0-2
  6
CONTINUOUS
 62
    3
 10
1246.8289
 20
1714.8686
 11
1237.4396
 21
1740.1679
  0
LINE
  8
0-2
  6
CONTINUOUS
 62
    3
 10
1073.5021
 20
1740.1679
 11
1074.5792
 21
1714.8686
  0
LINE
  8
0-2
  6
CONTINUOUS
 62
    3
 10
1099.186
 20
1714.8686
 11
1097.1557
 21
1740.1679
  0
LINE
  8
0-2
  6
CONTINUOUS
 62
    3
 10
1123.793
 20
1714.8686
 11
1120.744
 21
1740.1679
  0
LINE
  8
0-2
  6
CONTINUOUS
 62
    3
 10
1148.4006
 20
1714.8686
 11
1144.2615
 21
1740.1679
  0
LINE
  8
0-2
  6
CONTINUOUS
 62
    3
 10
1173.0078
 20
1714.8686
 11
1167.6991
 21
1740.1679
  0
LINE
  8
0-2
  6
CONTINUOUS
 62
    3
 10
1197.6146
 20
1714.8686
 11
1191.0488
 21
1740.1679
  0
LINE
  8
0-2
  6
CONTINUOUS
 62
    3
 10
1222.2216
 20
1714.8686
 11
1214.2997
 21
1740.1679
  0
LINE
  8
0-2
  6
CONTINUOUS
 62
    3
 10
1320.6502
 20
1714.8686
 11
1306.0415
 21
1740.1679
  0
LINE
  8
0-2
  6
CONTINUOUS
 62
    3
 10
1306.0415
 20
1740.1679
 11
1055.0001
 21
1740.1679
  0
LINE
  8
0-2
  6
DASHED1
 62
    3
 10
1306.0415
 20
1740.1679
 11
1139.3325
 21
2028.8802
  0
LINE
  8
0-2
  6
CONTINUOUS
 62
    3
 10
1409.2
 20
2080.6082
 11
1485.0012
 21
2080.6082
  0
LINE
  8
0-2
  6
CONTINUOUS
 62
    3
 10
1409.2
 20
2061.7445
 11
1485.0012
 21
2061.7445
  0
LINE
  8
0-2
  6
CONTINUOUS
 62
    3
 10
1409.2
 20
1797.648
 11
1485.0027
 21
1797.648
  0
LINE
  8
0-2
  6
CONTINUOUS
 62
    3
 10
1409.2
 20
1778.785
 11
1485.0027
 21
1778.785
  0
LINE
  8
0-2
  6
CONTINUOUS
 62
    3
 10
1312.5015
 20
1702.2186
 11
1312.4992
 21
1475.0505
  0
LINE
  8
0-2
  6
CONTINUOUS
 62
    3
 10
770.01866
 20
1571.2796
 11
770.24878
 21
1571.8282
  0
LINE
  8
0-2
  6
CONTINUOUS
 62
    3
 10
770.24878
 20
1571.8282
 11
770.66522
 21
1572.7518
  0
LINE
  8
0-2
  6
CONTINUOUS
 62
    3
 10
770.66522
 20
1572.7518
 11
771.13634
 21
1573.6137
  0
LINE
  8
0-2
  6
CONTINUOUS
 62
    3
 10
771.13634
 20
1573.6137
 11
771.69661
 21
1574.3747
  0
LINE
  8
0-2
  6
CONTINUOUS
 62
    3
 10
771.69661
 20
1574.3747
 11
772.07606
 21
1574.7546
  0
LINE
  8
0-2
  6
CONTINUOUS
 62
    3
 10
772.07606
 20
1574.7546
 11
772.49244
 21
1575.076
  0
LINE
  8
0-2
  6
CONTINUOUS
 62
    3
 10
772.49244
 20
1575.076
 11
773.30058
 21
1575.5284
  0
LINE
  8
0-2
  6
CONTINUOUS
 62
    3
 10
773.30058
 20
1575.5284
 11
774.19427
 21
1575.8841
  0
LINE
  8
0-2
  6
CONTINUOUS
 62
    3
 10
774.19427
 20
1575.8841
 11
775.14035
 21
1576.1804
  0
LINE
  8
0-2
  6
CONTINUOUS
 62
    3
 10
775.14035
 20
1576.1804
 11
775.7
 21
1576.34
  0
LINE
  8
0-4
  6
DASHED3
 62
    3
 10
1055.0001
 20
1565.0506
 11
1312.5001
 21
1565.0506
  0
LINE
  8
0-d
  6
CONTINUOUS
 62
    4
 10
1226.5937
 20
1566.7378
 11
1354.9747
 21
1492.617
  0
LINE
  8
0-d
  6
CONTINUOUS
 62
    4
 10
1354.9747
 20
1492.617
 11
1396.7318
 21
1492.617
  0
LINE
  8
0-2
  6
CONTINUOUS
 62
    3
 10
1312.5
 20
1456.1866
 11
1312.501
 21
1418.457
  0
LINE
  8
0-2
  6
CONTINUOUS
 62
    3
 10
797.50019
 20
1399.5939
 11
1312.5003
 21
1399.5939
  0
LINE
  8
0-2
  6
CONTINUOUS
 62
    3
 10
797.49896
 20
1475.0499
 11
1312.5003
 21
1475.0499
  0
LINE
  8
0-2
  6
CONTINUOUS
 62
    3
 10
797.50019
 20
1409.5939
 11
1312.5003
 21
1409.5939
  0
LINE
  8
0-2
  6
CONTINUOUS
 62
    3
 10
797.49858
 20
1465.0499
 11
797.50044
 21
1409.5939
  0
LINE
  8
0-2
  6
CONTINUOUS
 62
    3
 10
797.49896
 20
1465.0499
 11
1312.5003
 21
1465.0499
  0
LINE
  8
0-2
  6
CONTINUOUS
 62
    3
 10
1312.502
 20
1465.0499
 11
1312.5
 21
1409.5939
  0
LINE
  8
0-2
  6
CONTINUOUS
 62
    3
 10
1312.5
 20
1456.1866
 11
1312.501
 21
1418.457
  0
LINE
  8
0-2
  6
CONTINUOUS
 62
    3
 10
797.50019
 20
1399.5939
 11
1312.5003
 21
1399.5939
  0
LINE
  8
0-2
  6
CONTINUOUS
 62
    3
 10
797.49896
 20
1475.0499
 11
1312.5003
 21
1475.0499
  0
LINE
  8
0-2
  6
CONTINUOUS
 62
    3
 10
797.50019
 20
1409.5939
 11
1312.5003
 21
1409.5939
  0
LINE
  8
0-2
  6
CONTINUOUS
 62
    3
 10
797.49858
 20
1465.0499
 11
797.50044
 21
1409.5939
  0
LINE
  8
0-2
  6
CONTINUOUS
 62
    3
 10
797.49896
 20
1465.0499
 11
1312.5003
 21
1465.0499
  0
LINE
  8
0-2
  6
CONTINUOUS
 62
    3
 10
1312.502
 20
1465.0499
 11
1312.5
 21
1409.5939
  0
LINE
  8
0-2
  6
CONTINUOUS
 62
    3
 10
1485.0001
 20
1665.5999
 11
1400.7669
 21
1571.2796
  0
LINE
  8
0-2
  6
CONTINUOUS
 62
    3
 10
1392.366
 20
1571.2796
 11
1392.2634
 21
1572.1374
  0
LINE
  8
0-2
  6
CONTINUOUS
 62
    3
 10
1392.2634
 20
1572.1374
 11
1392.1547
 21
1572.9213
  0
LINE
  8
0-2
  6
CONTINUOUS
 62
    3
 10
1392.1547
 20
1572.9213
 11
1392.0404
 21
1573.6313
  0
LINE
  8
0-2
  6
CONTINUOUS
 62
    3
 10
1392.0404
 20
1573.6313
 11
1391.9197
 21
1574.2667
  0
LINE
  8
0-2
  6
CONTINUOUS
 62
    3
 10
1391.9197
 20
1574.2667
 11
1391.793
 21
1574.8289
  0
LINE
  8
0-2
  6
CONTINUOUS
 62
    3
 10
1391.793
 20
1574.8289
 11
1391.6606
 21
1575.3168
  0
LINE
  8
0-2
  6
CONTINUOUS
 62
    3
 10
1391.6606
 20
1575.3168
 11
1391.5223
 21
1575.7302
  0
LINE
  8
0-2
  6
CONTINUOUS
 62
    3
 10
1391.5223
 20
1575.7302
 11
1391.3783
 21
1576.0702
  0
LINE
  8
0-2
  6
CONTINUOUS
 62
    3
 10
1391.3783
 20
1576.0702
 11
1391.2278
 21
1576.3352
  0
LINE
  8
0-2
  6
CONTINUOUS
 62
    3
 10
1373.6982
 20
1571.2796
 11
1373.6415
 21
1571.9592
  0
LINE
  8
0-2
  6
CONTINUOUS
 62
    3
 10
1373.6415
 20
1571.9592
 11
1373.5478
 21
1572.6017
  0
LINE
  8
0-2
  6
CONTINUOUS
 62
    3
 10
1373.5478
 20
1572.6017
 11
1373.4206
 21
1573.2063
  0
LINE
  8
0-2
  6
CONTINUOUS
 62
    3
 10
1373.4206
 20
1573.2063
 11
1373.2647
 21
1573.7752
  0
LINE
  8
0-2
  6
CONTINUOUS
 62
    3
 10
1373.2647
 20
1573.7752
 11
1373.0821
 21
1574.3056
  0
LINE
  8
0-2
  6
CONTINUOUS
 62
    3
 10
1373.0821
 20
1574.3056
 11
1372.8782
 21
1574.7979
  0
LINE
  8
0-2
  6
CONTINUOUS
 62
    3
 10
1372.8782
 20
1574.7979
 11
1372.655
 21
1575.2529
  0
LINE
  8
0-2
  6
CONTINUOUS
 62
    3
 10
1372.655
 20
1575.2529
 11
1372.417
 21
1575.67
  0
LINE
  8
0-2
  6
CONTINUOUS
 62
    3
 10
1372.417
 20
1575.67
 11
1372.1675
 21
1576.0494
  0
LINE
  8
0-2
  6
CONTINUOUS
 62
    3
 10
1372.1675
 20
1576.0494
 11
1371.9112
 21
1576.3898
  0
LINE
  8
0-2
  6
CONTINUOUS
 62
    3
 10
1371.9112
 20
1576.3898
 11
1371.6504
 21
1576.6915
  0
LINE
  8
0-2
  6
CONTINUOUS
 62
    3
 10
1371.6504
 20
1576.6915
 11
1371.3888
 21
1576.9551
  0
LINE
  8
0-2
  6
CONTINUOUS
 62
    3
 10
1371.3888
 20
1576.9551
 11
1371.131
 21
1577.1792
  0
LINE
  8
0-2
  6
CONTINUOUS
 62
    3
 10
1371.131
 20
1577.1792
 11
1370.8801
 21
1577.3639
  0
LINE
  8
0-2
  6
CONTINUOUS
 62
    3
 10
1316.2343
 20
1571.2796
 11
1315.9779
 21
1572.0723
  0
LINE
  8
0-2
  6
CONTINUOUS
 62
    3
 10
1315.9779
 20
1572.0723
 11
1315.6775
 21
1572.8066
  0
LINE
  8
0-2
  6
CONTINUOUS
 62
    3
 10
1315.6775
 20
1572.8066
 11
1315.3368
 21
1573.4827
  0
LINE
  8
0-2
  6
CONTINUOUS
 62
    3
 10
1315.3368
 20
1573.4827
 11
1314.9597
 21
1574.1012
  0
LINE
  8
0-2
  6
CONTINUOUS
 62
    3
 10
1314.9597
 20
1574.1012
 11
1314.5492
 21
1574.6613
  0
LINE
  8
0-2
  6
CONTINUOUS
 62
    3
 10
1314.5492
 20
1574.6613
 11
1314.1102
 21
1575.1631
  0
LINE
  8
0-2
  6
CONTINUOUS
 62
    3
 10
1314.1102
 20
1575.1631
 11
1313.6453
 21
1575.6069
  0
LINE
  8
0-2
  6
CONTINUOUS
 62
    3
 10
1313.6453
 20
1575.6069
 11
1313.1596
 21
1575.9945
  0
LINE
  8
0-2
  6
CONTINUOUS
 62
    3
 10
1313.1596
 20
1575.9945
 11
1312.6563
 21
1576.3248
  0
LINE
  8
0-2
  6
CONTINUOUS
 62
    3
 10
1392.366
 20
1571.2796
 11
1400.7669
 21
1571.2796
  0
LINE
  8
0-2
  6
CONTINUOUS
 62
    3
 10
1474.6502
 20
1665.5999
 11
1392.366
 21
1571.2796
  0
LINE
  8
0-2
  6
CONTINUOUS
 62
    3
 10
1386.938
 20
1571.2796
 11
1467.898
 21
1665.5999
  0
LINE
  8
0-2
  6
CONTINUOUS
 62
    3
 10
1365.9182
 20
1571.2796
 11
1441.7518
 21
1665.5999
  0
LINE
  8
0-2
  6
CONTINUOUS
 62
    3
 10
1379.9319
 20
1665.5999
 11
1316.2199
 21
1571.2796
  0
LINE
  8
0-2
  6
CONTINUOUS
 62
    3
 10
1348.1317
 20
1571.2796
 11
1347.962
 21
1572.0358
  0
LINE
  8
0-2
  6
CONTINUOUS
 62
    3
 10
1347.962
 20
1572.0358
 11
1347.7556
 21
1572.7434
  0
LINE
  8
0-2
  6
CONTINUOUS
 62
    3
 10
1347.7556
 20
1572.7434
 11
1347.5141
 21
1573.4042
  0
LINE
  8
0-2
  6
CONTINUOUS
 62
    3
 10
1347.5141
 20
1573.4042
 11
1347.2382
 21
1574.0163
  0
LINE
  8
0-2
  6
CONTINUOUS
 62
    3
 10
1347.2382
 20
1574.0163
 11
1346.9302
 21
1574.583
  0
LINE
  8
0-2
  6
CONTINUOUS
 62
    3
 10
1346.9302
 20
1574.583
 11
1346.5912
 21
1575.1021
  0
LINE
  8
0-2
  6
CONTINUOUS
 62
    3
 10
1346.5912
 20
1575.1021
 11
1346.223
 21
1575.5747
  0
LINE
  8
0-2
  6
CONTINUOUS
 62
    3
 10
1346.223
 20
1575.5747
 11
1345.8266
 21
1576.0023
  0
LINE
  8
0-2
  6
CONTINUOUS
 62
    3
 10
1345.8266
 20
1576.0023
 11
1345.4044
 21
1576.3828
  0
LINE
  8
0-2
  6
CONTINUOUS
 62
    3
 10
1345.4044
 20
1576.3828
 11
1344.9561
 21
1576.7199
  0
LINE
  8
0-2
  6
CONTINUOUS
 62
    3
 10
1344.9561
 20
1576.7199
 11
1344.4855
 21
1577.0118
  0
LINE
  8
0-2
  6
CONTINUOUS
 62
    3
 10
1344.4855
 20
1577.0118
 11
1343.9916
 21
1577.2588
  0
LINE
  8
0-2
  6
CONTINUOUS
 62
    3
 10
1343.9916
 20
1577.2588
 11
1343.4779
 21
1577.4612
  0
LINE
  8
0-2
  6
CONTINUOUS
 62
    3
 10
1343.4779
 20
1577.4612
 11
1343.2698
 21
1577.5234
  0
LINE
  8
0-2
  6
CONTINUOUS
 62
    3
 10
1451.4294
 20
1665.5999
 11
1373.6982
 21
1571.2796
  0
LINE
  8
0-2
  6
CONTINUOUS
 62
    3
 10
1373.6982
 20
1571.2796
 11
1386.938
 21
1571.2796
  0
LINE
  8
0-2
  6
CONTINUOUS
 62
    3
 10
1316.2199
 20
1571.2796
 11
1338.1678
 21
1571.2796
  0
LINE
  8
0-2
  6
CONTINUOUS
 62
    3
 10
1338.1678
 20
1571.2796
 11
1407.233
 21
1665.5999
  0
LINE
  8
0-2
  6
CONTINUOUS
 62
    3
 10
1348.1317
 20
1571.2796
 11
1365.9182
 21
1571.2796
  0
LINE
  8
0-2
  6
CONTINUOUS
 62
    3
 10
1419.627
 20
1665.5999
 11
1348.1317
 21
1571.2796
  0
LINE
  8
0-2
  6
CONTINUOUS
 62
    3
 10
1485.0001
 20
1665.5998
 11
1312.5011
 21
1665.5998
  0
LINE
  8
0-2
  6
CONTINUOUS
 62
    3
 10
1485.0001
 20
1684.4628
 11
1312.5011
 21
1684.4628
  0
LINE
  8
0-2
  6
CONTINUOUS
 62
    3
 10
1312.5001
 20
1584.019
 11
1365.0898
 21
1665.5999
  0
LINE
  8
0-2
  6
CONTINUOUS
 62
    3
 10
1312.6563
 20
1576.3248
 11
1312.5001
 21
1576.408
  0
LINE
  8
0-2
  6
CONTINUOUS
 62
    3
 10
1485.0001
 20
1665.5999
 11
1400.7669
 21
1571.2796
  0
LINE
  8
0-2
  6
CONTINUOUS
 62
    3
 10
1392.366
 20
1571.2796
 11
1392.2634
 21
1572.1374
  0
LINE
  8
0-2
  6
CONTINUOUS
 62
    3
 10
1392.2634
 20
1572.1374
 11
1392.1547
 21
1572.9213
  0
LINE
  8
0-2
  6
CONTINUOUS
 62
    3
 10
1392.1547
 20
1572.9213
 11
1392.0404
 21
1573.6313
  0
LINE
  8
0-2
  6
CONTINUOUS
 62
    3
 10
1392.0404
 20
1573.6313
 11
1391.9197
 21
1574.2667
  0
LINE
  8
0-2
  6
CONTINUOUS
 62
    3
 10
1391.9197
 20
1574.2667
 11
1391.793
 21
1574.8289
  0
LINE
  8
0-2
  6
CONTINUOUS
 62
    3
 10
1391.793
 20
1574.8289
 11
1391.6606
 21
1575.3168
  0
LINE
  8
0-2
  6
CONTINUOUS
 62
    3
 10
1391.6606
 20
1575.3168
 11
1391.5223
 21
1575.7302
  0
LINE
  8
0-2
  6
CONTINUOUS
 62
    3
 10
1391.5223
 20
1575.7302
 11
1391.3783
 21
1576.0702
  0
LINE
  8
0-2
  6
CONTINUOUS
 62
    3
 10
1391.3783
 20
1576.0702
 11
1391.2278
 21
1576.3352
  0
LINE
  8
0-2
  6
CONTINUOUS
 62
    3
 10
1373.6982
 20
1571.2796
 11
1373.6415
 21
1571.9592
  0
LINE
  8
0-2
  6
CONTINUOUS
 62
    3
 10
1373.6415
 20
1571.9592
 11
1373.5478
 21
1572.6017
  0
LINE
  8
0-2
  6
CONTINUOUS
 62
    3
 10
1373.5478
 20
1572.6017
 11
1373.4206
 21
1573.2063
  0
LINE
  8
0-2
  6
CONTINUOUS
 62
    3
 10
1373.4206
 20
1573.2063
 11
1373.2647
 21
1573.7752
  0
LINE
  8
0-2
  6
CONTINUOUS
 62
    3
 10
1373.2647
 20
1573.7752
 11
1373.0821
 21
1574.3056
  0
LINE
  8
0-2
  6
CONTINUOUS
 62
    3
 10
1373.0821
 20
1574.3056
 11
1372.8782
 21
1574.7979
  0
LINE
  8
0-2
  6
CONTINUOUS
 62
    3
 10
1372.8782
 20
1574.7979
 11
1372.655
 21
1575.2529
  0
LINE
  8
0-2
  6
CONTINUOUS
 62
    3
 10
1372.655
 20
1575.2529
 11
1372.417
 21
1575.67
  0
LINE
  8
0-2
  6
CONTINUOUS
 62
    3
 10
1372.417
 20
1575.67
 11
1372.1675
 21
1576.0494
  0
LINE
  8
0-2
  6
CONTINUOUS
 62
    3
 10
1372.1675
 20
1576.0494
 11
1371.9112
 21
1576.3898
  0
LINE
  8
0-2
  6
CONTINUOUS
 62
    3
 10
1371.9112
 20
1576.3898
 11
1371.6504
 21
1576.6915
  0
LINE
  8
0-2
  6
CONTINUOUS
 62
    3
 10
1371.6504
 20
1576.6915
 11
1371.3888
 21
1576.9551
  0
LINE
  8
0-2
  6
CONTINUOUS
 62
    3
 10
1371.3888
 20
1576.9551
 11
1371.131
 21
1577.1792
  0
LINE
  8
0-2
  6
CONTINUOUS
 62
    3
 10
1371.131
 20
1577.1792
 11
1370.8801
 21
1577.3639
  0
LINE
  8
0-2
  6
CONTINUOUS
 62
    3
 10
1316.2343
 20
1571.2796
 11
1315.9779
 21
1572.0723
  0
LINE
  8
0-2
  6
CONTINUOUS
 62
    3
 10
1315.9779
 20
1572.0723
 11
1315.6775
 21
1572.8066
  0
LINE
  8
0-2
  6
CONTINUOUS
 62
    3
 10
1315.6775
 20
1572.8066
 11
1315.3368
 21
1573.4827
  0
LINE
  8
0-2
  6
CONTINUOUS
 62
    3
 10
1315.3368
 20
1573.4827
 11
1314.9597
 21
1574.1012
  0
LINE
  8
0-2
  6
CONTINUOUS
 62
    3
 10
1314.9597
 20
1574.1012
 11
1314.5492
 21
1574.6613
  0
LINE
  8
0-2
  6
CONTINUOUS
 62
    3
 10
1314.5492
 20
1574.6613
 11
1314.1102
 21
1575.1631
  0
LINE
  8
0-2
  6
CONTINUOUS
 62
    3
 10
1314.1102
 20
1575.1631
 11
1313.6453
 21
1575.6069
  0
LINE
  8
0-2
  6
CONTINUOUS
 62
    3
 10
1313.6453
 20
1575.6069
 11
1313.1596
 21
1575.9945
  0
LINE
  8
0-2
  6
CONTINUOUS
 62
    3
 10
1313.1596
 20
1575.9945
 11
1312.6563
 21
1576.3248
  0
LINE
  8
0-2
  6
CONTINUOUS
 62
    3
 10
1392.366
 20
1571.2796
 11
1400.7669
 21
1571.2796
  0
LINE
  8
0-2
  6
CONTINUOUS
 62
    3
 10
1474.6502
 20
1665.5999
 11
1392.366
 21
1571.2796
  0
LINE
  8
0-2
  6
CONTINUOUS
 62
    3
 10
1386.938
 20
1571.2796
 11
1467.898
 21
1665.5999
  0
LINE
  8
0-2
  6
CONTINUOUS
 62
    3
 10
1365.9182
 20
1571.2796
 11
1441.7518
 21
1665.5999
  0
LINE
  8
0-2
  6
CONTINUOUS
 62
    3
 10
1379.9319
 20
1665.5999
 11
1316.2199
 21
1571.2796
  0
LINE
  8
0-2
  6
CONTINUOUS
 62
    3
 10
1348.1317
 20
1571.2796
 11
1347.962
 21
1572.0358
  0
LINE
  8
0-2
  6
CONTINUOUS
 62
    3
 10
1347.962
 20
1572.0358
 11
1347.7556
 21
1572.7434
  0
LINE
  8
0-2
  6
CONTINUOUS
 62
    3
 10
1347.7556
 20
1572.7434
 11
1347.5141
 21
1573.4042
  0
LINE
  8
0-2
  6
CONTINUOUS
 62
    3
 10
1347.5141
 20
1573.4042
 11
1347.2382
 21
1574.0163
  0
LINE
  8
0-2
  6
CONTINUOUS
 62
    3
 10
1347.2382
 20
1574.0163
 11
1346.9302
 21
1574.583
  0
LINE
  8
0-2
  6
CONTINUOUS
 62
    3
 10
1346.9302
 20
1574.583
 11
1346.5912
 21
1575.1021
  0
LINE
  8
0-2
  6
CONTINUOUS
 62
    3
 10
1346.5912
 20
1575.1021
 11
1346.223
 21
1575.5747
  0
LINE
  8
0-2
  6
CONTINUOUS
 62
    3
 10
1346.223
 20
1575.5747
 11
1345.8266
 21
1576.0023
  0
LINE
  8
0-2
  6
CONTINUOUS
 62
    3
 10
1345.8266
 20
1576.0023
 11
1345.4044
 21
1576.3828
  0
LINE
  8
0-2
  6
CONTINUOUS
 62
    3
 10
1345.4044
 20
1576.3828
 11
1344.9561
 21
1576.7199
  0
LINE
  8
0-2
  6
CONTINUOUS
 62
    3
 10
1344.9561
 20
1576.7199
 11
1344.4855
 21
1577.0118
  0
LINE
  8
0-2
  6
CONTINUOUS
 62
    3
 10
1344.4855
 20
1577.0118
 11
1343.9916
 21
1577.2588
  0
LINE
  8
0-2
  6
CONTINUOUS
 62
    3
 10
1343.9916
 20
1577.2588
 11
1343.4779
 21
1577.4612
  0
LINE
  8
0-2
  6
CONTINUOUS
 62
    3
 10
1343.4779
 20
1577.4612
 11
1343.2698
 21
1577.5234
  0
LINE
  8
0-2
  6
CONTINUOUS
 62
    3
 10
1451.4294
 20
1665.5999
 11
1373.6982
 21
1571.2796
  0
LINE
  8
0-2
  6
CONTINUOUS
 62
    3
 10
1373.6982
 20
1571.2796
 11
1386.938
 21
1571.2796
  0
LINE
  8
0-2
  6
CONTINUOUS
 62
    3
 10
1316.2199
 20
1571.2796
 11
1338.1678
 21
1571.2796
  0
LINE
  8
0-2
  6
CONTINUOUS
 62
    3
 10
1338.1678
 20
1571.2796
 11
1407.233
 21
1665.5999
  0
LINE
  8
0-2
  6
CONTINUOUS
 62
    3
 10
1348.1317
 20
1571.2796
 11
1365.9182
 21
1571.2796
  0
LINE
  8
0-2
  6
CONTINUOUS
 62
    3
 10
1419.627
 20
1665.5999
 11
1348.1317
 21
1571.2796
  0
LINE
  8
0-2
  6
CONTINUOUS
 62
    3
 10
1485.0001
 20
1665.5998
 11
1312.5011
 21
1665.5998
  0
LINE
  8
0-2
  6
CONTINUOUS
 62
    3
 10
1485.0001
 20
1684.4628
 11
1312.5011
 21
1684.4628
  0
LINE
  8
0-2
  6
CONTINUOUS
 62
    3
 10
1312.5001
 20
1584.019
 11
1365.0898
 21
1665.5999
  0
LINE
  8
0-2
  6
CONTINUOUS
 62
    3
 10
1312.6563
 20
1576.3248
 11
1312.5001
 21
1576.408
  0
LINE
  8
0-2
  6
CENTER2
 62
    7
 10
1055.0001
 20
2429.5939
 11
1055.0001
 21
1339.5939
  0
LINE
  8
0-8
  6
CONTINUOUS
 62
    7
 10
695.00022
 20
1189.5939
 11
1415.0001
 21
1189.5939
  0
LINE
  8
0-8
  6
CONTINUOUS
 62
    7
 10
695.00022
 20
1316.2997
 11
695.00022
 21
1189.5939
  0
LINE
  8
0-8
  6
CONTINUOUS
 62
    7
 10
1415.0001
 20
1316.2997
 11
1415.0001
 21
1189.5939
  0
LINE
  8
0-2
  6
CONTINUOUS
 62
    3
 10
625.00147
 20
1797.6485
 11
623.53713
 21
1797.5052
  0
LINE
  8
0-2
  6
CONTINUOUS
 62
    3
 10
623.53713
 20
1797.5052
 11
622.11729
 21
1797.0797
  0
LINE
  8
0-2
  6
CONTINUOUS
 62
    3
 10
622.11729
 20
1797.0797
 11
620.78508
 21
1796.3849
  0
LINE
  8
0-2
  6
CONTINUOUS
 62
    3
 10
620.78508
 20
1796.3849
 11
619.58099
 21
1795.442
  0
LINE
  8
0-2
  6
CONTINUOUS
 62
    3
 10
619.58099
 20
1795.442
 11
618.54159
 21
1794.2795
  0
LINE
  8
0-2
  6
CONTINUOUS
 62
    3
 10
618.54159
 20
1794.2795
 11
617.69847
 21
1792.9327
  0
LINE
  8
0-2
  6
CONTINUOUS
 62
    3
 10
617.69847
 20
1792.9327
 11
617.07725
 21
1791.4427
  0
LINE
  8
0-2
  6
CONTINUOUS
 62
    3
 10
617.07725
 20
1791.4427
 11
616.69681
 21
1789.8547
  0
LINE
  8
0-2
  6
CONTINUOUS
 62
    3
 10
616.69681
 20
1789.8547
 11
616.5687
 21
1788.217
  0
LINE
  8
0-2
  6
CONTINUOUS
 62
    3
 10
616.5687
 20
1788.217
 11
616.69681
 21
1786.5792
  0
LINE
  8
0-2
  6
CONTINUOUS
 62
    3
 10
616.69681
 20
1786.5792
 11
617.07725
 21
1784.9912
  0
LINE
  8
0-2
  6
CONTINUOUS
 62
    3
 10
617.07725
 20
1784.9912
 11
617.69847
 21
1783.5012
  0
LINE
  8
0-2
  6
CONTINUOUS
 62
    3
 10
617.69847
 20
1783.5012
 11
618.54159
 21
1782.1545
  0
LINE
  8
0-2
  6
CONTINUOUS
 62
    3
 10
618.54159
 20
1782.1545
 11
619.58099
 21
1780.9919
  0
LINE
  8
0-2
  6
CONTINUOUS
 62
    3
 10
619.58099
 20
1780.9919
 11
620.78508
 21
1780.049
  0
LINE
  8
0-2
  6
CONTINUOUS
 62
    3
 10
620.78508
 20
1780.049
 11
622.11729
 21
1779.3542
  0
LINE
  8
0-2
  6
CONTINUOUS
 62
    3
 10
622.11729
 20
1779.3542
 11
623.53713
 21
1778.9287
  0
LINE
  8
0-2
  6
CONTINUOUS
 62
    3
 10
623.53713
 20
1778.9287
 11
625.00147
 21
1778.7854
  0
LINE
  8
0-2
  6
CONTINUOUS
 62
    3
 10
625.00036
 20
1684.4629
 11
623.53602
 21
1684.3196
  0
LINE
  8
0-2
  6
CONTINUOUS
 62
    3
 10
623.53602
 20
1684.3196
 11
622.11618
 21
1683.8941
  0
LINE
  8
0-2
  6
CONTINUOUS
 62
    3
 10
622.11618
 20
1683.8941
 11
620.78397
 21
1683.1993
  0
LINE
  8
0-2
  6
CONTINUOUS
 62
    3
 10
620.78397
 20
1683.1993
 11
619.57987
 21
1682.2563
  0
LINE
  8
0-2
  6
CONTINUOUS
 62
    3
 10
619.57987
 20
1682.2563
 11
618.54048
 21
1681.0938
  0
LINE
  8
0-2
  6
CONTINUOUS
 62
    3
 10
618.54048
 20
1681.0938
 11
617.69736
 21
1679.7471
  0
LINE
  8
0-2
  6
CONTINUOUS
 62
    3
 10
617.69736
 20
1679.7471
 11
617.07614
 21
1678.2571
  0
LINE
  8
0-2
  6
CONTINUOUS
 62
    3
 10
617.07614
 20
1678.2571
 11
616.6957
 21
1676.6691
  0
LINE
  8
0-2
  6
CONTINUOUS
 62
    3
 10
616.6957
 20
1676.6691
 11
616.56758
 21
1675.0313
  0
LINE
  8
0-2
  6
CONTINUOUS
 62
    3
 10
616.56758
 20
1675.0313
 11
616.6957
 21
1673.3935
  0
LINE
  8
0-2
  6
CONTINUOUS
 62
    3
 10
616.6957
 20
1673.3935
 11
617.07614
 21
1671.8055
  0
LINE
  8
0-2
  6
CONTINUOUS
 62
    3
 10
617.07614
 20
1671.8055
 11
617.69736
 21
1670.3155
  0
LINE
  8
0-2
  6
CONTINUOUS
 62
    3
 10
617.69736
 20
1670.3155
 11
618.54048
 21
1668.9688
  0
LINE
  8
0-2
  6
CONTINUOUS
 62
    3
 10
618.54048
 20
1668.9688
 11
619.57987
 21
1667.8063
  0
LINE
  8
0-2
  6
CONTINUOUS
 62
    3
 10
619.57987
 20
1667.8063
 11
620.78397
 21
1666.8633
  0
LINE
  8
0-2
  6
CONTINUOUS
 62
    3
 10
620.78397
 20
1666.8633
 11
622.11618
 21
1666.1685
  0
LINE
  8
0-2
  6
CONTINUOUS
 62
    3
 10
622.11618
 20
1666.1685
 11
623.53602
 21
1665.743
  0
LINE
  8
0-2
  6
CONTINUOUS
 62
    3
 10
623.53602
 20
1665.743
 11
625.00036
 21
1665.5997
  0
LINE
  8
0-2
  6
CONTINUOUS
 62
    3
 10
1485.0012
 20
1778.7854
 11
1486.4655
 21
1778.9287
  0
LINE
  8
0-2
  6
CONTINUOUS
 62
    3
 10
1486.4655
 20
1778.9287
 11
1487.8854
 21
1779.3542
  0
LINE
  8
0-2
  6
CONTINUOUS
 62
    3
 10
1487.8854
 20
1779.3542
 11
1489.2176
 21
1780.049
  0
LINE
  8
0-2
  6
CONTINUOUS
 62
    3
 10
1489.2176
 20
1780.049
 11
1490.4217
 21
1780.9919
  0
LINE
  8
0-2
  6
CONTINUOUS
 62
    3
 10
1490.4217
 20
1780.9919
 11
1491.4611
 21
1782.1545
  0
LINE
  8
0-2
  6
CONTINUOUS
 62
    3
 10
1491.4611
 20
1782.1545
 11
1492.3042
 21
1783.5012
  0
LINE
  8
0-2
  6
CONTINUOUS
 62
    3
 10
1492.3042
 20
1783.5012
 11
1492.9254
 21
1784.9912
  0
LINE
  8
0-2
  6
CONTINUOUS
 62
    3
 10
1492.9254
 20
1784.9912
 11
1493.3059
 21
1786.5792
  0
LINE
  8
0-2
  6
CONTINUOUS
 62
    3
 10
1493.3059
 20
1786.5792
 11
1493.434
 21
1788.217
  0
LINE
  8
0-2
  6
CONTINUOUS
 62
    3
 10
1493.434
 20
1788.217
 11
1493.3059
 21
1789.8547
  0
LINE
  8
0-2
  6
CONTINUOUS
 62
    3
 10
1493.3059
 20
1789.8547
 11
1492.9254
 21
1791.4427
  0
LINE
  8
0-2
  6
CONTINUOUS
 62
    3
 10
1492.9254
 20
1791.4427
 11
1492.3042
 21
1792.9327
  0
LINE
  8
0-2
  6
CONTINUOUS
 62
    3
 10
1492.3042
 20
1792.9327
 11
1491.4611
 21
1794.2795
  0
LINE
  8
0-2
  6
CONTINUOUS
 62
    3
 10
1491.4611
 20
1794.2795
 11
1490.4217
 21
1795.442
  0
LINE
  8
0-2
  6
CONTINUOUS
 62
    3
 10
1490.4217
 20
1795.442
 11
1489.2176
 21
1796.3849
  0
LINE
  8
0-2
  6
CONTINUOUS
 62
    3
 10
1489.2176
 20
1796.3849
 11
1487.8854
 21
1797.0797
  0
LINE
  8
0-2
  6
CONTINUOUS
 62
    3
 10
1487.8854
 20
1797.0797
 11
1486.4655
 21
1797.5052
  0
LINE
  8
0-2
  6
CONTINUOUS
 62
    3
 10
1486.4655
 20
1797.5052
 11
1485.0012
 21
1797.6485
  0
LINE
  8
0-2
  6
CONTINUOUS
 62
    3
 10
625.00023
 20
2193.7928
 11
623.5359
 21
2193.6495
  0
LINE
  8
0-2
  6
CONTINUOUS
 62
    3
 10
623.5359
 20
2193.6495
 11
622.11605
 21
2193.224
  0
LINE
  8
0-2
  6
CONTINUOUS
 62
    3
 10
622.11605
 20
2193.224
 11
620.78385
 21
2192.5292
  0
LINE
  8
0-2
  6
CONTINUOUS
 62
    3
 10
620.78385
 20
2192.5292
 11
619.57975
 21
2191.5862
  0
LINE
  8
0-2
  6
CONTINUOUS
 62
    3
 10
619.57975
 20
2191.5862
 11
618.54035
 21
2190.4237
  0
LINE
  8
0-2
  6
CONTINUOUS
 62
    3
 10
618.54035
 20
2190.4237
 11
617.69724
 21
2189.077
  0
LINE
  8
0-2
  6
CONTINUOUS
 62
    3
 10
617.69724
 20
2189.077
 11
617.07602
 21
2187.587
  0
LINE
  8
0-2
  6
CONTINUOUS
 62
    3
 10
617.07602
 20
2187.587
 11
616.69557
 21
2185.999
  0
LINE
  8
0-2
  6
CONTINUOUS
 62
    3
 10
616.69557
 20
2185.999
 11
616.56746
 21
2184.3612
  0
LINE
  8
0-2
  6
CONTINUOUS
 62
    3
 10
616.56746
 20
2184.3612
 11
616.69557
 21
2182.7234
  0
LINE
  8
0-2
  6
CONTINUOUS
 62
    3
 10
616.69557
 20
2182.7234
 11
617.07602
 21
2181.1354
  0
LINE
  8
0-2
  6
CONTINUOUS
 62
    3
 10
617.07602
 20
2181.1354
 11
617.69724
 21
2179.6454
  0
LINE
  8
0-2
  6
CONTINUOUS
 62
    3
 10
617.69724
 20
2179.6454
 11
618.54035
 21
2178.2987
  0
LINE
  8
0-2
  6
CONTINUOUS
 62
    3
 10
618.54035
 20
2178.2987
 11
619.57975
 21
2177.1362
  0
LINE
  8
0-2
  6
CONTINUOUS
 62
    3
 10
619.57975
 20
2177.1362
 11
620.78385
 21
2176.1932
  0
LINE
  8
0-2
  6
CONTINUOUS
 62
    3
 10
620.78385
 20
2176.1932
 11
622.11605
 21
2175.4984
  0
LINE
  8
0-2
  6
CONTINUOUS
 62
    3
 10
622.11605
 20
2175.4984
 11
623.5359
 21
2175.0729
  0
LINE
  8
0-2
  6
CONTINUOUS
 62
    3
 10
623.5359
 20
2175.0729
 11
625.00023
 21
2174.9296
  0
LINE
  8
0-2
  6
CONTINUOUS
 62
    3
 10
625.00023
 20
2080.608
 11
623.5359
 21
2080.4647
  0
LINE
  8
0-2
  6
CONTINUOUS
 62
    3
 10
623.5359
 20
2080.4647
 11
622.11605
 21
2080.0392
  0
LINE
  8
0-2
  6
CONTINUOUS
 62
    3
 10
622.11605
 20
2080.0392
 11
620.78385
 21
2079.3444
  0
LINE
  8
0-2
  6
CONTINUOUS
 62
    3
 10
620.78385
 20
2079.3444
 11
619.57975
 21
2078.4014
  0
LINE
  8
0-2
  6
CONTINUOUS
 62
    3
 10
619.57975
 20
2078.4014
 11
618.54035
 21
2077.2389
  0
LINE
  8
0-2
  6
CONTINUOUS
 62
    3
 10
618.54035
 20
2077.2389
 11
617.69724
 21
2075.8922
  0
LINE
  8
0-2
  6
CONTINUOUS
 62
    3
 10
617.69724
 20
2075.8922
 11
617.07602
 21
2074.4022
  0
LINE
  8
0-2
  6
CONTINUOUS
 62
    3
 10
617.07602
 20
2074.4022
 11
616.69557
 21
2072.8142
  0
LINE
  8
0-2
  6
CONTINUOUS
 62
    3
 10
616.69557
 20
2072.8142
 11
616.56746
 21
2071.1764
  0
LINE
  8
0-2
  6
CONTINUOUS
 62
    3
 10
616.56746
 20
2071.1764
 11
616.69557
 21
2069.5386
  0
LINE
  8
0-2
  6
CONTINUOUS
 62
    3
 10
616.69557
 20
2069.5386
 11
617.07602
 21
2067.9506
  0
LINE
  8
0-2
  6
CONTINUOUS
 62
    3
 10
617.07602
 20
2067.9506
 11
617.69724
 21
2066.4606
  0
LINE
  8
0-2
  6
CONTINUOUS
 62
    3
 10
617.69724
 20
2066.4606
 11
618.54035
 21
2065.1139
  0
LINE
  8
0-2
  6
CONTINUOUS
 62
    3
 10
618.54035
 20
2065.1139
 11
619.57975
 21
2063.9514
  0
LINE
  8
0-2
  6
CONTINUOUS
 62
    3
 10
619.57975
 20
2063.9514
 11
620.78385
 21
2063.0084
  0
LINE
  8
0-2
  6
CONTINUOUS
 62
    3
 10
620.78385
 20
2063.0084
 11
622.11605
 21
2062.3136
  0
LINE
  8
0-2
  6
CONTINUOUS
 62
    3
 10
622.11605
 20
2062.3136
 11
623.5359
 21
2061.8881
  0
LINE
  8
0-2
  6
CONTINUOUS
 62
    3
 10
623.5359
 20
2061.8881
 11
625.00023
 21
2061.7448
  0
LINE
  8
0-2
  6
CONTINUOUS
 62
    3
 10
1485.0001
 20
2174.9296
 11
1486.4644
 21
2175.0729
  0
LINE
  8
0-2
  6
CONTINUOUS
 62
    3
 10
1486.4644
 20
2175.0729
 11
1487.8843
 21
2175.4984
  0
LINE
  8
0-2
  6
CONTINUOUS
 62
    3
 10
1487.8843
 20
2175.4984
 11
1489.2165
 21
2176.1932
  0
LINE
  8
0-2
  6
CONTINUOUS
 62
    3
 10
1489.2165
 20
2176.1932
 11
1490.4206
 21
2177.1362
  0
LINE
  8
0-2
  6
CONTINUOUS
 62
    3
 10
1490.4206
 20
2177.1362
 11
1491.46
 21
2178.2987
  0
LINE
  8
0-2
  6
CONTINUOUS
 62
    3
 10
1491.46
 20
2178.2987
 11
1492.3031
 21
2179.6454
  0
LINE
  8
0-2
  6
CONTINUOUS
 62
    3
 10
1492.3031
 20
2179.6454
 11
1492.9243
 21
2181.1354
  0
LINE
  8
0-2
  6
CONTINUOUS
 62
    3
 10
1492.9243
 20
2181.1354
 11
1493.3048
 21
2182.7234
  0
LINE
  8
0-2
  6
CONTINUOUS
 62
    3
 10
1493.3048
 20
2182.7234
 11
1493.4329
 21
2184.3612
  0
LINE
  8
0-2
  6
CONTINUOUS
 62
    3
 10
1493.4329
 20
2184.3612
 11
1493.3048
 21
2185.999
  0
LINE
  8
0-2
  6
CONTINUOUS
 62
    3
 10
1493.3048
 20
2185.999
 11
1492.9243
 21
2187.587
  0
LINE
  8
0-2
  6
CONTINUOUS
 62
    3
 10
1492.9243
 20
2187.587
 11
1492.3031
 21
2189.077
  0
LINE
  8
0-2
  6
CONTINUOUS
 62
    3
 10
1492.3031
 20
2189.077
 11
1491.46
 21
2190.4237
  0
LINE
  8
0-2
  6
CONTINUOUS
 62
    3
 10
1491.46
 20
2190.4237
 11
1490.4206
 21
2191.5862
  0
LINE
  8
0-2
  6
CONTINUOUS
 62
    3
 10
1490.4206
 20
2191.5862
 11
1489.2165
 21
2192.5292
  0
LINE
  8
0-2
  6
CONTINUOUS
 62
    3
 10
1489.2165
 20
2192.5292
 11
1487.8843
 21
2193.224
  0
LINE
  8
0-2
  6
CONTINUOUS
 62
    3
 10
1487.8843
 20
2193.224
 11
1486.4644
 21
2193.6495
  0
LINE
  8
0-2
  6
CONTINUOUS
 62
    3
 10
1486.4644
 20
2193.6495
 11
1485.0001
 21
2193.7928
  0
LINE
  8
0-2
  6
CONTINUOUS
 62
    3
 10
1485.0001
 20
2061.7448
 11
1486.4644
 21
2061.8881
  0
LINE
  8
0-2
  6
CONTINUOUS
 62
    3
 10
1486.4644
 20
2061.8881
 11
1487.8843
 21
2062.3136
  0
LINE
  8
0-2
  6
CONTINUOUS
 62
    3
 10
1487.8843
 20
2062.3136
 11
1489.2165
 21
2063.0084
  0
LINE
  8
0-2
  6
CONTINUOUS
 62
    3
 10
1489.2165
 20
2063.0084
 11
1490.4206
 21
2063.9514
  0
LINE
  8
0-2
  6
CONTINUOUS
 62
    3
 10
1490.4206
 20
2063.9514
 11
1491.46
 21
2065.1139
  0
LINE
  8
0-2
  6
CONTINUOUS
 62
    3
 10
1491.46
 20
2065.1139
 11
1492.3031
 21
2066.4606
  0
LINE
  8
0-2
  6
CONTINUOUS
 62
    3
 10
1492.3031
 20
2066.4606
 11
1492.9243
 21
2067.9506
  0
LINE
  8
0-2
  6
CONTINUOUS
 62
    3
 10
1492.9243
 20
2067.9506
 11
1493.3048
 21
2069.5386
  0
LINE
  8
0-2
  6
CONTINUOUS
 62
    3
 10
1493.3048
 20
2069.5386
 11
1493.4329
 21
2071.1764
  0
LINE
  8
0-2
  6
CONTINUOUS
 62
    3
 10
1493.4329
 20
2071.1764
 11
1493.3048
 21
2072.8142
  0
LINE
  8
0-2
  6
CONTINUOUS
 62
    3
 10
1493.3048
 20
2072.8142
 11
1492.9243
 21
2074.4022
  0
LINE
  8
0-2
  6
CONTINUOUS
 62
    3
 10
1492.9243
 20
2074.4022
 11
1492.3031
 21
2075.8922
  0
LINE
  8
0-2
  6
CONTINUOUS
 62
    3
 10
1492.3031
 20
2075.8922
 11
1491.46
 21
2077.2389
  0
LINE
  8
0-2
  6
CONTINUOUS
 62
    3
 10
1491.46
 20
2077.2389
 11
1490.4206
 21
2078.4014
  0
LINE
  8
0-2
  6
CONTINUOUS
 62
    3
 10
1490.4206
 20
2078.4014
 11
1489.2165
 21
2079.3444
  0
LINE
  8
0-2
  6
CONTINUOUS
 62
    3
 10
1489.2165
 20
2079.3444
 11
1487.8843
 21
2080.0392
  0
LINE
  8
0-2
  6
CONTINUOUS
 62
    3
 10
1487.8843
 20
2080.0392
 11
1486.4644
 21
2080.4647
  0
LINE
  8
0-2
  6
CONTINUOUS
 62
    3
 10
1486.4644
 20
2080.4647
 11
1485.0001
 21
2080.608
  0
LINE
  8
0-2
  6
CONTINUOUS
 62
    3
 10
1020.4447
 20
2288.1132
 11
1020.8865
 21
2286.4678
  0
LINE
  8
0-2
  6
CONTINUOUS
 62
    3
 10
1020.8865
 20
2286.4678
 11
1021.5771
 21
2284.9333
  0
LINE
  8
0-2
  6
CONTINUOUS
 62
    3
 10
1021.5771
 20
2284.9333
 11
1022.4954
 21
2283.5562
  0
LINE
  8
0-2
  6
CONTINUOUS
 62
    3
 10
1022.4954
 20
2283.5562
 11
1023.6136
 21
2282.3783
  0
LINE
  8
0-2
  6
CONTINUOUS
 62
    3
 10
1023.6136
 20
2282.3783
 11
1024.8976
 21
2281.4356
  0
LINE
  8
0-2
  6
CONTINUOUS
 62
    3
 10
1024.8976
 20
2281.4356
 11
1026.3085
 21
2280.7565
  0
LINE
  8
0-2
  6
CONTINUOUS
 62
    3
 10
1026.3085
 20
2280.7565
 11
1027.8034
 21
2280.3618
  0
LINE
  8
0-2
  6
CONTINUOUS
 62
    3
 10
1027.8034
 20
2280.3618
 11
1029.3369
 21
2280.2633
  0
LINE
  8
0-2
  6
CONTINUOUS
 62
    3
 10
1029.3369
 20
2280.2633
 11
1030.8624
 21
2280.4643
  0
LINE
  8
0-2
  6
CONTINUOUS
 62
    3
 10
1030.8624
 20
2280.4643
 11
1032.3335
 21
2280.9584
  0
LINE
  8
0-2
  6
CONTINUOUS
 62
    3
 10
1032.3335
 20
2280.9584
 11
1033.7055
 21
2281.7307
  0
LINE
  8
0-2
  6
CONTINUOUS
 62
    3
 10
1033.7055
 20
2281.7307
 11
1034.9368
 21
2282.7578
  0
LINE
  8
0-2
  6
CONTINUOUS
 62
    3
 10
1034.9368
 20
2282.7578
 11
1035.9899
 21
2284.0084
  0
LINE
  8
0-2
  6
CONTINUOUS
 62
    3
 10
1035.9899
 20
2284.0084
 11
1036.8329
 21
2285.4446
  0
LINE
  8
0-2
  6
CONTINUOUS
 62
    3
 10
1036.8329
 20
2285.4446
 11
1037.44
 21
2287.0226
  0
LINE
  8
0-2
  6
CONTINUOUS
 62
    3
 10
1037.44
 20
2287.0226
 11
1037.7013
 21
2288.1132
  0
LINE
  8
0-2
  6
CONTINUOUS
 62
    3
 10
1072.2988
 20
2288.1132
 11
1072.7407
 21
2286.4678
  0
LINE
  8
0-2
  6
CONTINUOUS
 62
    3
 10
1072.7407
 20
2286.4678
 11
1073.4312
 21
2284.9333
  0
LINE
  8
0-2
  6
CONTINUOUS
 62
    3
 10
1073.4312
 20
2284.9333
 11
1074.3495
 21
2283.5562
  0
LINE
  8
0-2
  6
CONTINUOUS
 62
    3
 10
1074.3495
 20
2283.5562
 11
1075.4677
 21
2282.3783
  0
LINE
  8
0-2
  6
CONTINUOUS
 62
    3
 10
1075.4677
 20
2282.3783
 11
1076.7517
 21
2281.4356
  0
LINE
  8
0-2
  6
CONTINUOUS
 62
    3
 10
1076.7517
 20
2281.4356
 11
1078.1626
 21
2280.7565
  0
LINE
  8
0-2
  6
CONTINUOUS
 62
    3
 10
1078.1626
 20
2280.7565
 11
1079.6576
 21
2280.3618
  0
LINE
  8
0-2
  6
CONTINUOUS
 62
    3
 10
1079.6576
 20
2280.3618
 11
1081.1911
 21
2280.2633
  0
LINE
  8
0-2
  6
CONTINUOUS
 62
    3
 10
1081.1911
 20
2280.2633
 11
1082.7165
 21
2280.4643
  0
LINE
  8
0-2
  6
CONTINUOUS
 62
    3
 10
1082.7165
 20
2280.4643
 11
1084.1876
 21
2280.9584
  0
LINE
  8
0-2
  6
CONTINUOUS
 62
    3
 10
1084.1876
 20
2280.9584
 11
1085.5597
 21
2281.7307
  0
LINE
  8
0-2
  6
CONTINUOUS
 62
    3
 10
1085.5597
 20
2281.7307
 11
1086.7909
 21
2282.7578
  0
LINE
  8
0-2
  6
CONTINUOUS
 62
    3
 10
1086.7909
 20
2282.7578
 11
1087.844
 21
2284.0084
  0
LINE
  8
0-2
  6
CONTINUOUS
 62
    3
 10
1087.844
 20
2284.0084
 11
1088.687
 21
2285.4446
  0
LINE
  8
0-2
  6
CONTINUOUS
 62
    3
 10
1088.687
 20
2285.4446
 11
1089.2941
 21
2287.0226
  0
LINE
  8
0-2
  6
CONTINUOUS
 62
    3
 10
1089.2941
 20
2287.0226
 11
1089.5554
 21
2288.1132
  0
LINE
  8
0-2
  6
CONTINUOUS
 62
    3
 10
804.72012
 20
2089.2869
 11
804.64325
 21
2090.2696
  0
LINE
  8
0-2
  6
CONTINUOUS
 62
    3
 10
804.64325
 20
2090.2696
 11
804.41497
 21
2091.2225
  0
LINE
  8
0-2
  6
CONTINUOUS
 62
    3
 10
804.41497
 20
2091.2225
 11
804.04222
 21
2092.1165
  0
LINE
  8
0-2
  6
CONTINUOUS
 62
    3
 10
804.04222
 20
2092.1165
 11
803.53633
 21
2092.9246
  0
LINE
  8
0-2
  6
CONTINUOUS
 62
    3
 10
803.53633
 20
2092.9246
 11
802.91266
 21
2093.6221
  0
LINE
  8
0-2
  6
CONTINUOUS
 62
    3
 10
802.91266
 20
2093.6221
 11
802.19017
 21
2094.1879
  0
LINE
  8
0-2
  6
CONTINUOUS
 62
    3
 10
802.19017
 20
2094.1879
 11
801.39081
 21
2094.6048
  0
LINE
  8
0-2
  6
CONTINUOUS
 62
    3
 10
801.39081
 20
2094.6048
 11
800.53886
 21
2094.8601
  0
LINE
  8
0-2
  6
CONTINUOUS
 62
    3
 10
800.53886
 20
2094.8601
 11
799.66022
 21
2094.9461
  0
LINE
  8
0-2
  6
CONTINUOUS
 62
    3
 10
799.66022
 20
2094.9461
 11
798.78158
 21
2094.8601
  0
LINE
  8
0-2
  6
CONTINUOUS
 62
    3
 10
798.78158
 20
2094.8601
 11
797.92963
 21
2094.6048
  0
LINE
  8
0-2
  6
CONTINUOUS
 62
    3
 10
797.92963
 20
2094.6048
 11
797.13027
 21
2094.1879
  0
LINE
  8
0-2
  6
CONTINUOUS
 62
    3
 10
797.13027
 20
2094.1879
 11
796.40778
 21
2093.6221
  0
LINE
  8
0-2
  6
CONTINUOUS
 62
    3
 10
796.40778
 20
2093.6221
 11
795.78411
 21
2092.9246
  0
LINE
  8
0-2
  6
CONTINUOUS
 62
    3
 10
795.78411
 20
2092.9246
 11
795.27822
 21
2092.1165
  0
LINE
  8
0-2
  6
CONTINUOUS
 62
    3
 10
795.27822
 20
2092.1165
 11
794.90547
 21
2091.2225
  0
LINE
  8
0-2
  6
CONTINUOUS
 62
    3
 10
794.90547
 20
2091.2225
 11
794.67719
 21
2090.2696
  0
LINE
  8
0-2
  6
CONTINUOUS
 62
    3
 10
794.67719
 20
2090.2696
 11
794.60032
 21
2089.2869
  0
LINE
  8
0-2
  6
CONTINUOUS
 62
    3
 10
794.60032
 20
2089.2869
 11
794.67719
 21
2088.3042
  0
LINE
  8
0-2
  6
CONTINUOUS
 62
    3
 10
794.67719
 20
2088.3042
 11
794.90547
 21
2087.3513
  0
LINE
  8
0-2
  6
CONTINUOUS
 62
    3
 10
794.90547
 20
2087.3513
 11
795.27822
 21
2086.4573
  0
LINE
  8
0-2
  6
CONTINUOUS
 62
    3
 10
795.27822
 20
2086.4573
 11
795.78411
 21
2085.6492
  0
LINE
  8
0-2
  6
CONTINUOUS
 62
    3
 10
795.78411
 20
2085.6492
 11
796.40778
 21
2084.9517
  0
LINE
  8
0-2
  6
CONTINUOUS
 62
    3
 10
796.40778
 20
2084.9517
 11
797.13027
 21
2084.3859
  0
LINE
  8
0-2
  6
CONTINUOUS
 62
    3
 10
797.13027
 20
2084.3859
 11
797.92963
 21
2083.969
  0
LINE
  8
0-2
  6
CONTINUOUS
 62
    3
 10
797.92963
 20
2083.969
 11
798.78158
 21
2083.7137
  0
LINE
  8
0-2
  6
CONTINUOUS
 62
    3
 10
798.78158
 20
2083.7137
 11
799.66022
 21
2083.6277
  0
LINE
  8
0-2
  6
CONTINUOUS
 62
    3
 10
799.66022
 20
2083.6277
 11
800.53886
 21
2083.7137
  0
LINE
  8
0-2
  6
CONTINUOUS
 62
    3
 10
800.53886
 20
2083.7137
 11
801.39081
 21
2083.969
  0
LINE
  8
0-2
  6
CONTINUOUS
 62
    3
 10
801.39081
 20
2083.969
 11
802.19017
 21
2084.3859
  0
LINE
  8
0-2
  6
CONTINUOUS
 62
    3
 10
802.19017
 20
2084.3859
 11
802.91266
 21
2084.9517
  0
LINE
  8
0-2
  6
CONTINUOUS
 62
    3
 10
802.91266
 20
2084.9517
 11
803.53633
 21
2085.6492
  0
LINE
  8
0-2
  6
CONTINUOUS
 62
    3
 10
803.53633
 20
2085.6492
 11
804.04222
 21
2086.4573
  0
LINE
  8
0-2
  6
CONTINUOUS
 62
    3
 10
804.04222
 20
2086.4573
 11
804.41497
 21
2087.3513
  0
LINE
  8
0-2
  6
CONTINUOUS
 62
    3
 10
804.41497
 20
2087.3513
 11
804.64325
 21
2088.3042
  0
LINE
  8
0-2
  6
CONTINUOUS
 62
    3
 10
804.64325
 20
2088.3042
 11
804.72012
 21
2089.2869
  0
LINE
  8
0-2
  6
CONTINUOUS
 62
    3
 10
804.72012
 20
2156.8919
 11
804.64325
 21
2157.8746
  0
LINE
  8
0-2
  6
CONTINUOUS
 62
    3
 10
804.64325
 20
2157.8746
 11
804.41497
 21
2158.8275
  0
LINE
  8
0-2
  6
CONTINUOUS
 62
    3
 10
804.41497
 20
2158.8275
 11
804.04222
 21
2159.7215
  0
LINE
  8
0-2
  6
CONTINUOUS
 62
    3
 10
804.04222
 20
2159.7215
 11
803.53633
 21
2160.5296
  0
LINE
  8
0-2
  6
CONTINUOUS
 62
    3
 10
803.53633
 20
2160.5296
 11
802.91266
 21
2161.2271
  0
LINE
  8
0-2
  6
CONTINUOUS
 62
    3
 10
802.91266
 20
2161.2271
 11
802.19017
 21
2161.7929
  0
LINE
  8
0-2
  6
CONTINUOUS
 62
    3
 10
802.19017
 20
2161.7929
 11
801.39081
 21
2162.2098
  0
LINE
  8
0-2
  6
CONTINUOUS
 62
    3
 10
801.39081
 20
2162.2098
 11
800.53886
 21
2162.4652
  0
LINE
  8
0-2
  6
CONTINUOUS
 62
    3
 10
800.53886
 20
2162.4652
 11
799.66022
 21
2162.5511
  0
LINE
  8
0-2
  6
CONTINUOUS
 62
    3
 10
799.66022
 20
2162.5511
 11
798.78158
 21
2162.4652
  0
LINE
  8
0-2
  6
CONTINUOUS
 62
    3
 10
798.78158
 20
2162.4652
 11
797.92963
 21
2162.2098
  0
LINE
  8
0-2
  6
CONTINUOUS
 62
    3
 10
797.92963
 20
2162.2098
 11
797.13027
 21
2161.7929
  0
LINE
  8
0-2
  6
CONTINUOUS
 62
    3
 10
797.13027
 20
2161.7929
 11
796.40778
 21
2161.2271
  0
LINE
  8
0-2
  6
CONTINUOUS
 62
    3
 10
796.40778
 20
2161.2271
 11
795.78411
 21
2160.5296
  0
LINE
  8
0-2
  6
CONTINUOUS
 62
    3
 10
795.78411
 20
2160.5296
 11
795.27822
 21
2159.7215
  0
LINE
  8
0-2
  6
CONTINUOUS
 62
    3
 10
795.27822
 20
2159.7215
 11
794.90547
 21
2158.8275
  0
LINE
  8
0-2
  6
CONTINUOUS
 62
    3
 10
794.90547
 20
2158.8275
 11
794.67719
 21
2157.8746
  0
LINE
  8
0-2
  6
CONTINUOUS
 62
    3
 10
794.67719
 20
2157.8746
 11
794.60032
 21
2156.8919
  0
LINE
  8
0-2
  6
CONTINUOUS
 62
    3
 10
794.60032
 20
2156.8919
 11
794.67719
 21
2155.9092
  0
LINE
  8
0-2
  6
CONTINUOUS
 62
    3
 10
794.67719
 20
2155.9092
 11
794.90547
 21
2154.9564
  0
LINE
  8
0-2
  6
CONTINUOUS
 62
    3
 10
794.90547
 20
2154.9564
 11
795.27822
 21
2154.0623
  0
LINE
  8
0-2
  6
CONTINUOUS
 62
    3
 10
795.27822
 20
2154.0623
 11
795.78411
 21
2153.2542
  0
LINE
  8
0-2
  6
CONTINUOUS
 62
    3
 10
795.78411
 20
2153.2542
 11
796.40778
 21
2152.5567
  0
LINE
  8
0-2
  6
CONTINUOUS
 62
    3
 10
796.40778
 20
2152.5567
 11
797.13027
 21
2151.9909
  0
LINE
  8
0-2
  6
CONTINUOUS
 62
    3
 10
797.13027
 20
2151.9909
 11
797.92963
 21
2151.574
  0
LINE
  8
0-2
  6
CONTINUOUS
 62
    3
 10
797.92963
 20
2151.574
 11
798.78158
 21
2151.3187
  0
LINE
  8
0-2
  6
CONTINUOUS
 62
    3
 10
798.78158
 20
2151.3187
 11
799.66022
 21
2151.2327
  0
LINE
  8
0-2
  6
CONTINUOUS
 62
    3
 10
799.66022
 20
2151.2327
 11
800.53886
 21
2151.3187
  0
LINE
  8
0-2
  6
CONTINUOUS
 62
    3
 10
800.53886
 20
2151.3187
 11
801.39081
 21
2151.574
  0
LINE
  8
0-2
  6
CONTINUOUS
 62
    3
 10
801.39081
 20
2151.574
 11
802.19017
 21
2151.9909
  0
LINE
  8
0-2
  6
CONTINUOUS
 62
    3
 10
802.19017
 20
2151.9909
 11
802.91266
 21
2152.5567
  0
LINE
  8
0-2
  6
CONTINUOUS
 62
    3
 10
802.91266
 20
2152.5567
 11
803.53633
 21
2153.2542
  0
LINE
  8
0-2
  6
CONTINUOUS
 62
    3
 10
803.53633
 20
2153.2542
 11
804.04222
 21
2154.0623
  0
LINE
  8
0-2
  6
CONTINUOUS
 62
    3
 10
804.04222
 20
2154.0623
 11
804.41497
 21
2154.9564
  0
LINE
  8
0-2
  6
CONTINUOUS
 62
    3
 10
804.41497
 20
2154.9564
 11
804.64325
 21
2155.9092
  0
LINE
  8
0-2
  6
CONTINUOUS
 62
    3
 10
804.64325
 20
2155.9092
 11
804.72012
 21
2156.8919
  0
LINE
  8
0-2
  6
CONTINUOUS
 62
    3
 10
804.72012
 20
1770.1066
 11
804.64325
 21
1771.0893
  0
LINE
  8
0-2
  6
CONTINUOUS
 62
    3
 10
804.64325
 20
1771.0893
 11
804.41497
 21
1772.0422
  0
LINE
  8
0-2
  6
CONTINUOUS
 62
    3
 10
804.41497
 20
1772.0422
 11
804.04222
 21
1772.9362
  0
LINE
  8
0-2
  6
CONTINUOUS
 62
    3
 10
804.04222
 20
1772.9362
 11
803.53633
 21
1773.7443
  0
LINE
  8
0-2
  6
CONTINUOUS
 62
    3
 10
803.53633
 20
1773.7443
 11
802.91266
 21
1774.4418
  0
LINE
  8
0-2
  6
CONTINUOUS
 62
    3
 10
802.91266
 20
1774.4418
 11
802.19017
 21
1775.0076
  0
LINE
  8
0-2
  6
CONTINUOUS
 62
    3
 10
802.19017
 20
1775.0076
 11
801.39081
 21
1775.4245
  0
LINE
  8
0-2
  6
CONTINUOUS
 62
    3
 10
801.39081
 20
1775.4245
 11
800.53886
 21
1775.6798
  0
LINE
  8
0-2
  6
CONTINUOUS
 62
    3
 10
800.53886
 20
1775.6798
 11
799.66022
 21
1775.7658
  0
LINE
  8
0-2
  6
CONTINUOUS
 62
    3
 10
799.66022
 20
1775.7658
 11
798.78158
 21
1775.6798
  0
LINE
  8
0-2
  6
CONTINUOUS
 62
    3
 10
798.78158
 20
1775.6798
 11
797.92963
 21
1775.4245
  0
LINE
  8
0-2
  6
CONTINUOUS
 62
    3
 10
797.92963
 20
1775.4245
 11
797.13027
 21
1775.0076
  0
LINE
  8
0-2
  6
CONTINUOUS
 62
    3
 10
797.13027
 20
1775.0076
 11
796.40778
 21
1774.4418
  0
LINE
  8
0-2
  6
CONTINUOUS
 62
    3
 10
796.40778
 20
1774.4418
 11
795.78411
 21
1773.7443
  0
LINE
  8
0-2
  6
CONTINUOUS
 62
    3
 10
795.78411
 20
1773.7443
 11
795.27822
 21
1772.9362
  0
LINE
  8
0-2
  6
CONTINUOUS
 62
    3
 10
795.27822
 20
1772.9362
 11
794.90547
 21
1772.0422
  0
LINE
  8
0-2
  6
CONTINUOUS
 62
    3
 10
794.90547
 20
1772.0422
 11
794.67719
 21
1771.0893
  0
LINE
  8
0-2
  6
CONTINUOUS
 62
    3
 10
794.67719
 20
1771.0893
 11
794.60032
 21
1770.1066
  0
LINE
  8
0-2
  6
CONTINUOUS
 62
    3
 10
794.60032
 20
1770.1066
 11
794.67719
 21
1769.1239
  0
LINE
  8
0-2
  6
CONTINUOUS
 62
    3
 10
794.67719
 20
1769.1239
 11
794.90547
 21
1768.171
  0
LINE
  8
0-2
  6
CONTINUOUS
 62
    3
 10
794.90547
 20
1768.171
 11
795.27822
 21
1767.277
  0
LINE
  8
0-2
  6
CONTINUOUS
 62
    3
 10
795.27822
 20
1767.277
 11
795.78411
 21
1766.4689
  0
LINE
  8
0-2
  6
CONTINUOUS
 62
    3
 10
795.78411
 20
1766.4689
 11
796.40778
 21
1765.7714
  0
LINE
  8
0-2
  6
CONTINUOUS
 62
    3
 10
796.40778
 20
1765.7714
 11
797.13027
 21
1765.2056
  0
LINE
  8
0-2
  6
CONTINUOUS
 62
    3
 10
797.13027
 20
1765.2056
 11
797.92963
 21
1764.7887
  0
LINE
  8
0-2
  6
CONTINUOUS
 62
    3
 10
797.92963
 20
1764.7887
 11
798.78158
 21
1764.5334
  0
LINE
  8
0-2
  6
CONTINUOUS
 62
    3
 10
798.78158
 20
1764.5334
 11
799.66022
 21
1764.4474
  0
LINE
  8
0-2
  6
CONTINUOUS
 62
    3
 10
799.66022
 20
1764.4474
 11
800.53886
 21
1764.5334
  0
LINE
  8
0-2
  6
CONTINUOUS
 62
    3
 10
800.53886
 20
1764.5334
 11
801.39081
 21
1764.7887
  0
LINE
  8
0-2
  6
CONTINUOUS
 62
    3
 10
801.39081
 20
1764.7887
 11
802.19017
 21
1765.2056
  0
LINE
  8
0-2
  6
CONTINUOUS
 62
    3
 10
802.19017
 20
1765.2056
 11
802.91266
 21
1765.7714
  0
LINE
  8
0-2
  6
CONTINUOUS
 62
    3
 10
802.91266
 20
1765.7714
 11
803.53633
 21
1766.4689
  0
LINE
  8
0-2
  6
CONTINUOUS
 62
    3
 10
803.53633
 20
1766.4689
 11
804.04222
 21
1767.277
  0
LINE
  8
0-2
  6
CONTINUOUS
 62
    3
 10
804.04222
 20
1767.277
 11
804.41497
 21
1768.171
  0
LINE
  8
0-2
  6
CONTINUOUS
 62
    3
 10
804.41497
 20
1768.171
 11
804.64325
 21
1769.1239
  0
LINE
  8
0-2
  6
CONTINUOUS
 62
    3
 10
804.64325
 20
1769.1239
 11
804.72012
 21
1770.1066
  0
LINE
  8
0-2
  6
CONTINUOUS
 62
    3
 10
804.72012
 20
1702.501
 11
804.64325
 21
1703.4837
  0
LINE
  8
0-2
  6
CONTINUOUS
 62
    3
 10
804.64325
 20
1703.4837
 11
804.41497
 21
1704.4365
  0
LINE
  8
0-2
  6
CONTINUOUS
 62
    3
 10
804.41497
 20
1704.4365
 11
804.04222
 21
1705.3306
  0
LINE
  8
0-2
  6
CONTINUOUS
 62
    3
 10
804.04222
 20
1705.3306
 11
803.53633
 21
1706.1386
  0
LINE
  8
0-2
  6
CONTINUOUS
 62
    3
 10
803.53633
 20
1706.1386
 11
802.91266
 21
1706.8362
  0
LINE
  8
0-2
  6
CONTINUOUS
 62
    3
 10
802.91266
 20
1706.8362
 11
802.19017
 21
1707.402
  0
LINE
  8
0-2
  6
CONTINUOUS
 62
    3
 10
802.19017
 20
1707.402
 11
801.39081
 21
1707.8189
  0
LINE
  8
0-2
  6
CONTINUOUS
 62
    3
 10
801.39081
 20
1707.8189
 11
800.53886
 21
1708.0742
  0
LINE
  8
0-2
  6
CONTINUOUS
 62
    3
 10
800.53886
 20
1708.0742
 11
799.66022
 21
1708.1602
  0
LINE
  8
0-2
  6
CONTINUOUS
 62
    3
 10
799.66022
 20
1708.1602
 11
798.78158
 21
1708.0742
  0
LINE
  8
0-2
  6
CONTINUOUS
 62
    3
 10
798.78158
 20
1708.0742
 11
797.92963
 21
1707.8189
  0
LINE
  8
0-2
  6
CONTINUOUS
 62
    3
 10
797.92963
 20
1707.8189
 11
797.13027
 21
1707.402
  0
LINE
  8
0-2
  6
CONTINUOUS
 62
    3
 10
797.13027
 20
1707.402
 11
796.40778
 21
1706.8362
  0
LINE
  8
0-2
  6
CONTINUOUS
 62
    3
 10
796.40778
 20
1706.8362
 11
795.78411
 21
1706.1386
  0
LINE
  8
0-2
  6
CONTINUOUS
 62
    3
 10
795.78411
 20
1706.1386
 11
795.27822
 21
1705.3306
  0
LINE
  8
0-2
  6
CONTINUOUS
 62
    3
 10
795.27822
 20
1705.3306
 11
794.90547
 21
1704.4365
  0
LINE
  8
0-2
  6
CONTINUOUS
 62
    3
 10
794.90547
 20
1704.4365
 11
794.67719
 21
1703.4837
  0
LINE
  8
0-2
  6
CONTINUOUS
 62
    3
 10
794.67719
 20
1703.4837
 11
794.60032
 21
1702.501
  0
LINE
  8
0-2
  6
CONTINUOUS
 62
    3
 10
794.60032
 20
1702.501
 11
794.67719
 21
1701.5182
  0
LINE
  8
0-2
  6
CONTINUOUS
 62
    3
 10
794.67719
 20
1701.5182
 11
794.90547
 21
1700.5654
  0
LINE
  8
0-2
  6
CONTINUOUS
 62
    3
 10
794.90547
 20
1700.5654
 11
795.27822
 21
1699.6713
  0
LINE
  8
0-2
  6
CONTINUOUS
 62
    3
 10
795.27822
 20
1699.6713
 11
795.78411
 21
1698.8633
  0
LINE
  8
0-2
  6
CONTINUOUS
 62
    3
 10
795.78411
 20
1698.8633
 11
796.40778
 21
1698.1657
  0
LINE
  8
0-2
  6
CONTINUOUS
 62
    3
 10
796.40778
 20
1698.1657
 11
797.13027
 21
1697.5999
  0
LINE
  8
0-2
  6
CONTINUOUS
 62
    3
 10
797.13027
 20
1697.5999
 11
797.92963
 21
1697.183
  0
LINE
  8
0-2
  6
CONTINUOUS
 62
    3
 10
797.92963
 20
1697.183
 11
798.78158
 21
1696.9277
  0
LINE
  8
0-2
  6
CONTINUOUS
 62
    3
 10
798.78158
 20
1696.9277
 11
799.66022
 21
1696.8417
  0
LINE
  8
0-2
  6
CONTINUOUS
 62
    3
 10
799.66022
 20
1696.8417
 11
800.53886
 21
1696.9277
  0
LINE
  8
0-2
  6
CONTINUOUS
 62
    3
 10
800.53886
 20
1696.9277
 11
801.39081
 21
1697.183
  0
LINE
  8
0-2
  6
CONTINUOUS
 62
    3
 10
801.39081
 20
1697.183
 11
802.19017
 21
1697.5999
  0
LINE
  8
0-2
  6
CONTINUOUS
 62
    3
 10
802.19017
 20
1697.5999
 11
802.91266
 21
1698.1657
  0
LINE
  8
0-2
  6
CONTINUOUS
 62
    3
 10
802.91266
 20
1698.1657
 11
803.53633
 21
1698.8633
  0
LINE
  8
0-2
  6
CONTINUOUS
 62
    3
 10
803.53633
 20
1698.8633
 11
804.04222
 21
1699.6713
  0
LINE
  8
0-2
  6
CONTINUOUS
 62
    3
 10
804.04222
 20
1699.6713
 11
804.41497
 21
1700.5654
  0
LINE
  8
0-2
  6
CONTINUOUS
 62
    3
 10
804.41497
 20
1700.5654
 11
804.64325
 21
1701.5182
  0
LINE
  8
0-2
  6
CONTINUOUS
 62
    3
 10
804.64325
 20
1701.5182
 11
804.72012
 21
1702.501
  0
LINE
  8
0-2
  6
CONTINUOUS
 62
    3
 10
1037.7013
 20
1571.2801
 11
1037.2595
 21
1572.9254
  0
LINE
  8
0-2
  6
CONTINUOUS
 62
    3
 10
1037.2595
 20
1572.9254
 11
1036.569
 21
1574.4599
  0
LINE
  8
0-2
  6
CONTINUOUS
 62
    3
 10
1036.569
 20
1574.4599
 11
1035.6507
 21
1575.8371
  0
LINE
  8
0-2
  6
CONTINUOUS
 62
    3
 10
1035.6507
 20
1575.8371
 11
1034.5325
 21
1577.0149
  0
LINE
  8
0-2
  6
CONTINUOUS
 62
    3
 10
1034.5325
 20
1577.0149
 11
1033.2484
 21
1577.9577
  0
LINE
  8
0-2
  6
CONTINUOUS
 62
    3
 10
1033.2484
 20
1577.9577
 11
1031.8375
 21
1578.6368
  0
LINE
  8
0-2
  6
CONTINUOUS
 62
    3
 10
1031.8375
 20
1578.6368
 11
1030.3426
 21
1579.0315
  0
LINE
  8
0-2
  6
CONTINUOUS
 62
    3
 10
1030.3426
 20
1579.0315
 11
1028.8091
 21
1579.1299
  0
LINE
  8
0-2
  6
CONTINUOUS
 62
    3
 10
1028.8091
 20
1579.1299
 11
1027.2836
 21
1578.929
  0
LINE
  8
0-2
  6
CONTINUOUS
 62
    3
 10
1027.2836
 20
1578.929
 11
1025.8125
 21
1578.4348
  0
LINE
  8
0-2
  6
CONTINUOUS
 62
    3
 10
1025.8125
 20
1578.4348
 11
1024.4405
 21
1577.6625
  0
LINE
  8
0-2
  6
CONTINUOUS
 62
    3
 10
1024.4405
 20
1577.6625
 11
1023.2092
 21
1576.6354
  0
LINE
  8
0-2
  6
CONTINUOUS
 62
    3
 10
1023.2092
 20
1576.6354
 11
1022.1561
 21
1575.3848
  0
LINE
  8
0-2
  6
CONTINUOUS
 62
    3
 10
1022.1561
 20
1575.3848
 11
1021.3132
 21
1573.9487
  0
LINE
  8
0-2
  6
CONTINUOUS
 62
    3
 10
1021.3132
 20
1573.9487
 11
1020.706
 21
1572.3707
  0
LINE
  8
0-2
  6
CONTINUOUS
 62
    3
 10
1020.706
 20
1572.3707
 11
1020.4447
 21
1571.2801
  0
LINE
  8
0-2
  6
CONTINUOUS
 62
    3
 10
869.41196
 20
1554.6706
 11
869.33509
 21
1555.6533
  0
LINE
  8
0-2
  6
CONTINUOUS
 62
    3
 10
869.33509
 20
1555.6533
 11
869.10681
 21
1556.6062
  0
LINE
  8
0-2
  6
CONTINUOUS
 62
    3
 10
869.10681
 20
1556.6062
 11
868.73406
 21
1557.5002
  0
LINE
  8
0-2
  6
CONTINUOUS
 62
    3
 10
868.73406
 20
1557.5002
 11
868.22817
 21
1558.3083
  0
LINE
  8
0-2
  6
CONTINUOUS
 62
    3
 10
868.22817
 20
1558.3083
 11
867.6045
 21
1559.0058
  0
LINE
  8
0-2
  6
CONTINUOUS
 62
    3
 10
867.6045
 20
1559.0058
 11
866.88201
 21
1559.5716
  0
LINE
  8
0-2
  6
CONTINUOUS
 62
    3
 10
866.88201
 20
1559.5716
 11
866.08265
 21
1559.9885
  0
LINE
  8
0-2
  6
CONTINUOUS
 62
    3
 10
866.08265
 20
1559.9885
 11
865.23071
 21
1560.2439
  0
LINE
  8
0-2
  6
CONTINUOUS
 62
    3
 10
865.23071
 20
1560.2439
 11
864.35206
 21
1560.3298
  0
LINE
  8
0-2
  6
CONTINUOUS
 62
    3
 10
864.35206
 20
1560.3298
 11
863.47342
 21
1560.2439
  0
LINE
  8
0-2
  6
CONTINUOUS
 62
    3
 10
863.47342
 20
1560.2439
 11
862.62148
 21
1559.9885
  0
LINE
  8
0-2
  6
CONTINUOUS
 62
    3
 10
862.62148
 20
1559.9885
 11
861.82211
 21
1559.5716
  0
LINE
  8
0-2
  6
CONTINUOUS
 62
    3
 10
861.82211
 20
1559.5716
 11
861.09962
 21
1559.0058
  0
LINE
  8
0-2
  6
CONTINUOUS
 62
    3
 10
861.09962
 20
1559.0058
 11
860.47596
 21
1558.3083
  0
LINE
  8
0-2
  6
CONTINUOUS
 62
    3
 10
860.47596
 20
1558.3083
 11
859.97006
 21
1557.5002
  0
LINE
  8
0-2
  6
CONTINUOUS
 62
    3
 10
859.97006
 20
1557.5002
 11
859.59732
 21
1556.6062
  0
LINE
  8
0-2
  6
CONTINUOUS
 62
    3
 10
859.59732
 20
1556.6062
 11
859.36904
 21
1555.6533
  0
LINE
  8
0-2
  6
CONTINUOUS
 62
    3
 10
859.36904
 20
1555.6533
 11
859.29217
 21
1554.6706
  0
LINE
  8
0-2
  6
CONTINUOUS
 62
    3
 10
859.29217
 20
1554.6706
 11
859.36904
 21
1553.6879
  0
LINE
  8
0-2
  6
CONTINUOUS
 62
    3
 10
859.36904
 20
1553.6879
 11
859.59732
 21
1552.7351
  0
LINE
  8
0-2
  6
CONTINUOUS
 62
    3
 10
859.59732
 20
1552.7351
 11
859.97006
 21
1551.841
  0
LINE
  8
0-2
  6
CONTINUOUS
 62
    3
 10
859.97006
 20
1551.841
 11
860.47596
 21
1551.033
  0
LINE
  8
0-2
  6
CONTINUOUS
 62
    3
 10
860.47596
 20
1551.033
 11
861.09962
 21
1550.3354
  0
LINE
  8
0-2
  6
CONTINUOUS
 62
    3
 10
861.09962
 20
1550.3354
 11
861.82211
 21
1549.7696
  0
LINE
  8
0-2
  6
CONTINUOUS
 62
    3
 10
861.82211
 20
1549.7696
 11
862.62148
 21
1549.3527
  0
LINE
  8
0-2
  6
CONTINUOUS
 62
    3
 10
862.62148
 20
1549.3527
 11
863.47342
 21
1549.0974
  0
LINE
  8
0-2
  6
CONTINUOUS
 62
    3
 10
863.47342
 20
1549.0974
 11
864.35206
 21
1549.0114
  0
LINE
  8
0-2
  6
CONTINUOUS
 62
    3
 10
864.35206
 20
1549.0114
 11
865.23071
 21
1549.0974
  0
LINE
  8
0-2
  6
CONTINUOUS
 62
    3
 10
865.23071
 20
1549.0974
 11
866.08265
 21
1549.3527
  0
LINE
  8
0-2
  6
CONTINUOUS
 62
    3
 10
866.08265
 20
1549.3527
 11
866.88201
 21
1549.7696
  0
LINE
  8
0-2
  6
CONTINUOUS
 62
    3
 10
866.88201
 20
1549.7696
 11
867.6045
 21
1550.3354
  0
LINE
  8
0-2
  6
CONTINUOUS
 62
    3
 10
867.6045
 20
1550.3354
 11
868.22817
 21
1551.033
  0
LINE
  8
0-2
  6
CONTINUOUS
 62
    3
 10
868.22817
 20
1551.033
 11
868.73406
 21
1551.841
  0
LINE
  8
0-2
  6
CONTINUOUS
 62
    3
 10
868.73406
 20
1551.841
 11
869.10681
 21
1552.7351
  0
LINE
  8
0-2
  6
CONTINUOUS
 62
    3
 10
869.10681
 20
1552.7351
 11
869.33509
 21
1553.6879
  0
LINE
  8
0-2
  6
CONTINUOUS
 62
    3
 10
869.33509
 20
1553.6879
 11
869.41196
 21
1554.6706
  0
LINE
  8
0-2
  6
CONTINUOUS
 62
    3
 10
869.41196
 20
1490.9953
 11
869.33509
 21
1491.978
  0
LINE
  8
0-2
  6
CONTINUOUS
 62
    3
 10
869.33509
 20
1491.978
 11
869.10681
 21
1492.9309
  0
LINE
  8
0-2
  6
CONTINUOUS
 62
    3
 10
869.10681
 20
1492.9309
 11
868.73406
 21
1493.8249
  0
LINE
  8
0-2
  6
CONTINUOUS
 62
    3
 10
868.73406
 20
1493.8249
 11
868.22817
 21
1494.633
  0
LINE
  8
0-2
  6
CONTINUOUS
 62
    3
 10
868.22817
 20
1494.633
 11
867.6045
 21
1495.3305
  0
LINE
  8
0-2
  6
CONTINUOUS
 62
    3
 10
867.6045
 20
1495.3305
 11
866.88201
 21
1495.8963
  0
LINE
  8
0-2
  6
CONTINUOUS
 62
    3
 10
866.88201
 20
1495.8963
 11
866.08265
 21
1496.3132
  0
LINE
  8
0-2
  6
CONTINUOUS
 62
    3
 10
866.08265
 20
1496.3132
 11
865.23071
 21
1496.5686
  0
LINE
  8
0-2
  6
CONTINUOUS
 62
    3
 10
865.23071
 20
1496.5686
 11
864.35206
 21
1496.6545
  0
LINE
  8
0-2
  6
CONTINUOUS
 62
    3
 10
864.35206
 20
1496.6545
 11
863.47342
 21
1496.5686
  0
LINE
  8
0-2
  6
CONTINUOUS
 62
    3
 10
863.47342
 20
1496.5686
 11
862.62148
 21
1496.3132
  0
LINE
  8
0-2
  6
CONTINUOUS
 62
    3
 10
862.62148
 20
1496.3132
 11
861.82211
 21
1495.8963
  0
LINE
  8
0-2
  6
CONTINUOUS
 62
    3
 10
861.82211
 20
1495.8963
 11
861.09962
 21
1495.3305
  0
LINE
  8
0-2
  6
CONTINUOUS
 62
    3
 10
861.09962
 20
1495.3305
 11
860.47596
 21
1494.633
  0
LINE
  8
0-2
  6
CONTINUOUS
 62
    3
 10
860.47596
 20
1494.633
 11
859.97006
 21
1493.8249
  0
LINE
  8
0-2
  6
CONTINUOUS
 62
    3
 10
859.97006
 20
1493.8249
 11
859.59732
 21
1492.9309
  0
LINE
  8
0-2
  6
CONTINUOUS
 62
    3
 10
859.59732
 20
1492.9309
 11
859.36904
 21
1491.978
  0
LINE
  8
0-2
  6
CONTINUOUS
 62
    3
 10
859.36904
 20
1491.978
 11
859.29217
 21
1490.9953
  0
LINE
  8
0-2
  6
CONTINUOUS
 62
    3
 10
859.29217
 20
1490.9953
 11
859.36904
 21
1490.0126
  0
LINE
  8
0-2
  6
CONTINUOUS
 62
    3
 10
859.36904
 20
1490.0126
 11
859.59732
 21
1489.0598
  0
LINE
  8
0-2
  6
CONTINUOUS
 62
    3
 10
859.59732
 20
1489.0598
 11
859.97006
 21
1488.1657
  0
LINE
  8
0-2
  6
CONTINUOUS
 62
    3
 10
859.97006
 20
1488.1657
 11
860.47596
 21
1487.3577
  0
LINE
  8
0-2
  6
CONTINUOUS
 62
    3
 10
860.47596
 20
1487.3577
 11
861.09962
 21
1486.6601
  0
LINE
  8
0-2
  6
CONTINUOUS
 62
    3
 10
861.09962
 20
1486.6601
 11
861.82211
 21
1486.0943
  0
LINE
  8
0-2
  6
CONTINUOUS
 62
    3
 10
861.82211
 20
1486.0943
 11
862.62148
 21
1485.6774
  0
LINE
  8
0-2
  6
CONTINUOUS
 62
    3
 10
862.62148
 20
1485.6774
 11
863.47342
 21
1485.4221
  0
LINE
  8
0-2
  6
CONTINUOUS
 62
    3
 10
863.47342
 20
1485.4221
 11
864.35206
 21
1485.3361
  0
LINE
  8
0-2
  6
CONTINUOUS
 62
    3
 10
864.35206
 20
1485.3361
 11
865.23071
 21
1485.4221
  0
LINE
  8
0-2
  6
CONTINUOUS
 62
    3
 10
865.23071
 20
1485.4221
 11
866.08265
 21
1485.6774
  0
LINE
  8
0-2
  6
CONTINUOUS
 62
    3
 10
866.08265
 20
1485.6774
 11
866.88201
 21
1486.0943
  0
LINE
  8
0-2
  6
CONTINUOUS
 62
    3
 10
866.88201
 20
1486.0943
 11
867.6045
 21
1486.6601
  0
LINE
  8
0-2
  6
CONTINUOUS
 62
    3
 10
867.6045
 20
1486.6601
 11
868.22817
 21
1487.3577
  0
LINE
  8
0-2
  6
CONTINUOUS
 62
    3
 10
868.22817
 20
1487.3577
 11
868.73406
 21
1488.1657
  0
LINE
  8
0-2
  6
CONTINUOUS
 62
    3
 10
868.73406
 20
1488.1657
 11
869.10681
 21
1489.0598
  0
LINE
  8
0-2
  6
CONTINUOUS
 62
    3
 10
869.10681
 20
1489.0598
 11
869.33509
 21
1490.0126
  0
LINE
  8
0-2
  6
CONTINUOUS
 62
    3
 10
869.33509
 20
1490.0126
 11
869.41196
 21
1490.9953
  0
ARC
  8
0-2
  6
CONTINUOUS
 62
    3
 10
1409.3358
 20
1708.5436
 40
6.3264769
 50
268.77102
 51
91.228973
  0
ARC
  8
0-2
  6
CONTINUOUS
 62
    3
 10
1409.3358
 20
2139.6164
 40
6.3264769
 50
268.77102
 51
91.228973
  0
ARC
  8
0-2
  6
CONTINUOUS
 62
    3
 10
1320.7858
 20
1708.5436
 40
6.3264769
 50
268.77102
 51
91.228973
  0
ARC
  8
0-2
  6
CONTINUOUS
 62
    3
 10
797.50019
 20
1404.5939
 40
5.0000167
 50
90
 51
270
  0
ARC
  8
0-2
  6
CONTINUOUS
 62
    3
 10
797.49896
 20
1470.0499
 40
5.0000167
 50
90
 51
270
  0
ARC
  8
0-2
  6
CONTINUOUS
 62
    3
 10
1312.5003
 20
1404.5939
 40
5.0000167
 50
270
 51
90
  0
ARC
  8
0-2
  6
CONTINUOUS
 62
    3
 10
1312.5015
 20
1470.0499
 40
5.0000167
 50
270
 51
90
  0
ARC
  8
0-2
  6
CONTINUOUS
 62
    3
 10
797.50019
 20
1404.5939
 40
5.0000167
 50
90
 51
270
  0
ARC
  8
0-2
  6
CONTINUOUS
 62
    3
 10
797.49896
 20
1470.0499
 40
5.0000167
 50
90
 51
270
  0
ARC
  8
0-2
  6
CONTINUOUS
 62
    3
 10
1312.5003
 20
1404.5939
 40
5.0000167
 50
270
 51
90
  0
ARC
  8
0-2
  6
CONTINUOUS
 62
    3
 10
1312.5015
 20
1470.0499
 40
5.0000167
 50
270
 51
90
  0
LINE
  8
0-2
  6
CONTINUOUS
 62
    3
 10
1485.0001
 20
1665.5997
 11
1486.4644
 21
1665.743
  0
LINE
  8
0-2
  6
CONTINUOUS
 62
    3
 10
1486.4644
 20
1665.743
 11
1487.8843
 21
1666.1685
  0
LINE
  8
0-2
  6
CONTINUOUS
 62
    3
 10
1487.8843
 20
1666.1685
 11
1489.2165
 21
1666.8633
  0
LINE
  8
0-2
  6
CONTINUOUS
 62
    3
 10
1489.2165
 20
1666.8633
 11
1490.4206
 21
1667.8063
  0
LINE
  8
0-2
  6
CONTINUOUS
 62
    3
 10
1490.4206
 20
1667.8063
 11
1491.46
 21
1668.9688
  0
LINE
  8
0-2
  6
CONTINUOUS
 62
    3
 10
1491.46
 20
1668.9688
 11
1492.3031
 21
1670.3155
  0
LINE
  8
0-2
  6
CONTINUOUS
 62
    3
 10
1492.3031
 20
1670.3155
 11
1492.9243
 21
1671.8055
  0
LINE
  8
0-2
  6
CONTINUOUS
 62
    3
 10
1492.9243
 20
1671.8055
 11
1493.3048
 21
1673.3935
  0
LINE
  8
0-2
  6
CONTINUOUS
 62
    3
 10
1493.3048
 20
1673.3935
 11
1493.4329
 21
1675.0313
  0
LINE
  8
0-2
  6
CONTINUOUS
 62
    3
 10
1493.4329
 20
1675.0313
 11
1493.3048
 21
1676.6691
  0
LINE
  8
0-2
  6
CONTINUOUS
 62
    3
 10
1493.3048
 20
1676.6691
 11
1492.9243
 21
1678.2571
  0
LINE
  8
0-2
  6
CONTINUOUS
 62
    3
 10
1492.9243
 20
1678.2571
 11
1492.3031
 21
1679.7471
  0
LINE
  8
0-2
  6
CONTINUOUS
 62
    3
 10
1492.3031
 20
1679.7471
 11
1491.46
 21
1681.0938
  0
LINE
  8
0-2
  6
CONTINUOUS
 62
    3
 10
1491.46
 20
1681.0938
 11
1490.4206
 21
1682.2563
  0
LINE
  8
0-2
  6
CONTINUOUS
 62
    3
 10
1490.4206
 20
1682.2563
 11
1489.2165
 21
1683.1993
  0
LINE
  8
0-2
  6
CONTINUOUS
 62
    3
 10
1489.2165
 20
1683.1993
 11
1487.8843
 21
1683.8941
  0
LINE
  8
0-2
  6
CONTINUOUS
 62
    3
 10
1487.8843
 20
1683.8941
 11
1486.4644
 21
1684.3196
  0
LINE
  8
0-2
  6
CONTINUOUS
 62
    3
 10
1486.4644
 20
1684.3196
 11
1485.0001
 21
1684.4629
  0
LINE
  8
0-2
  6
CONTINUOUS
 62
    3
 10
1485.0001
 20
1665.5997
 11
1486.4644
 21
1665.743
  0
LINE
  8
0-2
  6
CONTINUOUS
 62
    3
 10
1486.4644
 20
1665.743
 11
1487.8843
 21
1666.1685
  0
LINE
  8
0-2
  6
CONTINUOUS
 62
    3
 10
1487.8843
 20
1666.1685
 11
1489.2165
 21
1666.8633
  0
LINE
  8
0-2
  6
CONTINUOUS
 62
    3
 10
1489.2165
 20
1666.8633
 11
1490.4206
 21
1667.8063
  0
LINE
  8
0-2
  6
CONTINUOUS
 62
    3
 10
1490.4206
 20
1667.8063
 11
1491.46
 21
1668.9688
  0
LINE
  8
0-2
  6
CONTINUOUS
 62
    3
 10
1491.46
 20
1668.9688
 11
1492.3031
 21
1670.3155
  0
LINE
  8
0-2
  6
CONTINUOUS
 62
    3
 10
1492.3031
 20
1670.3155
 11
1492.9243
 21
1671.8055
  0
LINE
  8
0-2
  6
CONTINUOUS
 62
    3
 10
1492.9243
 20
1671.8055
 11
1493.3048
 21
1673.3935
  0
LINE
  8
0-2
  6
CONTINUOUS
 62
    3
 10
1493.3048
 20
1673.3935
 11
1493.4329
 21
1675.0313
  0
LINE
  8
0-2
  6
CONTINUOUS
 62
    3
 10
1493.4329
 20
1675.0313
 11
1493.3048
 21
1676.6691
  0
LINE
  8
0-2
  6
CONTINUOUS
 62
    3
 10
1493.3048
 20
1676.6691
 11
1492.9243
 21
1678.2571
  0
LINE
  8
0-2
  6
CONTINUOUS
 62
    3
 10
1492.9243
 20
1678.2571
 11
1492.3031
 21
1679.7471
  0
LINE
  8
0-2
  6
CONTINUOUS
 62
    3
 10
1492.3031
 20
1679.7471
 11
1491.46
 21
1681.0938
  0
LINE
  8
0-2
  6
CONTINUOUS
 62
    3
 10
1491.46
 20
1681.0938
 11
1490.4206
 21
1682.2563
  0
LINE
  8
0-2
  6
CONTINUOUS
 62
    3
 10
1490.4206
 20
1682.2563
 11
1489.2165
 21
1683.1993
  0
LINE
  8
0-2
  6
CONTINUOUS
 62
    3
 10
1489.2165
 20
1683.1993
 11
1487.8843
 21
1683.8941
  0
LINE
  8
0-2
  6
CONTINUOUS
 62
    3
 10
1487.8843
 20
1683.8941
 11
1486.4644
 21
1684.3196
  0
LINE
  8
0-2
  6
CONTINUOUS
 62
    3
 10
1486.4644
 20
1684.3196
 11
1485.0001
 21
1684.4629
  0
TEXT
  8
0-d
 10
259.99975
 20
167.50018
 40
25
 41
1
 50
0
  1
図
  0
TEXT
  8
0-d
 10
259.99975
 20
107.50023
 40
25
 41
1
 50
0
  1
番
  0
TEXT
  8
0-d
 10
660.0006
 20
167.50018
 40
25
 41
1
 50
0
  1
承
  0
TEXT
  8
0-d
 10
660.0006
 20
107.50023
 40
25
 41
1
 50
0
  1
認
  0
TEXT
  8
0-d
 10
1025.0003
 20
247.50021
 40
25
 41
1
 50
0
  1
尺
  0
TEXT
  8
0-d
 10
1025.0003
 20
207.50007
 40
25
 41
1
 50
0.0000762
  1
度
  0
TEXT
  8
0-d
 10
860.00028
 20
167.50018
 40
25
 41
1
 50
0
  1
製
  0
TEXT
  8
0-d
 10
860.00028
 20
107.50023
 40
25
 41
1
 50
0
  1
図
  0
TEXT
  8
0-d
 10
1560.0001
 20
247.50021
 40
25
 41
1
 50
0
  1
日
  0
TEXT
  8
0-d
 10
1560.0001
 20
207.50007
 40
25
 41
1
 50
0.0000762
  1
付
  0
TEXT
  8
0-d
 10
1116.4263
 20
173.48254
 40
20
 41
1
 50
0
  1
株式
  0
TEXT
  8
0-d
 10
1116.4263
 20
151.85209
 40
20
 41
1
 50
0.0000152
  1
会社
  0
TEXT
  8
0-d
 10
1242.9183
 20
104.02444
 40
20
 41
1
 50
0
  1
TEL(054)296-7000  FAX(054)296-7001
  0
TEXT
  8
0-d
 10
1089.349
 20
220.10095
 40
40
 41
1
 50
0
  1
１／１０
  0
TEXT
  8
0-8
 10
980.4556
 20
2582.6923
 40
30
 41
1
 50
0
  1
860φ
  0
TEXT
  8
0-8
 10
452.86042
 20
1827.8025
 40
30
 41
1
 50
90
  1
1,030
  0
TEXT
  8
0-8
 10
445.45047
 20
1348.9696
 40
30
 41
1
 50
90
  1
60
  0
TEXT
  8
0-d
 10
1421.3632
 20
1495.3937
 40
30
 41
1
 50
0
  1
網、水平付け
  0
TEXT
  8
0-d
 10
313.45925
 20
150.30237
 40
30
 41
1
 50
0
  1
50-C10c
  0
TEXT
  8
0-8
 10
1002.5791
 20
1206.1427
 40
30
 41
1
 50
0
  1
720x720
  0
TEXT
  8
0-d
 10
264.45945
 20
2794.1893
 40
50
 41
1
 50
0
  1
ＡＳ－５００　自然回転　架台型（網付）断面
  0
TEXT
  8
0-d
 10
268.56046
 20
224.63898
 40
30
 41
1
 50
0
  1
ＡＳ－５００　自然回転　架台型（網付）断面
  0
TEXT
  8
0-d
 10
1179.2248
 20
153.2474
 40
40
 41
1
 50
0
  1
スズキベンチレーター
  0
TEXT
  8
0-d
 10
1240.6792
 20
128.64619
 40
20
 41
1
 50
0
  1
〒421-2114　静岡市葵区安倍口新田１５２番地
  0
POINT
  8
0-8
 62
    2
 10
625.00023
 20
2567.7089
  0
POINT
  8
0-8
 62
    2
 10
1485.0001
 20
2567.7089
  0
POINT
  8
0-8
 62
    2
 10
460.45039
 20
1399.5939
  0
POINT
  8
0-8
 62
    2
 10
460.45039
 20
2429.5939
  0
POINT
  8
0-8
 62
    2
 10
460.45039
 20
1399.5946
  0
POINT
  8
0-8
 62
    2
 10
460.45039
 20
1339.5947
  0
POINT
  8
0-8
 62
    2
 10
695.00022
 20
1189.5939
  0
POINT
  8
0-8
 62
    2
 10
1415.0001
 20
1189.5939
  0
ENDSEC
  0
EOF
