  0
SECTION
  2
HEADER
  9
$EXTMIN
 10
0
 20
0
  9
$EXTMAX
 10
4200
 20
2970
  0
ENDSEC
  0
SECTION
  2
TABLES
  0
TABLE
  2
LTYPE
 70
     9
  0
LTYPE
  2
CONTINUOUS
 70
    64
  3
実線
 72
    65
 73
     0
 40
0.0
  0
LTYPE
  2
DASHED1
 70
    64
  3
--  --  --  --  --  --  --  --  
 72
    65
 73
     2
 40
2.5
 49
1.25
 49
-1.25
  0
LTYPE
  2
DASHED2
 70
    64
  3
----    ----    ----    ----    
 72
    65
 73
     2
 40
5.0
 49
2.5
 49
-2.5
  0
LTYPE
  2
DASHED3
 70
    64
  3
------  ------  ------  ------  
 72
    65
 73
     2
 40
5.0
 49
3.75
 49
-1.25
  0
LTYPE
  2
CENTER1
 70
    64
  3
----- - ----- - ----- - ----- - 
 72
    65
 73
     4
 40
10.0
 49
6.25
 49
-1.25
 49
1.25
 49
-1.25
  0
LTYPE
  2
CENTER2
 70
    64
  3
----------  --  ----------  --  
 72
    65
 73
     4
 40
20.0
 49
12.5
 49
-2.5
 49
2.5
 49
-2.5
  0
LTYPE
  2
PHANTOM1
 70
    64
  3
--- - - --- - - --- - - --- - - 
 72
    65
 73
     6
 40
10.0
 49
3.25
 49
-1.25
 49
1.25
 49
-1.25
 49
1.25
 49
-1.25
  0
LTYPE
  2
PHANTOM2
 70
    64
  3
--------  -  -  --------  -  -  
 72
    65
 73
     6
 40
20.0
 49
10.0
 49
-2.5
 49
1.25
 49
-2.5
 49
1.25
 49
-2.5
  0
LTYPE
  2
DOT
 70
    64
  3
-   -   -   -   -   -   -   -   
 72
    65
 73
     2
 40
2.5
 49
0.625
 49
-1.875
  0
ENDTAB
  0
TABLE
  2
STYLE
 70
    1
  0
STYLE
  2
STANDARD
 70
    64
 40
0.0
 41
1.0
 42
0.0
 50
0.0
 71
     0
  3
TXT
  4
BIGFONT
  0
ENDTAB
  0
TABLE
  2
LAYER
 70
    3
  0
LAYER
  2
0-2
 70
   64
 62
    7
  6
CONTINUOUS
  0
LAYER
  2
0-d
 70
   64
 62
    7
  6
CONTINUOUS
  0
LAYER
  2
ADD_LINE
 70
   64
 62
    7
  6
CONTINUOUS
  0
ENDTAB
  0
ENDSEC
  0
SECTION
  2
ENTITIES
  0
LINE
  8
0-d
  6
CONTINUOUS
 62
    7
 10
250.00004
 20
2757.7013
 11
1850.0001
 21
2757.7013
  0
LINE
  8
0-d
  6
CONTINUOUS
 62
    7
 10
250.00004
 20
2767.7016
 11
1850.0001
 21
2767.7016
  0
LINE
  8
0-d
  6
CONTINUOUS
 62
    7
 10
254.99974
 20
200.00017
 11
1855.0003
 21
200.00017
  0
LINE
  8
0-d
  6
CONTINUOUS
 62
    7
 10
254.99974
 20
100.00008
 11
254.99974
 21
280.00019
  0
LINE
  8
0-d
  6
CONTINUOUS
 62
    7
 10
254.99974
 20
100.00008
 11
1855.0003
 21
100.00008
  0
LINE
  8
0-d
  6
CONTINUOUS
 62
    7
 10
254.99974
 20
280.00019
 11
1855.0003
 21
280.00019
  0
LINE
  8
0-d
  6
CONTINUOUS
 62
    7
 10
1055.0001
 20
280.00019
 11
1055.0001
 21
100.00008
  0
LINE
  8
0-d
  6
CONTINUOUS
 62
    7
 10
655.00033
 20
100.00008
 11
655.00033
 21
200.00017
  0
LINE
  8
0-d
  6
CONTINUOUS
 62
    7
 10
1055.0001
 20
200.00017
 11
1055.0001
 21
280.00019
  0
LINE
  8
0-d
  6
CONTINUOUS
 62
    7
 10
854.99977
 20
100.00008
 11
854.99977
 21
200.00017
  0
LINE
  8
0-d
  6
CONTINUOUS
 62
    7
 10
290.0001
 20
100.00008
 11
290.0001
 21
200.00017
  0
LINE
  8
0-d
  6
CONTINUOUS
 62
    7
 10
690.0002
 20
100.00008
 11
690.0002
 21
200.00017
  0
LINE
  8
0-d
  6
CONTINUOUS
 62
    7
 10
890.00013
 20
100.00008
 11
890.00013
 21
200.00017
  0
LINE
  8
0-d
  6
CONTINUOUS
 62
    7
 10
1020
 20
200.00017
 11
1020
 21
280.00019
  0
LINE
  8
0-d
  6
CONTINUOUS
 62
    7
 10
1555.0003
 20
200.00017
 11
1555.0003
 21
280.00019
  0
LINE
  8
0-d
  6
CONTINUOUS
 62
    7
 10
1590.0002
 20
200.00017
 11
1590.0002
 21
280.00019
  0
LINE
  8
0-d
  6
CONTINUOUS
 62
    7
 10
1855.0003
 20
280.00019
 11
1855.0003
 21
100.00008
  0
LINE
  8
0-2
  6
CONTINUOUS
 62
    7
 10
624.90002
 20
2567.7086
 11
1485.0998
 21
2567.7086
  0
LINE
  8
0-2
  6
CONTINUOUS
 62
    7
 10
1485.0998
 20
2343.9485
 11
1485.0998
 21
2567.7086
  0
LINE
  8
0-2
  6
CONTINUOUS
 62
    7
 10
624.90002
 20
2567.7086
 11
624.90002
 21
2343.9485
  0
LINE
  8
0-2
  6
CONTINUOUS
 62
    3
 10
624.9015
 20
1778.7847
 11
1485.1025
 21
1778.7847
  0
LINE
  8
0-2
  6
CONTINUOUS
 62
    3
 10
624.9015
 20
1797.6475
 11
1485.1025
 21
1797.6475
  0
LINE
  8
0-2
  6
CONTINUOUS
 62
    3
 10
624.90027
 20
1684.4626
 11
1485.1013
 21
1684.4626
  0
LINE
  8
0-2
  6
CONTINUOUS
 62
    3
 10
624.9015
 20
1778.7847
 11
624.90027
 21
1684.4622
  0
LINE
  8
0-2
  6
CONTINUOUS
 62
    3
 10
797.50106
 20
1571.2792
 11
797.49982
 21
1475.0505
  0
LINE
  8
0-2
  6
CONTINUOUS
 62
    3
 10
1312.5009
 20
1571.2792
 11
1312.4999
 21
1475.0505
  0
LINE
  8
0-2
  6
CONTINUOUS
 62
    3
 10
1485.1011
 20
1778.7847
 11
1485.0998
 21
1684.4622
  0
LINE
  8
0-2
  6
CONTINUOUS
 62
    3
 10
624.90027
 20
1665.5993
 11
1485.1013
 21
1665.5993
  0
LINE
  8
0-2
  6
CONTINUOUS
 62
    3
 10
624.90002
 20
2174.9286
 11
1485.1011
 21
2174.9286
  0
LINE
  8
0-2
  6
CONTINUOUS
 62
    3
 10
624.90002
 20
2193.7924
 11
1485.1011
 21
2193.7924
  0
LINE
  8
0-2
  6
CONTINUOUS
 62
    3
 10
624.90002
 20
2080.6079
 11
1485.1011
 21
2080.6079
  0
LINE
  8
0-2
  6
CONTINUOUS
 62
    3
 10
624.90002
 20
2174.9286
 11
624.90002
 21
2080.6077
  0
LINE
  8
0-2
  6
CONTINUOUS
 62
    3
 10
1485.0998
 20
2174.9286
 11
1485.0998
 21
2080.6077
  0
LINE
  8
0-2
  6
CONTINUOUS
 62
    3
 10
624.90002
 20
2061.744
 11
1485.1011
 21
2061.744
  0
LINE
  8
0-2
  6
CONTINUOUS
 62
    7
 10
635.81954
 20
1399.5939
 11
460.45052
 21
1399.5939
  0
LINE
  8
0-2
  6
CONTINUOUS
 62
    3
 10
624.90027
 20
1665.5993
 11
709.23345
 21
1571.2792
  0
LINE
  8
0-2
  6
CONTINUOUS
 62
    3
 10
1055.0001
 20
2429.5939
 11
1274.1049
 21
2288.1127
  0
LINE
  8
0-2
  6
CONTINUOUS
 62
    3
 10
1485.0998
 20
2193.7924
 11
1400.7669
 21
2288.1127
  0
LINE
  8
0-2
  6
CONTINUOUS
 62
    3
 10
624.90002
 20
2193.7924
 11
709.23345
 21
2288.1127
  0
LINE
  8
0-2
  6
CONTINUOUS
 62
    3
 10
980.07219
 20
2280.3169
 11
980.76651
 21
2280.5242
  0
LINE
  8
0-2
  6
CONTINUOUS
 62
    3
 10
980.76651
 20
2280.5242
 11
981.41851
 21
2280.8071
  0
LINE
  8
0-2
  6
CONTINUOUS
 62
    3
 10
981.41851
 20
2280.8071
 11
982.02894
 21
2281.1589
  0
LINE
  8
0-2
  6
CONTINUOUS
 62
    3
 10
982.02894
 20
2281.1589
 11
982.59855
 21
2281.5754
  0
LINE
  8
0-2
  6
CONTINUOUS
 62
    3
 10
982.59855
 20
2281.5754
 11
983.12832
 21
2282.0519
  0
LINE
  8
0-2
  6
CONTINUOUS
 62
    3
 10
983.12832
 20
2282.0519
 11
983.6185
 21
2282.5812
  0
LINE
  8
0-2
  6
CONTINUOUS
 62
    3
 10
983.6185
 20
2282.5812
 11
984.07057
 21
2283.158
  0
LINE
  8
0-2
  6
CONTINUOUS
 62
    3
 10
984.07057
 20
2283.158
 11
984.48503
 21
2283.7793
  0
LINE
  8
0-2
  6
CONTINUOUS
 62
    3
 10
984.48503
 20
2283.7793
 11
984.86213
 21
2284.4378
  0
LINE
  8
0-2
  6
CONTINUOUS
 62
    3
 10
984.86213
 20
2284.4378
 11
985.2036
 21
2285.1289
  0
LINE
  8
0-2
  6
CONTINUOUS
 62
    3
 10
985.2036
 20
2285.1289
 11
985.50943
 21
2285.8474
  0
LINE
  8
0-2
  6
CONTINUOUS
 62
    3
 10
985.50943
 20
2285.8474
 11
985.78063
 21
2286.5875
  0
LINE
  8
0-2
  6
CONTINUOUS
 62
    3
 10
985.78063
 20
2286.5875
 11
986.01767
 21
2287.3447
  0
LINE
  8
0-2
  6
CONTINUOUS
 62
    3
 10
986.01767
 20
2287.3447
 11
986.22206
 21
2288.1127
  0
LINE
  8
0-2
  6
CONTINUOUS
 62
    3
 10
976.25964
 20
2280.2753
 11
975.45694
 21
2280.5636
  0
LINE
  8
0-2
  6
CONTINUOUS
 62
    3
 10
975.45694
 20
2280.5636
 11
974.70398
 21
2280.9043
  0
LINE
  8
0-2
  6
CONTINUOUS
 62
    3
 10
974.70398
 20
2280.9043
 11
973.99952
 21
2281.2948
  0
LINE
  8
0-2
  6
CONTINUOUS
 62
    3
 10
973.99952
 20
2281.2948
 11
973.3443
 21
2281.7325
  0
LINE
  8
0-2
  6
CONTINUOUS
 62
    3
 10
973.3443
 20
2281.7325
 11
972.73659
 21
2282.2138
  0
LINE
  8
0-2
  6
CONTINUOUS
 62
    3
 10
972.73659
 20
2282.2138
 11
972.17614
 21
2282.7378
  0
LINE
  8
0-2
  6
CONTINUOUS
 62
    3
 10
972.17614
 20
2282.7378
 11
971.66295
 21
2283.3005
  0
LINE
  8
0-2
  6
CONTINUOUS
 62
    3
 10
971.66295
 20
2283.3005
 11
971.19603
 21
2283.9003
  0
LINE
  8
0-2
  6
CONTINUOUS
 62
    3
 10
971.19603
 20
2283.9003
 11
970.77489
 21
2284.5328
  0
LINE
  8
0-2
  6
CONTINUOUS
 62
    3
 10
970.77489
 20
2284.5328
 11
970.39902
 21
2285.1969
  0
LINE
  8
0-2
  6
CONTINUOUS
 62
    3
 10
970.39902
 20
2285.1969
 11
970.0682
 21
2285.8897
  0
LINE
  8
0-2
  6
CONTINUOUS
 62
    3
 10
970.0682
 20
2285.8897
 11
969.78117
 21
2286.6083
  0
LINE
  8
0-2
  6
CONTINUOUS
 62
    3
 10
969.78117
 20
2286.6083
 11
969.53818
 21
2287.3506
  0
LINE
  8
0-2
  6
CONTINUOUS
 62
    3
 10
969.53818
 20
2287.3506
 11
969.33825
 21
2288.1127
  0
LINE
  8
0-2
  6
CONTINUOUS
 62
    3
 10
936.2308
 20
2288.1127
 11
935.45334
 21
2286.8466
  0
LINE
  8
0-2
  6
CONTINUOUS
 62
    3
 10
935.45334
 20
2286.8466
 11
934.66698
 21
2285.7205
  0
LINE
  8
0-2
  6
CONTINUOUS
 62
    3
 10
934.66698
 20
2285.7205
 11
933.87443
 21
2284.7263
  0
LINE
  8
0-2
  6
CONTINUOUS
 62
    3
 10
933.87443
 20
2284.7263
 11
933.07916
 21
2283.8563
  0
LINE
  8
0-2
  6
CONTINUOUS
 62
    3
 10
933.07916
 20
2283.8563
 11
932.28413
 21
2283.1023
  0
LINE
  8
0-2
  6
CONTINUOUS
 62
    3
 10
932.28413
 20
2283.1023
 11
931.49233
 21
2282.4577
  0
LINE
  8
0-2
  6
CONTINUOUS
 62
    3
 10
931.49233
 20
2282.4577
 11
930.70745
 21
2281.9139
  0
LINE
  8
0-2
  6
CONTINUOUS
 62
    3
 10
930.70745
 20
2281.9139
 11
929.93148
 21
2281.463
  0
LINE
  8
0-2
  6
CONTINUOUS
 62
    3
 10
929.93148
 20
2281.463
 11
929.16837
 21
2281.0968
  0
LINE
  8
0-2
  6
CONTINUOUS
 62
    3
 10
929.16837
 20
2281.0968
 11
928.42086
 21
2280.8093
  0
LINE
  8
0-2
  6
CONTINUOUS
 62
    3
 10
928.42086
 20
2280.8093
 11
927.69215
 21
2280.5908
  0
LINE
  8
0-2
  6
CONTINUOUS
 62
    3
 10
927.69215
 20
2280.5908
 11
926.98546
 21
2280.4337
  0
LINE
  8
0-2
  6
CONTINUOUS
 62
    3
 10
926.98546
 20
2280.4337
 11
926.30376
 21
2280.3312
  0
LINE
  8
0-2
  6
CONTINUOUS
 62
    3
 10
926.30376
 20
2280.3312
 11
925.65003
 21
2280.2753
  0
LINE
  8
0-2
  6
CONTINUOUS
 62
    3
 10
920.08659
 20
2288.1127
 11
920.10985
 21
2287.2021
  0
LINE
  8
0-2
  6
CONTINUOUS
 62
    3
 10
920.10985
 20
2287.2021
 11
920.18037
 21
2286.3601
  0
LINE
  8
0-2
  6
CONTINUOUS
 62
    3
 10
920.18037
 20
2286.3601
 11
920.30013
 21
2285.5839
  0
LINE
  8
0-2
  6
CONTINUOUS
 62
    3
 10
920.30013
 20
2285.5839
 11
920.47235
 21
2284.869
  0
LINE
  8
0-2
  6
CONTINUOUS
 62
    3
 10
920.47235
 20
2284.869
 11
920.69974
 21
2284.2121
  0
LINE
  8
0-2
  6
CONTINUOUS
 62
    3
 10
920.69974
 20
2284.2121
 11
920.98455
 21
2283.6098
  0
LINE
  8
0-2
  6
CONTINUOUS
 62
    3
 10
920.98455
 20
2283.6098
 11
921.32948
 21
2283.057
  0
LINE
  8
0-2
  6
CONTINUOUS
 62
    3
 10
921.32948
 20
2283.057
 11
921.73701
 21
2282.5508
  0
LINE
  8
0-2
  6
CONTINUOUS
 62
    3
 10
921.73701
 20
2282.5508
 11
922.21036
 21
2282.0873
  0
LINE
  8
0-2
  6
CONTINUOUS
 62
    3
 10
922.21036
 20
2282.0873
 11
922.75152
 21
2281.6622
  0
LINE
  8
0-2
  6
CONTINUOUS
 62
    3
 10
922.75152
 20
2281.6622
 11
923.36343
 21
2281.2725
  0
LINE
  8
0-2
  6
CONTINUOUS
 62
    3
 10
923.36343
 20
2281.2725
 11
924.04884
 21
2280.9137
  0
LINE
  8
0-2
  6
CONTINUOUS
 62
    3
 10
924.04884
 20
2280.9137
 11
924.81046
 21
2280.5821
  0
LINE
  8
0-2
  6
CONTINUOUS
 62
    3
 10
924.81046
 20
2280.5821
 11
925.65003
 21
2280.2753
  0
LINE
  8
0-2
  6
CONTINUOUS
 62
    3
 10
873.75521
 20
2288.1127
 11
874.15161
 21
2287.0433
  0
LINE
  8
0-2
  6
CONTINUOUS
 62
    3
 10
874.15161
 20
2287.0433
 11
874.56459
 21
2286.0723
  0
LINE
  8
0-2
  6
CONTINUOUS
 62
    3
 10
874.56459
 20
2286.0723
 11
874.99365
 21
2285.1969
  0
LINE
  8
0-2
  6
CONTINUOUS
 62
    3
 10
874.99365
 20
2285.1969
 11
875.4383
 21
2284.4105
  0
LINE
  8
0-2
  6
CONTINUOUS
 62
    3
 10
875.4383
 20
2284.4105
 11
875.89829
 21
2283.7103
  0
LINE
  8
0-2
  6
CONTINUOUS
 62
    3
 10
875.89829
 20
2283.7103
 11
876.37312
 21
2283.0897
  0
LINE
  8
0-2
  6
CONTINUOUS
 62
    3
 10
876.37312
 20
2283.0897
 11
876.86207
 21
2282.5446
  0
LINE
  8
0-2
  6
CONTINUOUS
 62
    3
 10
876.86207
 20
2282.5446
 11
877.36536
 21
2282.0702
  0
LINE
  8
0-2
  6
CONTINUOUS
 62
    3
 10
877.36536
 20
2282.0702
 11
877.88177
 21
2281.6615
  0
LINE
  8
0-2
  6
CONTINUOUS
 62
    3
 10
877.88177
 20
2281.6615
 11
878.41178
 21
2281.3148
  0
LINE
  8
0-2
  6
CONTINUOUS
 62
    3
 10
878.41178
 20
2281.3148
 11
878.95442
 21
2281.0238
  0
LINE
  8
0-2
  6
CONTINUOUS
 62
    3
 10
878.95442
 20
2281.0238
 11
879.50942
 21
2280.7848
  0
LINE
  8
0-2
  6
CONTINUOUS
 62
    3
 10
879.50942
 20
2280.7848
 11
880.07631
 21
2280.5925
  0
LINE
  8
0-2
  6
CONTINUOUS
 62
    3
 10
880.07631
 20
2280.5925
 11
880.65482
 21
2280.4421
  0
LINE
  8
0-2
  6
CONTINUOUS
 62
    3
 10
881.92716
 20
2280.4421
 11
882.53042
 21
2280.5698
  0
LINE
  8
0-2
  6
CONTINUOUS
 62
    3
 10
882.53042
 20
2280.5698
 11
883.12873
 21
2280.7744
  0
LINE
  8
0-2
  6
CONTINUOUS
 62
    3
 10
883.12873
 20
2280.7744
 11
883.72209
 21
2281.0535
  0
LINE
  8
0-2
  6
CONTINUOUS
 62
    3
 10
883.72209
 20
2281.0535
 11
884.31099
 21
2281.4086
  0
LINE
  8
0-2
  6
CONTINUOUS
 62
    3
 10
884.31099
 20
2281.4086
 11
884.8947
 21
2281.8396
  0
LINE
  8
0-2
  6
CONTINUOUS
 62
    3
 10
884.8947
 20
2281.8396
 11
885.47347
 21
2282.3459
  0
LINE
  8
0-2
  6
CONTINUOUS
 62
    3
 10
885.47347
 20
2282.3459
 11
886.04753
 21
2282.9284
  0
LINE
  8
0-2
  6
CONTINUOUS
 62
    3
 10
886.04753
 20
2282.9284
 11
886.61664
 21
2283.5863
  0
LINE
  8
0-2
  6
CONTINUOUS
 62
    3
 10
886.61664
 20
2283.5863
 11
887.1808
 21
2284.319
  0
LINE
  8
0-2
  6
CONTINUOUS
 62
    3
 10
831.34699
 20
2288.1127
 11
831.4618
 21
2287.2972
  0
LINE
  8
0-2
  6
CONTINUOUS
 62
    3
 10
831.4618
 20
2287.2972
 11
831.62462
 21
2286.5383
  0
LINE
  8
0-2
  6
CONTINUOUS
 62
    3
 10
831.62462
 20
2286.5383
 11
831.83197
 21
2285.8331
  0
LINE
  8
0-2
  6
CONTINUOUS
 62
    3
 10
831.83197
 20
2285.8331
 11
832.07966
 21
2285.1801
  0
LINE
  8
0-2
  6
CONTINUOUS
 62
    3
 10
832.07966
 20
2285.1801
 11
832.36397
 21
2284.5758
  0
LINE
  8
0-2
  6
CONTINUOUS
 62
    3
 10
832.36397
 20
2284.5758
 11
832.68218
 21
2284.0198
  0
LINE
  8
0-2
  6
CONTINUOUS
 62
    3
 10
832.68218
 20
2284.0198
 11
833.03082
 21
2283.5089
  0
LINE
  8
0-2
  6
CONTINUOUS
 62
    3
 10
833.03082
 20
2283.5089
 11
833.40668
 21
2283.0422
  0
LINE
  8
0-2
  6
CONTINUOUS
 62
    3
 10
833.40668
 20
2283.0422
 11
833.80704
 21
2282.6176
  0
LINE
  8
0-2
  6
CONTINUOUS
 62
    3
 10
833.80704
 20
2282.6176
 11
834.22942
 21
2282.2338
  0
LINE
  8
0-2
  6
CONTINUOUS
 62
    3
 10
834.22942
 20
2282.2338
 11
834.6711
 21
2281.8894
  0
LINE
  8
0-2
  6
CONTINUOUS
 62
    3
 10
834.6711
 20
2281.8894
 11
835.13035
 21
2281.5843
  0
LINE
  8
0-2
  6
CONTINUOUS
 62
    3
 10
835.13035
 20
2281.5843
 11
835.60444
 21
2281.3148
  0
LINE
  8
0-2
  6
CONTINUOUS
 62
    3
 10
835.60444
 20
2281.3148
 11
836.0919
 21
2281.0825
  0
LINE
  8
0-2
  6
CONTINUOUS
 62
    3
 10
836.0919
 20
2281.0825
 11
836.59074
 21
2280.8855
  0
LINE
  8
0-2
  6
CONTINUOUS
 62
    3
 10
836.59074
 20
2280.8855
 11
837.09997
 21
2280.7232
  0
LINE
  8
0-2
  6
CONTINUOUS
 62
    3
 10
837.09997
 20
2280.7232
 11
837.61811
 21
2280.5955
  0
LINE
  8
0-2
  6
CONTINUOUS
 62
    3
 10
837.61811
 20
2280.5955
 11
838.14367
 21
2280.5025
  0
LINE
  8
0-2
  6
CONTINUOUS
 62
    3
 10
838.14367
 20
2280.5025
 11
838.67616
 21
2280.4421
  0
LINE
  8
0-2
  6
CONTINUOUS
 62
    3
 10
838.81077
 20
2280.4493
 11
839.11042
 21
2280.4824
  0
LINE
  8
0-2
  6
CONTINUOUS
 62
    3
 10
839.11042
 20
2280.4824
 11
839.40512
 21
2280.5297
  0
LINE
  8
0-2
  6
CONTINUOUS
 62
    3
 10
839.40512
 20
2280.5297
 11
839.69462
 21
2280.5925
  0
LINE
  8
0-2
  6
CONTINUOUS
 62
    3
 10
839.69462
 20
2280.5925
 11
839.97893
 21
2280.669
  0
LINE
  8
0-2
  6
CONTINUOUS
 62
    3
 10
839.97893
 20
2280.669
 11
840.25804
 21
2280.7596
  0
LINE
  8
0-2
  6
CONTINUOUS
 62
    3
 10
840.25804
 20
2280.7596
 11
840.53221
 21
2280.865
  0
LINE
  8
0-2
  6
CONTINUOUS
 62
    3
 10
840.53221
 20
2280.865
 11
840.80093
 21
2280.9852
  0
LINE
  8
0-2
  6
CONTINUOUS
 62
    3
 10
840.80093
 20
2280.9852
 11
841.06445
 21
2281.1196
  0
LINE
  8
0-2
  6
CONTINUOUS
 62
    3
 10
841.06445
 20
2281.1196
 11
841.32302
 21
2281.268
  0
LINE
  8
0-2
  6
CONTINUOUS
 62
    3
 10
717.63428
 20
2288.1127
 11
717.73697
 21
2287.2553
  0
LINE
  8
0-2
  6
CONTINUOUS
 62
    3
 10
717.73697
 20
2287.2553
 11
717.84535
 21
2286.471
  0
LINE
  8
0-2
  6
CONTINUOUS
 62
    3
 10
717.84535
 20
2286.471
 11
717.96016
 21
2285.7613
  0
LINE
  8
0-2
  6
CONTINUOUS
 62
    3
 10
717.96016
 20
2285.7613
 11
718.08067
 21
2285.1251
  0
LINE
  8
0-2
  6
CONTINUOUS
 62
    3
 10
718.08067
 20
2285.1251
 11
718.20711
 21
2284.5639
  0
LINE
  8
0-2
  6
CONTINUOUS
 62
    3
 10
718.20711
 20
2284.5639
 11
718.33974
 21
2284.076
  0
LINE
  8
0-2
  6
CONTINUOUS
 62
    3
 10
718.33974
 20
2284.076
 11
718.47805
 21
2283.662
  0
LINE
  8
0-2
  6
CONTINUOUS
 62
    3
 10
718.47805
 20
2283.662
 11
718.62231
 21
2283.3228
  0
LINE
  8
0-2
  6
CONTINUOUS
 62
    3
 10
718.62231
 20
2283.3228
 11
718.77275
 21
2283.057
  0
LINE
  8
0-2
  6
CONTINUOUS
 62
    3
 10
736.30189
 20
2288.1127
 11
736.3588
 21
2287.4338
  0
LINE
  8
0-2
  6
CONTINUOUS
 62
    3
 10
736.3588
 20
2287.4338
 11
736.45283
 21
2286.7914
  0
LINE
  8
0-2
  6
CONTINUOUS
 62
    3
 10
736.45283
 20
2286.7914
 11
736.57952
 21
2286.1859
  0
LINE
  8
0-2
  6
CONTINUOUS
 62
    3
 10
736.57952
 20
2286.1859
 11
736.73565
 21
2285.6178
  0
LINE
  8
0-2
  6
CONTINUOUS
 62
    3
 10
736.73565
 20
2285.6178
 11
736.91801
 21
2285.087
  0
LINE
  8
0-2
  6
CONTINUOUS
 62
    3
 10
736.91801
 20
2285.087
 11
737.1224
 21
2284.5946
  0
LINE
  8
0-2
  6
CONTINUOUS
 62
    3
 10
737.1224
 20
2284.5946
 11
737.34559
 21
2284.1391
  0
LINE
  8
0-2
  6
CONTINUOUS
 62
    3
 10
737.34559
 20
2284.1391
 11
737.58338
 21
2283.7222
  0
LINE
  8
0-2
  6
CONTINUOUS
 62
    3
 10
737.58338
 20
2283.7222
 11
737.83255
 21
2283.3428
  0
LINE
  8
0-2
  6
CONTINUOUS
 62
    3
 10
737.83255
 20
2283.3428
 11
738.08939
 21
2283.0026
  0
LINE
  8
0-2
  6
CONTINUOUS
 62
    3
 10
738.08939
 20
2283.0026
 11
738.35019
 21
2282.7007
  0
LINE
  8
0-2
  6
CONTINUOUS
 62
    3
 10
738.35019
 20
2282.7007
 11
738.61149
 21
2282.4374
  0
LINE
  8
0-2
  6
CONTINUOUS
 62
    3
 10
738.61149
 20
2282.4374
 11
738.86932
 21
2282.2138
  0
LINE
  8
0-2
  6
CONTINUOUS
 62
    3
 10
738.86932
 20
2282.2138
 11
739.12023
 21
2282.0287
  0
LINE
  8
0-2
  6
CONTINUOUS
 62
    3
 10
761.86861
 20
2288.1127
 11
762.0381
 21
2287.3566
  0
LINE
  8
0-2
  6
CONTINUOUS
 62
    3
 10
762.0381
 20
2287.3566
 11
762.24472
 21
2286.6491
  0
LINE
  8
0-2
  6
CONTINUOUS
 62
    3
 10
762.24472
 20
2286.6491
 11
762.48647
 21
2285.9885
  0
LINE
  8
0-2
  6
CONTINUOUS
 62
    3
 10
762.48647
 20
2285.9885
 11
762.76211
 21
2285.376
  0
LINE
  8
0-2
  6
CONTINUOUS
 62
    3
 10
762.76211
 20
2285.376
 11
763.06993
 21
2284.8097
  0
LINE
  8
0-2
  6
CONTINUOUS
 62
    3
 10
763.06993
 20
2284.8097
 11
763.40867
 21
2284.2905
  0
LINE
  8
0-2
  6
CONTINUOUS
 62
    3
 10
763.40867
 20
2284.2905
 11
763.77711
 21
2283.8179
  0
LINE
  8
0-2
  6
CONTINUOUS
 62
    3
 10
763.77711
 20
2283.8179
 11
764.17326
 21
2283.3903
  0
LINE
  8
0-2
  6
CONTINUOUS
 62
    3
 10
764.17326
 20
2283.3903
 11
764.59614
 21
2283.0095
  0
LINE
  8
0-2
  6
CONTINUOUS
 62
    3
 10
764.59614
 20
2283.0095
 11
765.04376
 21
2282.6725
  0
LINE
  8
0-2
  6
CONTINUOUS
 62
    3
 10
765.04376
 20
2282.6725
 11
765.51513
 21
2282.3808
  0
LINE
  8
0-2
  6
CONTINUOUS
 62
    3
 10
765.51513
 20
2282.3808
 11
766.00852
 21
2282.1336
  0
LINE
  8
0-2
  6
CONTINUOUS
 62
    3
 10
766.00852
 20
2282.1336
 11
766.52196
 21
2281.9314
  0
LINE
  8
0-2
  6
CONTINUOUS
 62
    3
 10
766.52196
 20
2281.9314
 11
767.05519
 21
2281.7718
  0
LINE
  8
0-2
  6
CONTINUOUS
 62
    3
 10
793.76633
 20
2288.1127
 11
794.02267
 21
2287.3202
  0
LINE
  8
0-2
  6
CONTINUOUS
 62
    3
 10
794.02267
 20
2287.3202
 11
794.32306
 21
2286.586
  0
LINE
  8
0-2
  6
CONTINUOUS
 62
    3
 10
794.32306
 20
2286.586
 11
794.66354
 21
2285.9095
  0
LINE
  8
0-2
  6
CONTINUOUS
 62
    3
 10
794.66354
 20
2285.9095
 11
795.04064
 21
2285.2912
  0
LINE
  8
0-2
  6
CONTINUOUS
 62
    3
 10
795.04064
 20
2285.2912
 11
795.45114
 21
2284.7312
  0
LINE
  8
0-2
  6
CONTINUOUS
 62
    3
 10
795.45114
 20
2284.7312
 11
795.89035
 21
2284.2299
  0
LINE
  8
0-2
  6
CONTINUOUS
 62
    3
 10
795.89035
 20
2284.2299
 11
796.35504
 21
2283.7853
  0
LINE
  8
0-2
  6
CONTINUOUS
 62
    3
 10
796.35504
 20
2283.7853
 11
796.84077
 21
2283.3985
  0
LINE
  8
0-2
  6
CONTINUOUS
 62
    3
 10
796.84077
 20
2283.3985
 11
797.34406
 21
2283.0672
  0
LINE
  8
0-2
  6
CONTINUOUS
 62
    3
 10
797.34406
 20
2283.0672
 11
797.85997
 21
2282.7925
  0
LINE
  8
0-2
  6
CONTINUOUS
 62
    3
 10
797.85997
 20
2282.7925
 11
798.38479
 21
2282.5716
  0
LINE
  8
0-2
  6
CONTINUOUS
 62
    3
 10
798.38479
 20
2282.5716
 11
798.91382
 21
2282.4028
  0
LINE
  8
0-2
  6
CONTINUOUS
 62
    3
 10
798.91382
 20
2282.4028
 11
799.44259
 21
2282.2858
  0
LINE
  8
0-2
  6
CONTINUOUS
 62
    3
 10
799.44259
 20
2282.2858
 11
799.96667
 21
2282.219
  0
LINE
  8
0-2
  6
CONTINUOUS
 62
    3
 10
799.96667
 20
2282.219
 11
800.4811
 21
2282.1982
  0
LINE
  8
0-2
  6
CONTINUOUS
 62
    3
 10
800.4811
 20
2282.1982
 11
800.98142
 21
2282.2234
  0
LINE
  8
0-2
  6
CONTINUOUS
 62
    3
 10
800.98142
 20
2282.2234
 11
801.46245
 21
2282.2907
  0
LINE
  8
0-2
  6
CONTINUOUS
 62
    3
 10
801.46245
 20
2282.2907
 11
801.91947
 21
2282.3979
  0
LINE
  8
0-2
  6
CONTINUOUS
 62
    3
 10
801.91947
 20
2282.3979
 11
802.34729
 21
2282.5426
  0
LINE
  8
0-2
  6
CONTINUOUS
 62
    3
 10
717.63428
 20
2288.1127
 11
709.23345
 21
2288.1127
  0
LINE
  8
0-2
  6
CONTINUOUS
 62
    3
 10
635.3499
 20
2193.7924
 11
717.63428
 21
2288.1127
  0
LINE
  8
0-2
  6
CONTINUOUS
 62
    3
 10
723.06237
 20
2288.1127
 11
642.10179
 21
2193.7924
  0
LINE
  8
0-2
  6
CONTINUOUS
 62
    3
 10
658.57089
 20
2193.7924
 11
736.30189
 21
2288.1127
  0
LINE
  8
0-2
  6
CONTINUOUS
 62
    3
 10
736.30189
 20
2288.1127
 11
723.06237
 21
2288.1127
  0
LINE
  8
0-2
  6
CONTINUOUS
 62
    3
 10
744.08214
 20
2288.1127
 11
668.24826
 21
2193.7924
  0
LINE
  8
0-2
  6
CONTINUOUS
 62
    3
 10
761.86861
 20
2288.1127
 11
744.08214
 21
2288.1127
  0
LINE
  8
0-2
  6
CONTINUOUS
 62
    3
 10
690.3731
 20
2193.7924
 11
761.86861
 21
2288.1127
  0
LINE
  8
0-2
  6
CONTINUOUS
 62
    3
 10
771.83227
 20
2288.1127
 11
702.76686
 21
2193.7924
  0
LINE
  8
0-2
  6
CONTINUOUS
 62
    3
 10
793.78043
 20
2288.1127
 11
771.83227
 21
2288.1127
  0
LINE
  8
0-2
  6
CONTINUOUS
 62
    3
 10
730.06838
 20
2193.7924
 11
793.78043
 21
2288.1127
  0
LINE
  8
0-2
  6
CONTINUOUS
 62
    3
 10
805.71223
 20
2288.1127
 11
744.91032
 21
2193.7924
  0
LINE
  8
0-2
  6
CONTINUOUS
 62
    3
 10
831.34699
 20
2288.1127
 11
805.71223
 21
2288.1127
  0
LINE
  8
0-2
  6
CONTINUOUS
 62
    3
 10
776.79764
 20
2193.7924
 11
831.34699
 21
2288.1127
  0
LINE
  8
0-2
  6
CONTINUOUS
 62
    3
 10
844.9886
 20
2288.1127
 11
793.76633
 21
2193.7924
  0
LINE
  8
0-2
  6
CONTINUOUS
 62
    3
 10
873.75521
 20
2288.1127
 11
844.9886
 21
2288.1127
  0
LINE
  8
0-2
  6
CONTINUOUS
 62
    3
 10
829.54909
 20
2193.7924
 11
873.75521
 21
2288.1127
  0
LINE
  8
0-2
  6
CONTINUOUS
 62
    3
 10
888.81094
 20
2288.1127
 11
848.27683
 21
2193.7924
  0
LINE
  8
0-2
  6
CONTINUOUS
 62
    3
 10
920.08659
 20
2288.1127
 11
888.81094
 21
2288.1127
  0
LINE
  8
0-2
  6
CONTINUOUS
 62
    3
 10
887.1808
 20
2193.7924
 11
920.08659
 21
2288.1127
  0
LINE
  8
0-2
  6
CONTINUOUS
 62
    3
 10
907.26252
 20
2193.7924
 11
936.2308
 21
2288.1127
  0
LINE
  8
0-2
  6
CONTINUOUS
 62
    3
 10
969.33825
 20
2288.1127
 11
936.2308
 21
2288.1127
  0
LINE
  8
0-2
  6
CONTINUOUS
 62
    3
 10
969.33825
 20
2288.1127
 11
948.44517
 21
2193.7924
  0
LINE
  8
0-2
  6
CONTINUOUS
 62
    3
 10
969.44663
 20
2193.7924
 11
986.22206
 21
2288.1127
  0
LINE
  8
0-2
  6
CONTINUOUS
 62
    3
 10
1020.4447
 20
2288.1127
 11
986.22206
 21
2288.1127
  0
LINE
  8
0-2
  6
CONTINUOUS
 62
    3
 10
1020.4447
 20
2288.1127
 11
1012.0166
 21
2193.7924
  0
LINE
  8
0-2
  6
CONTINUOUS
 62
    3
 10
1037.7014
 20
2288.1127
 11
1033.4825
 21
2193.7924
  0
LINE
  8
0-2
  6
CONTINUOUS
 62
    3
 10
1055.0001
 20
2288.1127
 11
1037.7014
 21
2288.1127
  0
LINE
  8
0-2
  6
CONTINUOUS
 62
    3
 10
1485.0998
 20
2193.7924
 11
1400.7669
 21
2288.1127
  0
LINE
  8
0-2
  6
CONTINUOUS
 62
    3
 10
1129.9281
 20
2280.3169
 11
1129.2338
 21
2280.5242
  0
LINE
  8
0-2
  6
CONTINUOUS
 62
    3
 10
1129.2338
 20
2280.5242
 11
1128.5818
 21
2280.8071
  0
LINE
  8
0-2
  6
CONTINUOUS
 62
    3
 10
1128.5818
 20
2280.8071
 11
1127.9714
 21
2281.1589
  0
LINE
  8
0-2
  6
CONTINUOUS
 62
    3
 10
1127.9714
 20
2281.1589
 11
1127.4015
 21
2281.5754
  0
LINE
  8
0-2
  6
CONTINUOUS
 62
    3
 10
1127.4015
 20
2281.5754
 11
1126.8723
 21
2282.0519
  0
LINE
  8
0-2
  6
CONTINUOUS
 62
    3
 10
1126.8723
 20
2282.0519
 11
1126.3816
 21
2282.5812
  0
LINE
  8
0-2
  6
CONTINUOUS
 62
    3
 10
1126.3816
 20
2282.5812
 11
1125.93
 21
2283.158
  0
LINE
  8
0-2
  6
CONTINUOUS
 62
    3
 10
1125.93
 20
2283.158
 11
1125.5153
 21
2283.7793
  0
LINE
  8
0-2
  6
CONTINUOUS
 62
    3
 10
1125.5153
 20
2283.7793
 11
1125.1377
 21
2284.4378
  0
LINE
  8
0-2
  6
CONTINUOUS
 62
    3
 10
1125.1377
 20
2284.4378
 11
1124.7967
 21
2285.1289
  0
LINE
  8
0-2
  6
CONTINUOUS
 62
    3
 10
1124.7967
 20
2285.1289
 11
1124.4914
 21
2285.8474
  0
LINE
  8
0-2
  6
CONTINUOUS
 62
    3
 10
1124.4914
 20
2285.8474
 11
1124.22
 21
2286.5875
  0
LINE
  8
0-2
  6
CONTINUOUS
 62
    3
 10
1124.22
 20
2286.5875
 11
1123.9824
 21
2287.3447
  0
LINE
  8
0-2
  6
CONTINUOUS
 62
    3
 10
1123.9824
 20
2287.3447
 11
1123.7783
 21
2288.1127
  0
LINE
  8
0-2
  6
CONTINUOUS
 62
    3
 10
1133.7407
 20
2280.2753
 11
1134.5434
 21
2280.5636
  0
LINE
  8
0-2
  6
CONTINUOUS
 62
    3
 10
1134.5434
 20
2280.5636
 11
1135.2966
 21
2280.9043
  0
LINE
  8
0-2
  6
CONTINUOUS
 62
    3
 10
1135.2966
 20
2280.9043
 11
1136.0008
 21
2281.2948
  0
LINE
  8
0-2
  6
CONTINUOUS
 62
    3
 10
1136.0008
 20
2281.2948
 11
1136.656
 21
2281.7325
  0
LINE
  8
0-2
  6
CONTINUOUS
 62
    3
 10
1136.656
 20
2281.7325
 11
1137.2637
 21
2282.2138
  0
LINE
  8
0-2
  6
CONTINUOUS
 62
    3
 10
1137.2637
 20
2282.2138
 11
1137.8239
 21
2282.7378
  0
LINE
  8
0-2
  6
CONTINUOUS
 62
    3
 10
1137.8239
 20
2282.7378
 11
1138.3374
 21
2283.3005
  0
LINE
  8
0-2
  6
CONTINUOUS
 62
    3
 10
1138.3374
 20
2283.3005
 11
1138.8038
 21
2283.9003
  0
LINE
  8
0-2
  6
CONTINUOUS
 62
    3
 10
1138.8038
 20
2283.9003
 11
1139.2254
 21
2284.5328
  0
LINE
  8
0-2
  6
CONTINUOUS
 62
    3
 10
1139.2254
 20
2284.5328
 11
1139.6011
 21
2285.1969
  0
LINE
  8
0-2
  6
CONTINUOUS
 62
    3
 10
1139.6011
 20
2285.1969
 11
1139.9321
 21
2285.8897
  0
LINE
  8
0-2
  6
CONTINUOUS
 62
    3
 10
1139.9321
 20
2285.8897
 11
1140.2187
 21
2286.6083
  0
LINE
  8
0-2
  6
CONTINUOUS
 62
    3
 10
1140.2187
 20
2286.6083
 11
1140.4619
 21
2287.3506
  0
LINE
  8
0-2
  6
CONTINUOUS
 62
    3
 10
1140.4619
 20
2287.3506
 11
1140.6616
 21
2288.1127
  0
LINE
  8
0-2
  6
CONTINUOUS
 62
    3
 10
1173.7695
 20
2288.1127
 11
1174.547
 21
2286.8466
  0
LINE
  8
0-2
  6
CONTINUOUS
 62
    3
 10
1174.547
 20
2286.8466
 11
1175.3334
 21
2285.7205
  0
LINE
  8
0-2
  6
CONTINUOUS
 62
    3
 10
1175.3334
 20
2285.7205
 11
1176.1259
 21
2284.7263
  0
LINE
  8
0-2
  6
CONTINUOUS
 62
    3
 10
1176.1259
 20
2284.7263
 11
1176.9209
 21
2283.8563
  0
LINE
  8
0-2
  6
CONTINUOUS
 62
    3
 10
1176.9209
 20
2283.8563
 11
1177.716
 21
2283.1023
  0
LINE
  8
0-2
  6
CONTINUOUS
 62
    3
 10
1177.716
 20
2283.1023
 11
1178.5075
 21
2282.4577
  0
LINE
  8
0-2
  6
CONTINUOUS
 62
    3
 10
1178.5075
 20
2282.4577
 11
1179.2934
 21
2281.9139
  0
LINE
  8
0-2
  6
CONTINUOUS
 62
    3
 10
1179.2934
 20
2281.9139
 11
1180.0689
 21
2281.463
  0
LINE
  8
0-2
  6
CONTINUOUS
 62
    3
 10
1180.0689
 20
2281.463
 11
1180.832
 21
2281.0968
  0
LINE
  8
0-2
  6
CONTINUOUS
 62
    3
 10
1180.832
 20
2281.0968
 11
1181.5792
 21
2280.8093
  0
LINE
  8
0-2
  6
CONTINUOUS
 62
    3
 10
1181.5792
 20
2280.8093
 11
1182.3082
 21
2280.5908
  0
LINE
  8
0-2
  6
CONTINUOUS
 62
    3
 10
1182.3082
 20
2280.5908
 11
1183.0146
 21
2280.4337
  0
LINE
  8
0-2
  6
CONTINUOUS
 62
    3
 10
1183.0146
 20
2280.4337
 11
1183.6968
 21
2280.3312
  0
LINE
  8
0-2
  6
CONTINUOUS
 62
    3
 10
1183.6968
 20
2280.3312
 11
1184.3501
 21
2280.2753
  0
LINE
  8
0-2
  6
CONTINUOUS
 62
    3
 10
1189.9137
 20
2288.1127
 11
1189.8902
 21
2287.2021
  0
LINE
  8
0-2
  6
CONTINUOUS
 62
    3
 10
1189.8902
 20
2287.2021
 11
1189.82
 21
2286.3601
  0
LINE
  8
0-2
  6
CONTINUOUS
 62
    3
 10
1189.82
 20
2286.3601
 11
1189.7002
 21
2285.5839
  0
LINE
  8
0-2
  6
CONTINUOUS
 62
    3
 10
1189.7002
 20
2285.5839
 11
1189.5277
 21
2284.869
  0
LINE
  8
0-2
  6
CONTINUOUS
 62
    3
 10
1189.5277
 20
2284.869
 11
1189.3008
 21
2284.2121
  0
LINE
  8
0-2
  6
CONTINUOUS
 62
    3
 10
1189.3008
 20
2284.2121
 11
1189.0158
 21
2283.6098
  0
LINE
  8
0-2
  6
CONTINUOUS
 62
    3
 10
1189.0158
 20
2283.6098
 11
1188.6711
 21
2283.057
  0
LINE
  8
0-2
  6
CONTINUOUS
 62
    3
 10
1188.6711
 20
2283.057
 11
1188.2631
 21
2282.5508
  0
LINE
  8
0-2
  6
CONTINUOUS
 62
    3
 10
1188.2631
 20
2282.5508
 11
1187.79
 21
2282.0873
  0
LINE
  8
0-2
  6
CONTINUOUS
 62
    3
 10
1187.79
 20
2282.0873
 11
1187.2488
 21
2281.6622
  0
LINE
  8
0-2
  6
CONTINUOUS
 62
    3
 10
1187.2488
 20
2281.6622
 11
1186.6369
 21
2281.2725
  0
LINE
  8
0-2
  6
CONTINUOUS
 62
    3
 10
1186.6369
 20
2281.2725
 11
1185.9515
 21
2280.9137
  0
LINE
  8
0-2
  6
CONTINUOUS
 62
    3
 10
1185.9515
 20
2280.9137
 11
1185.1899
 21
2280.5821
  0
LINE
  8
0-2
  6
CONTINUOUS
 62
    3
 10
1185.1899
 20
2280.5821
 11
1184.3501
 21
2280.2753
  0
LINE
  8
0-2
  6
CONTINUOUS
 62
    3
 10
1236.2451
 20
2288.1127
 11
1235.8485
 21
2287.0433
  0
LINE
  8
0-2
  6
CONTINUOUS
 62
    3
 10
1235.8485
 20
2287.0433
 11
1235.4357
 21
2286.0723
  0
LINE
  8
0-2
  6
CONTINUOUS
 62
    3
 10
1235.4357
 20
2286.0723
 11
1235.0067
 21
2285.1969
  0
LINE
  8
0-2
  6
CONTINUOUS
 62
    3
 10
1235.0067
 20
2285.1969
 11
1234.5615
 21
2284.4105
  0
LINE
  8
0-2
  6
CONTINUOUS
 62
    3
 10
1234.5615
 20
2284.4105
 11
1234.1023
 21
2283.7103
  0
LINE
  8
0-2
  6
CONTINUOUS
 62
    3
 10
1234.1023
 20
2283.7103
 11
1233.6275
 21
2283.0897
  0
LINE
  8
0-2
  6
CONTINUOUS
 62
    3
 10
1233.6275
 20
2283.0897
 11
1233.1383
 21
2282.5446
  0
LINE
  8
0-2
  6
CONTINUOUS
 62
    3
 10
1233.1383
 20
2282.5446
 11
1232.635
 21
2282.0702
  0
LINE
  8
0-2
  6
CONTINUOUS
 62
    3
 10
1232.635
 20
2282.0702
 11
1232.1183
 21
2281.6615
  0
LINE
  8
0-2
  6
CONTINUOUS
 62
    3
 10
1232.1183
 20
2281.6615
 11
1231.5888
 21
2281.3148
  0
LINE
  8
0-2
  6
CONTINUOUS
 62
    3
 10
1231.5888
 20
2281.3148
 11
1231.0459
 21
2281.0238
  0
LINE
  8
0-2
  6
CONTINUOUS
 62
    3
 10
1231.0459
 20
2281.0238
 11
1230.4907
 21
2280.7848
  0
LINE
  8
0-2
  6
CONTINUOUS
 62
    3
 10
1230.4907
 20
2280.7848
 11
1229.9235
 21
2280.5925
  0
LINE
  8
0-2
  6
CONTINUOUS
 62
    3
 10
1229.9235
 20
2280.5925
 11
1229.3455
 21
2280.4421
  0
LINE
  8
0-2
  6
CONTINUOUS
 62
    3
 10
1228.0732
 20
2280.4421
 11
1227.4704
 21
2280.5698
  0
LINE
  8
0-2
  6
CONTINUOUS
 62
    3
 10
1227.4704
 20
2280.5698
 11
1226.8716
 21
2280.7744
  0
LINE
  8
0-2
  6
CONTINUOUS
 62
    3
 10
1226.8716
 20
2280.7744
 11
1226.2782
 21
2281.0535
  0
LINE
  8
0-2
  6
CONTINUOUS
 62
    3
 10
1226.2782
 20
2281.0535
 11
1225.6893
 21
2281.4086
  0
LINE
  8
0-2
  6
CONTINUOUS
 62
    3
 10
1225.6893
 20
2281.4086
 11
1225.1054
 21
2281.8396
  0
LINE
  8
0-2
  6
CONTINUOUS
 62
    3
 10
1225.1054
 20
2281.8396
 11
1224.5266
 21
2282.3459
  0
LINE
  8
0-2
  6
CONTINUOUS
 62
    3
 10
1224.5266
 20
2282.3459
 11
1223.9528
 21
2282.9284
  0
LINE
  8
0-2
  6
CONTINUOUS
 62
    3
 10
1223.9528
 20
2282.9284
 11
1223.3834
 21
2283.5863
  0
LINE
  8
0-2
  6
CONTINUOUS
 62
    3
 10
1223.3834
 20
2283.5863
 11
1222.8195
 21
2284.319
  0
LINE
  8
0-2
  6
CONTINUOUS
 62
    3
 10
1278.6533
 20
2288.1127
 11
1278.5385
 21
2287.2972
  0
LINE
  8
0-2
  6
CONTINUOUS
 62
    3
 10
1278.5385
 20
2287.2972
 11
1278.3757
 21
2286.5383
  0
LINE
  8
0-2
  6
CONTINUOUS
 62
    3
 10
1278.3757
 20
2286.5383
 11
1278.1684
 21
2285.8331
  0
LINE
  8
0-2
  6
CONTINUOUS
 62
    3
 10
1278.1684
 20
2285.8331
 11
1277.9209
 21
2285.1801
  0
LINE
  8
0-2
  6
CONTINUOUS
 62
    3
 10
1277.9209
 20
2285.1801
 11
1277.6364
 21
2284.5758
  0
LINE
  8
0-2
  6
CONTINUOUS
 62
    3
 10
1277.6364
 20
2284.5758
 11
1277.3177
 21
2284.0198
  0
LINE
  8
0-2
  6
CONTINUOUS
 62
    3
 10
1277.3177
 20
2284.0198
 11
1276.9693
 21
2283.5089
  0
LINE
  8
0-2
  6
CONTINUOUS
 62
    3
 10
1276.9693
 20
2283.5089
 11
1276.5937
 21
2283.0422
  0
LINE
  8
0-2
  6
CONTINUOUS
 62
    3
 10
1276.5937
 20
2283.0422
 11
1276.1933
 21
2282.6176
  0
LINE
  8
0-2
  6
CONTINUOUS
 62
    3
 10
1276.1933
 20
2282.6176
 11
1275.7707
 21
2282.2338
  0
LINE
  8
0-2
  6
CONTINUOUS
 62
    3
 10
1275.7707
 20
2282.2338
 11
1275.3292
 21
2281.8894
  0
LINE
  8
0-2
  6
CONTINUOUS
 62
    3
 10
1275.3292
 20
2281.8894
 11
1274.87
 21
2281.5843
  0
LINE
  8
0-2
  6
CONTINUOUS
 62
    3
 10
1274.87
 20
2281.5843
 11
1274.3959
 21
2281.3148
  0
LINE
  8
0-2
  6
CONTINUOUS
 62
    3
 10
1274.3959
 20
2281.3148
 11
1273.9087
 21
2281.0825
  0
LINE
  8
0-2
  6
CONTINUOUS
 62
    3
 10
1273.9087
 20
2281.0825
 11
1273.4096
 21
2280.8855
  0
LINE
  8
0-2
  6
CONTINUOUS
 62
    3
 10
1273.4096
 20
2280.8855
 11
1272.9004
 21
2280.7232
  0
LINE
  8
0-2
  6
CONTINUOUS
 62
    3
 10
1272.9004
 20
2280.7232
 11
1272.3825
 21
2280.5955
  0
LINE
  8
0-2
  6
CONTINUOUS
 62
    3
 10
1272.3825
 20
2280.5955
 11
1271.8567
 21
2280.5025
  0
LINE
  8
0-2
  6
CONTINUOUS
 62
    3
 10
1271.8567
 20
2280.5025
 11
1271.3242
 21
2280.4421
  0
LINE
  8
0-2
  6
CONTINUOUS
 62
    3
 10
1271.1901
 20
2280.4493
 11
1270.8902
 21
2280.4824
  0
LINE
  8
0-2
  6
CONTINUOUS
 62
    3
 10
1270.8902
 20
2280.4824
 11
1270.5952
 21
2280.5297
  0
LINE
  8
0-2
  6
CONTINUOUS
 62
    3
 10
1270.5952
 20
2280.5297
 11
1270.3057
 21
2280.5925
  0
LINE
  8
0-2
  6
CONTINUOUS
 62
    3
 10
1270.3057
 20
2280.5925
 11
1270.0214
 21
2280.669
  0
LINE
  8
0-2
  6
CONTINUOUS
 62
    3
 10
1270.0214
 20
2280.669
 11
1269.7425
 21
2280.7596
  0
LINE
  8
0-2
  6
CONTINUOUS
 62
    3
 10
1269.7425
 20
2280.7596
 11
1269.4681
 21
2280.865
  0
LINE
  8
0-2
  6
CONTINUOUS
 62
    3
 10
1269.4681
 20
2280.865
 11
1269.1994
 21
2280.9852
  0
LINE
  8
0-2
  6
CONTINUOUS
 62
    3
 10
1269.1994
 20
2280.9852
 11
1268.9359
 21
2281.1196
  0
LINE
  8
0-2
  6
CONTINUOUS
 62
    3
 10
1268.9359
 20
2281.1196
 11
1268.6771
 21
2281.268
  0
LINE
  8
0-2
  6
CONTINUOUS
 62
    3
 10
1392.3663
 20
2288.1127
 11
1392.2634
 21
2287.2553
  0
LINE
  8
0-2
  6
CONTINUOUS
 62
    3
 10
1392.2634
 20
2287.2553
 11
1392.1545
 21
2286.471
  0
LINE
  8
0-2
  6
CONTINUOUS
 62
    3
 10
1392.1545
 20
2286.471
 11
1392.0402
 21
2285.7613
  0
LINE
  8
0-2
  6
CONTINUOUS
 62
    3
 10
1392.0402
 20
2285.7613
 11
1391.9197
 21
2285.1251
  0
LINE
  8
0-2
  6
CONTINUOUS
 62
    3
 10
1391.9197
 20
2285.1251
 11
1391.7932
 21
2284.5639
  0
LINE
  8
0-2
  6
CONTINUOUS
 62
    3
 10
1391.7932
 20
2284.5639
 11
1391.6606
 21
2284.076
  0
LINE
  8
0-2
  6
CONTINUOUS
 62
    3
 10
1391.6606
 20
2284.076
 11
1391.522
 21
2283.662
  0
LINE
  8
0-2
  6
CONTINUOUS
 62
    3
 10
1391.522
 20
2283.662
 11
1391.378
 21
2283.3228
  0
LINE
  8
0-2
  6
CONTINUOUS
 62
    3
 10
1391.378
 20
2283.3228
 11
1391.2276
 21
2283.057
  0
LINE
  8
0-2
  6
CONTINUOUS
 62
    3
 10
1373.6984
 20
2288.1127
 11
1373.6415
 21
2287.4338
  0
LINE
  8
0-2
  6
CONTINUOUS
 62
    3
 10
1373.6415
 20
2287.4338
 11
1373.5475
 21
2286.7914
  0
LINE
  8
0-2
  6
CONTINUOUS
 62
    3
 10
1373.5475
 20
2286.7914
 11
1373.4206
 21
2286.1859
  0
LINE
  8
0-2
  6
CONTINUOUS
 62
    3
 10
1373.4206
 20
2286.1859
 11
1373.2647
 21
2285.6178
  0
LINE
  8
0-2
  6
CONTINUOUS
 62
    3
 10
1373.2647
 20
2285.6178
 11
1373.0821
 21
2285.087
  0
LINE
  8
0-2
  6
CONTINUOUS
 62
    3
 10
1373.0821
 20
2285.087
 11
1372.8779
 21
2284.5946
  0
LINE
  8
0-2
  6
CONTINUOUS
 62
    3
 10
1372.8779
 20
2284.5946
 11
1372.655
 21
2284.1391
  0
LINE
  8
0-2
  6
CONTINUOUS
 62
    3
 10
1372.655
 20
2284.1391
 11
1372.4172
 21
2283.7222
  0
LINE
  8
0-2
  6
CONTINUOUS
 62
    3
 10
1372.4172
 20
2283.7222
 11
1372.1678
 21
2283.3428
  0
LINE
  8
0-2
  6
CONTINUOUS
 62
    3
 10
1372.1678
 20
2283.3428
 11
1371.9112
 21
2283.0026
  0
LINE
  8
0-2
  6
CONTINUOUS
 62
    3
 10
1371.9112
 20
2283.0026
 11
1371.6501
 21
2282.7007
  0
LINE
  8
0-2
  6
CONTINUOUS
 62
    3
 10
1371.6501
 20
2282.7007
 11
1371.3888
 21
2282.4374
  0
LINE
  8
0-2
  6
CONTINUOUS
 62
    3
 10
1371.3888
 20
2282.4374
 11
1371.131
 21
2282.2138
  0
LINE
  8
0-2
  6
CONTINUOUS
 62
    3
 10
1371.131
 20
2282.2138
 11
1370.8801
 21
2282.0287
  0
LINE
  8
0-2
  6
CONTINUOUS
 62
    3
 10
1348.1317
 20
2288.1127
 11
1347.9622
 21
2287.3566
  0
LINE
  8
0-2
  6
CONTINUOUS
 62
    3
 10
1347.9622
 20
2287.3566
 11
1347.7559
 21
2286.6491
  0
LINE
  8
0-2
  6
CONTINUOUS
 62
    3
 10
1347.7559
 20
2286.6491
 11
1347.5141
 21
2285.9885
  0
LINE
  8
0-2
  6
CONTINUOUS
 62
    3
 10
1347.5141
 20
2285.9885
 11
1347.2382
 21
2285.376
  0
LINE
  8
0-2
  6
CONTINUOUS
 62
    3
 10
1347.2382
 20
2285.376
 11
1346.9304
 21
2284.8097
  0
LINE
  8
0-2
  6
CONTINUOUS
 62
    3
 10
1346.9304
 20
2284.8097
 11
1346.5914
 21
2284.2905
  0
LINE
  8
0-2
  6
CONTINUOUS
 62
    3
 10
1346.5914
 20
2284.2905
 11
1346.2232
 21
2283.8179
  0
LINE
  8
0-2
  6
CONTINUOUS
 62
    3
 10
1346.2232
 20
2283.8179
 11
1345.8268
 21
2283.3903
  0
LINE
  8
0-2
  6
CONTINUOUS
 62
    3
 10
1345.8268
 20
2283.3903
 11
1345.4044
 21
2283.0095
  0
LINE
  8
0-2
  6
CONTINUOUS
 62
    3
 10
1345.4044
 20
2283.0095
 11
1344.9563
 21
2282.6725
  0
LINE
  8
0-2
  6
CONTINUOUS
 62
    3
 10
1344.9563
 20
2282.6725
 11
1344.4855
 21
2282.3808
  0
LINE
  8
0-2
  6
CONTINUOUS
 62
    3
 10
1344.4855
 20
2282.3808
 11
1343.9918
 21
2282.1336
  0
LINE
  8
0-2
  6
CONTINUOUS
 62
    3
 10
1343.9918
 20
2282.1336
 11
1343.4781
 21
2281.9314
  0
LINE
  8
0-2
  6
CONTINUOUS
 62
    3
 10
1343.4781
 20
2281.9314
 11
1342.9451
 21
2281.7718
  0
LINE
  8
0-2
  6
CONTINUOUS
 62
    3
 10
1316.2343
 20
2288.1127
 11
1315.9777
 21
2287.3202
  0
LINE
  8
0-2
  6
CONTINUOUS
 62
    3
 10
1315.9777
 20
2287.3202
 11
1315.6775
 21
2286.586
  0
LINE
  8
0-2
  6
CONTINUOUS
 62
    3
 10
1315.6775
 20
2286.586
 11
1315.3368
 21
2285.9095
  0
LINE
  8
0-2
  6
CONTINUOUS
 62
    3
 10
1315.3368
 20
2285.9095
 11
1314.9597
 21
2285.2912
  0
LINE
  8
0-2
  6
CONTINUOUS
 62
    3
 10
1314.9597
 20
2285.2912
 11
1314.5492
 21
2284.7312
  0
LINE
  8
0-2
  6
CONTINUOUS
 62
    3
 10
1314.5492
 20
2284.7312
 11
1314.11
 21
2284.2299
  0
LINE
  8
0-2
  6
CONTINUOUS
 62
    3
 10
1314.11
 20
2284.2299
 11
1313.6453
 21
2283.7853
  0
LINE
  8
0-2
  6
CONTINUOUS
 62
    3
 10
1313.6453
 20
2283.7853
 11
1313.1596
 21
2283.3985
  0
LINE
  8
0-2
  6
CONTINUOUS
 62
    3
 10
1313.1596
 20
2283.3985
 11
1312.6563
 21
2283.0672
  0
LINE
  8
0-2
  6
CONTINUOUS
 62
    3
 10
1312.6563
 20
2283.0672
 11
1312.1404
 21
2282.7925
  0
LINE
  8
0-2
  6
CONTINUOUS
 62
    3
 10
1312.1404
 20
2282.7925
 11
1311.6155
 21
2282.5716
  0
LINE
  8
0-2
  6
CONTINUOUS
 62
    3
 10
1311.6155
 20
2282.5716
 11
1311.0863
 21
2282.4028
  0
LINE
  8
0-2
  6
CONTINUOUS
 62
    3
 10
1311.0863
 20
2282.4028
 11
1310.5577
 21
2282.2858
  0
LINE
  8
0-2
  6
CONTINUOUS
 62
    3
 10
1310.5577
 20
2282.2858
 11
1310.0342
 21
2282.219
  0
LINE
  8
0-2
  6
CONTINUOUS
 62
    3
 10
1310.0342
 20
2282.219
 11
1309.5192
 21
2282.1982
  0
LINE
  8
0-2
  6
CONTINUOUS
 62
    3
 10
1309.5192
 20
2282.1982
 11
1309.0189
 21
2282.2234
  0
LINE
  8
0-2
  6
CONTINUOUS
 62
    3
 10
1309.0189
 20
2282.2234
 11
1308.5376
 21
2282.2907
  0
LINE
  8
0-2
  6
CONTINUOUS
 62
    3
 10
1308.5376
 20
2282.2907
 11
1308.0809
 21
2282.3979
  0
LINE
  8
0-2
  6
CONTINUOUS
 62
    3
 10
1308.0809
 20
2282.3979
 11
1307.653
 21
2282.5426
  0
LINE
  8
0-2
  6
CONTINUOUS
 62
    3
 10
1392.3663
 20
2288.1127
 11
1400.7669
 21
2288.1127
  0
LINE
  8
0-2
  6
CONTINUOUS
 62
    3
 10
1474.6504
 20
2193.7924
 11
1392.3663
 21
2288.1127
  0
LINE
  8
0-2
  6
CONTINUOUS
 62
    3
 10
1386.938
 20
2288.1127
 11
1467.8983
 21
2193.7924
  0
LINE
  8
0-2
  6
CONTINUOUS
 62
    3
 10
1451.4294
 20
2193.7924
 11
1373.6984
 21
2288.1127
  0
LINE
  8
0-2
  6
CONTINUOUS
 62
    3
 10
1373.6984
 20
2288.1127
 11
1386.938
 21
2288.1127
  0
LINE
  8
0-2
  6
CONTINUOUS
 62
    3
 10
1365.9179
 20
2288.1127
 11
1441.7518
 21
2193.7924
  0
LINE
  8
0-2
  6
CONTINUOUS
 62
    3
 10
1348.1317
 20
2288.1127
 11
1365.9179
 21
2288.1127
  0
LINE
  8
0-2
  6
CONTINUOUS
 62
    3
 10
1419.627
 20
2193.7924
 11
1348.1317
 21
2288.1127
  0
LINE
  8
0-2
  6
CONTINUOUS
 62
    3
 10
1338.1681
 20
2288.1127
 11
1407.233
 21
2193.7924
  0
LINE
  8
0-2
  6
CONTINUOUS
 62
    3
 10
1316.2197
 20
2288.1127
 11
1338.1681
 21
2288.1127
  0
LINE
  8
0-2
  6
CONTINUOUS
 62
    3
 10
1379.9319
 20
2193.7924
 11
1316.2197
 21
2288.1127
  0
LINE
  8
0-2
  6
CONTINUOUS
 62
    3
 10
1304.2881
 20
2288.1127
 11
1365.09
 21
2193.7924
  0
LINE
  8
0-2
  6
CONTINUOUS
 62
    3
 10
1278.6533
 20
2288.1127
 11
1304.2881
 21
2288.1127
  0
LINE
  8
0-2
  6
CONTINUOUS
 62
    3
 10
1333.2024
 20
2193.7924
 11
1278.6533
 21
2288.1127
  0
LINE
  8
0-2
  6
CONTINUOUS
 62
    3
 10
1265.0115
 20
2288.1127
 11
1316.2343
 21
2193.7924
  0
LINE
  8
0-2
  6
CONTINUOUS
 62
    3
 10
1236.2451
 20
2288.1127
 11
1265.0115
 21
2288.1127
  0
LINE
  8
0-2
  6
CONTINUOUS
 62
    3
 10
1280.4512
 20
2193.7924
 11
1236.2451
 21
2288.1127
  0
LINE
  8
0-2
  6
CONTINUOUS
 62
    3
 10
1221.1892
 20
2288.1127
 11
1261.723
 21
2193.7924
  0
LINE
  8
0-2
  6
CONTINUOUS
 62
    3
 10
1189.9137
 20
2288.1127
 11
1221.1892
 21
2288.1127
  0
LINE
  8
0-2
  6
CONTINUOUS
 62
    3
 10
1222.8195
 20
2193.7924
 11
1189.9137
 21
2288.1127
  0
LINE
  8
0-2
  6
CONTINUOUS
 62
    3
 10
1202.7378
 20
2193.7924
 11
1173.7695
 21
2288.1127
  0
LINE
  8
0-2
  6
CONTINUOUS
 62
    3
 10
1140.6616
 20
2288.1127
 11
1173.7695
 21
2288.1127
  0
LINE
  8
0-2
  6
CONTINUOUS
 62
    3
 10
1140.6616
 20
2288.1127
 11
1161.5549
 21
2193.7924
  0
LINE
  8
0-2
  6
CONTINUOUS
 62
    3
 10
1140.5537
 20
2193.7924
 11
1123.7783
 21
2288.1127
  0
LINE
  8
0-2
  6
CONTINUOUS
 62
    3
 10
1089.5554
 20
2288.1127
 11
1123.7783
 21
2288.1127
  0
LINE
  8
0-2
  6
CONTINUOUS
 62
    3
 10
1089.5554
 20
2288.1127
 11
1097.9837
 21
2193.7924
  0
LINE
  8
0-2
  6
CONTINUOUS
 62
    3
 10
1072.2984
 20
2288.1127
 11
1076.5178
 21
2193.7924
  0
LINE
  8
0-2
  6
CONTINUOUS
 62
    3
 10
1055.0001
 20
2288.1127
 11
1072.2984
 21
2288.1127
  0
LINE
  8
0-2
  6
CONTINUOUS
 62
    3
 10
1012.0166
 20
2061.744
 11
1012.0166
 21
1797.6475
  0
LINE
  8
0-2
  6
CONTINUOUS
 62
    3
 10
969.44663
 20
2061.744
 11
969.44663
 21
1797.6475
  0
LINE
  8
0-2
  6
CONTINUOUS
 62
    3
 10
887.1808
 20
2061.744
 11
887.1808
 21
1797.6475
  0
LINE
  8
0-2
  6
CONTINUOUS
 62
    3
 10
848.27683
 20
2061.744
 11
848.27683
 21
1797.6475
  0
LINE
  8
0-2
  6
CONTINUOUS
 62
    3
 10
776.79764
 20
2061.744
 11
776.79764
 21
1797.6475
  0
LINE
  8
0-2
  6
CONTINUOUS
 62
    3
 10
744.91032
 20
2061.744
 11
744.91032
 21
1797.6475
  0
LINE
  8
0-2
  6
CONTINUOUS
 62
    3
 10
690.3731
 20
2061.744
 11
690.3731
 21
1797.6475
  0
LINE
  8
0-2
  6
CONTINUOUS
 62
    3
 10
969.44663
 20
1797.6475
 11
887.1808
 21
1820.5124
  0
LINE
  8
0-2
  6
CONTINUOUS
 62
    3
 10
744.91032
 20
1797.6475
 11
690.3731
 21
1820.5124
  0
LINE
  8
0-2
  6
CONTINUOUS
 62
    3
 10
791.22685
 20
2061.744
 11
791.22685
 21
1797.6475
  0
LINE
  8
0-2
  6
CONTINUOUS
 62
    3
 10
808.09359
 20
2061.744
 11
808.09359
 21
1797.6475
  0
LINE
  8
0-2
  6
CONTINUOUS
 62
    3
 10
848.27683
 20
1797.6475
 11
808.09359
 21
1810.5013
  0
LINE
  8
0-2
  6
CONTINUOUS
 62
    3
 10
791.22685
 20
1815.8967
 11
776.79764
 21
1820.5124
  0
LINE
  8
0-2
  6
CONTINUOUS
 62
    3
 10
624.90002
 20
1684.4635
 11
624.90002
 21
1778.7849
  0
LINE
  8
0-2
  6
CONTINUOUS
 62
    3
 10
1097.9837
 20
2061.744
 11
1097.9837
 21
1797.6475
  0
LINE
  8
0-2
  6
CONTINUOUS
 62
    3
 10
1140.5537
 20
2061.744
 11
1140.5537
 21
1797.6475
  0
LINE
  8
0-2
  6
CONTINUOUS
 62
    3
 10
1222.8195
 20
2061.744
 11
1222.8195
 21
1797.6475
  0
LINE
  8
0-2
  6
CONTINUOUS
 62
    3
 10
1261.723
 20
2061.744
 11
1261.723
 21
1797.6475
  0
LINE
  8
0-2
  6
CONTINUOUS
 62
    3
 10
1333.2024
 20
2061.744
 11
1333.2024
 21
1797.6475
  0
LINE
  8
0-2
  6
CONTINUOUS
 62
    3
 10
1365.09
 20
2061.744
 11
1365.09
 21
1797.6475
  0
LINE
  8
0-2
  6
CONTINUOUS
 62
    3
 10
1419.627
 20
2061.744
 11
1419.627
 21
1797.6475
  0
LINE
  8
0-2
  6
CONTINUOUS
 62
    3
 10
1318.7737
 20
2061.744
 11
1318.7737
 21
1797.6475
  0
LINE
  8
0-2
  6
CONTINUOUS
 62
    3
 10
1301.9067
 20
2061.744
 11
1301.9067
 21
1797.6475
  0
LINE
  8
0-2
  6
CONTINUOUS
 62
    3
 10
1140.5537
 20
1820.5124
 11
1222.8195
 21
1797.6475
  0
LINE
  8
0-2
  6
CONTINUOUS
 62
    3
 10
1261.723
 20
1820.5124
 11
1301.9067
 21
1797.6475
  0
LINE
  8
0-2
  6
CONTINUOUS
 62
    3
 10
1365.09
 20
1810.0126
 11
1419.627
 21
1797.6475
  0
LINE
  8
0-2
  6
CONTINUOUS
 62
    3
 10
1318.7737
 20
1820.5124
 11
1333.2024
 21
1817.241
  0
LINE
  8
0-2
  6
CONTINUOUS
 62
    3
 10
1097.9837
 20
1797.6475
 11
1012.0166
 21
1820.5124
  0
LINE
  8
0-2
  6
CONTINUOUS
 62
    3
 10
624.90002
 20
1665.5993
 11
1485.1011
 21
1665.5993
  0
LINE
  8
0-2
  6
CONTINUOUS
 62
    3
 10
1485.0998
 20
1665.5993
 11
1400.7669
 21
1571.2792
  0
LINE
  8
0-2
  6
CONTINUOUS
 62
    3
 10
624.90002
 20
1665.5993
 11
709.23345
 21
1571.2792
  0
LINE
  8
0-2
  6
CONTINUOUS
 62
    3
 10
980.07219
 20
1579.0752
 11
980.76651
 21
1578.8675
  0
LINE
  8
0-2
  6
CONTINUOUS
 62
    3
 10
980.76651
 20
1578.8675
 11
981.41851
 21
1578.5851
  0
LINE
  8
0-2
  6
CONTINUOUS
 62
    3
 10
981.41851
 20
1578.5851
 11
982.02894
 21
1578.2323
  0
LINE
  8
0-2
  6
CONTINUOUS
 62
    3
 10
982.02894
 20
1578.2323
 11
982.59855
 21
1577.8164
  0
LINE
  8
0-2
  6
CONTINUOUS
 62
    3
 10
982.59855
 20
1577.8164
 11
983.12832
 21
1577.3406
  0
LINE
  8
0-2
  6
CONTINUOUS
 62
    3
 10
983.12832
 20
1577.3406
 11
983.6185
 21
1576.8113
  0
LINE
  8
0-2
  6
CONTINUOUS
 62
    3
 10
983.6185
 20
1576.8113
 11
984.07057
 21
1576.2334
  0
LINE
  8
0-2
  6
CONTINUOUS
 62
    3
 10
984.07057
 20
1576.2334
 11
984.48503
 21
1575.6124
  0
LINE
  8
0-2
  6
CONTINUOUS
 62
    3
 10
984.48503
 20
1575.6124
 11
984.86213
 21
1574.954
  0
LINE
  8
0-2
  6
CONTINUOUS
 62
    3
 10
984.86213
 20
1574.954
 11
985.2036
 21
1574.2633
  0
LINE
  8
0-2
  6
CONTINUOUS
 62
    3
 10
985.2036
 20
1574.2633
 11
985.50943
 21
1573.5443
  0
LINE
  8
0-2
  6
CONTINUOUS
 62
    3
 10
985.50943
 20
1573.5443
 11
985.78063
 21
1572.8041
  0
LINE
  8
0-2
  6
CONTINUOUS
 62
    3
 10
985.78063
 20
1572.8041
 11
986.01767
 21
1572.0475
  0
LINE
  8
0-2
  6
CONTINUOUS
 62
    3
 10
986.01767
 20
1572.0475
 11
986.22206
 21
1571.2792
  0
LINE
  8
0-2
  6
CONTINUOUS
 62
    3
 10
976.25964
 20
1579.1169
 11
975.45694
 21
1578.8284
  0
LINE
  8
0-2
  6
CONTINUOUS
 62
    3
 10
975.45694
 20
1578.8284
 11
974.70398
 21
1578.4874
  0
LINE
  8
0-2
  6
CONTINUOUS
 62
    3
 10
974.70398
 20
1578.4874
 11
973.99952
 21
1578.0974
  0
LINE
  8
0-2
  6
CONTINUOUS
 62
    3
 10
973.99952
 20
1578.0974
 11
973.3443
 21
1577.6594
  0
LINE
  8
0-2
  6
CONTINUOUS
 62
    3
 10
973.3443
 20
1577.6594
 11
972.73659
 21
1577.1776
  0
LINE
  8
0-2
  6
CONTINUOUS
 62
    3
 10
972.73659
 20
1577.1776
 11
972.17614
 21
1576.6539
  0
LINE
  8
0-2
  6
CONTINUOUS
 62
    3
 10
972.17614
 20
1576.6539
 11
971.66295
 21
1576.0907
  0
LINE
  8
0-2
  6
CONTINUOUS
 62
    3
 10
971.66295
 20
1576.0907
 11
971.19603
 21
1575.4922
  0
LINE
  8
0-2
  6
CONTINUOUS
 62
    3
 10
971.19603
 20
1575.4922
 11
970.77489
 21
1574.859
  0
LINE
  8
0-2
  6
CONTINUOUS
 62
    3
 10
970.77489
 20
1574.859
 11
970.39902
 21
1574.1949
  0
LINE
  8
0-2
  6
CONTINUOUS
 62
    3
 10
970.39902
 20
1574.1949
 11
970.0682
 21
1573.502
  0
LINE
  8
0-2
  6
CONTINUOUS
 62
    3
 10
970.0682
 20
1573.502
 11
969.78117
 21
1572.7838
  0
LINE
  8
0-2
  6
CONTINUOUS
 62
    3
 10
969.78117
 20
1572.7838
 11
969.53818
 21
1572.0419
  0
LINE
  8
0-2
  6
CONTINUOUS
 62
    3
 10
969.53818
 20
1572.0419
 11
969.33825
 21
1571.2792
  0
LINE
  8
0-2
  6
CONTINUOUS
 62
    3
 10
936.2308
 20
1571.2792
 11
935.45334
 21
1572.5456
  0
LINE
  8
0-2
  6
CONTINUOUS
 62
    3
 10
935.45334
 20
1572.5456
 11
934.66698
 21
1573.672
  0
LINE
  8
0-2
  6
CONTINUOUS
 62
    3
 10
934.66698
 20
1573.672
 11
933.87443
 21
1574.666
  0
LINE
  8
0-2
  6
CONTINUOUS
 62
    3
 10
933.87443
 20
1574.666
 11
933.07916
 21
1575.536
  0
LINE
  8
0-2
  6
CONTINUOUS
 62
    3
 10
933.07916
 20
1575.536
 11
932.28413
 21
1576.2894
  0
LINE
  8
0-2
  6
CONTINUOUS
 62
    3
 10
932.28413
 20
1576.2894
 11
931.49233
 21
1576.934
  0
LINE
  8
0-2
  6
CONTINUOUS
 62
    3
 10
931.49233
 20
1576.934
 11
930.70745
 21
1577.4783
  0
LINE
  8
0-2
  6
CONTINUOUS
 62
    3
 10
930.70745
 20
1577.4783
 11
929.93148
 21
1577.9292
  0
LINE
  8
0-2
  6
CONTINUOUS
 62
    3
 10
929.93148
 20
1577.9292
 11
929.16837
 21
1578.2948
  0
LINE
  8
0-2
  6
CONTINUOUS
 62
    3
 10
929.16837
 20
1578.2948
 11
928.42086
 21
1578.5828
  0
LINE
  8
0-2
  6
CONTINUOUS
 62
    3
 10
928.42086
 20
1578.5828
 11
927.69215
 21
1578.8013
  0
LINE
  8
0-2
  6
CONTINUOUS
 62
    3
 10
927.69215
 20
1578.8013
 11
926.98546
 21
1578.9581
  0
LINE
  8
0-2
  6
CONTINUOUS
 62
    3
 10
926.98546
 20
1578.9581
 11
926.30376
 21
1579.0613
  0
LINE
  8
0-2
  6
CONTINUOUS
 62
    3
 10
926.30376
 20
1579.0613
 11
925.65003
 21
1579.1169
  0
LINE
  8
0-2
  6
CONTINUOUS
 62
    3
 10
920.08659
 20
1571.2792
 11
920.10985
 21
1572.1899
  0
LINE
  8
0-2
  6
CONTINUOUS
 62
    3
 10
920.10985
 20
1572.1899
 11
920.18037
 21
1573.032
  0
LINE
  8
0-2
  6
CONTINUOUS
 62
    3
 10
920.18037
 20
1573.032
 11
920.30013
 21
1573.8082
  0
LINE
  8
0-2
  6
CONTINUOUS
 62
    3
 10
920.30013
 20
1573.8082
 11
920.47235
 21
1574.5227
  0
LINE
  8
0-2
  6
CONTINUOUS
 62
    3
 10
920.47235
 20
1574.5227
 11
920.69974
 21
1575.1793
  0
LINE
  8
0-2
  6
CONTINUOUS
 62
    3
 10
920.69974
 20
1575.1793
 11
920.98455
 21
1575.7824
  0
LINE
  8
0-2
  6
CONTINUOUS
 62
    3
 10
920.98455
 20
1575.7824
 11
921.32948
 21
1576.3347
  0
LINE
  8
0-2
  6
CONTINUOUS
 62
    3
 10
921.32948
 20
1576.3347
 11
921.73701
 21
1576.8409
  0
LINE
  8
0-2
  6
CONTINUOUS
 62
    3
 10
921.73701
 20
1576.8409
 11
922.21036
 21
1577.3049
  0
LINE
  8
0-2
  6
CONTINUOUS
 62
    3
 10
922.21036
 20
1577.3049
 11
922.75152
 21
1577.7294
  0
LINE
  8
0-2
  6
CONTINUOUS
 62
    3
 10
922.75152
 20
1577.7294
 11
923.36343
 21
1578.1196
  0
LINE
  8
0-2
  6
CONTINUOUS
 62
    3
 10
923.36343
 20
1578.1196
 11
924.04884
 21
1578.4782
  0
LINE
  8
0-2
  6
CONTINUOUS
 62
    3
 10
924.04884
 20
1578.4782
 11
924.81046
 21
1578.8099
  0
LINE
  8
0-2
  6
CONTINUOUS
 62
    3
 10
924.81046
 20
1578.8099
 11
925.65003
 21
1579.1169
  0
LINE
  8
0-2
  6
CONTINUOUS
 62
    3
 10
873.75521
 20
1571.2792
 11
874.15161
 21
1572.3492
  0
LINE
  8
0-2
  6
CONTINUOUS
 62
    3
 10
874.15161
 20
1572.3492
 11
874.56459
 21
1573.3194
  0
LINE
  8
0-2
  6
CONTINUOUS
 62
    3
 10
874.56459
 20
1573.3194
 11
874.99365
 21
1574.1949
  0
LINE
  8
0-2
  6
CONTINUOUS
 62
    3
 10
874.99365
 20
1574.1949
 11
875.4383
 21
1574.9807
  0
LINE
  8
0-2
  6
CONTINUOUS
 62
    3
 10
875.4383
 20
1574.9807
 11
875.89829
 21
1575.6819
  0
LINE
  8
0-2
  6
CONTINUOUS
 62
    3
 10
875.89829
 20
1575.6819
 11
876.37312
 21
1576.3023
  0
LINE
  8
0-2
  6
CONTINUOUS
 62
    3
 10
876.37312
 20
1576.3023
 11
876.86207
 21
1576.8477
  0
LINE
  8
0-2
  6
CONTINUOUS
 62
    3
 10
876.86207
 20
1576.8477
 11
877.36536
 21
1577.322
  0
LINE
  8
0-2
  6
CONTINUOUS
 62
    3
 10
877.36536
 20
1577.322
 11
877.88177
 21
1577.7302
  0
LINE
  8
0-2
  6
CONTINUOUS
 62
    3
 10
877.88177
 20
1577.7302
 11
878.41178
 21
1578.0776
  0
LINE
  8
0-2
  6
CONTINUOUS
 62
    3
 10
878.41178
 20
1578.0776
 11
878.95442
 21
1578.3679
  0
LINE
  8
0-2
  6
CONTINUOUS
 62
    3
 10
878.95442
 20
1578.3679
 11
879.50942
 21
1578.6076
  0
LINE
  8
0-2
  6
CONTINUOUS
 62
    3
 10
879.50942
 20
1578.6076
 11
880.07631
 21
1578.7992
  0
LINE
  8
0-2
  6
CONTINUOUS
 62
    3
 10
880.07631
 20
1578.7992
 11
880.65482
 21
1578.9495
  0
LINE
  8
0-2
  6
CONTINUOUS
 62
    3
 10
881.92716
 20
1578.9495
 11
882.53042
 21
1578.8215
  0
LINE
  8
0-2
  6
CONTINUOUS
 62
    3
 10
882.53042
 20
1578.8215
 11
883.12873
 21
1578.6172
  0
LINE
  8
0-2
  6
CONTINUOUS
 62
    3
 10
883.12873
 20
1578.6172
 11
883.72209
 21
1578.3382
  0
LINE
  8
0-2
  6
CONTINUOUS
 62
    3
 10
883.72209
 20
1578.3382
 11
884.31099
 21
1577.9827
  0
LINE
  8
0-2
  6
CONTINUOUS
 62
    3
 10
884.31099
 20
1577.9827
 11
884.8947
 21
1577.5529
  0
LINE
  8
0-2
  6
CONTINUOUS
 62
    3
 10
884.8947
 20
1577.5529
 11
885.47347
 21
1577.0462
  0
LINE
  8
0-2
  6
CONTINUOUS
 62
    3
 10
885.47347
 20
1577.0462
 11
886.04753
 21
1576.4631
  0
LINE
  8
0-2
  6
CONTINUOUS
 62
    3
 10
886.04753
 20
1576.4631
 11
886.61664
 21
1575.8058
  0
LINE
  8
0-2
  6
CONTINUOUS
 62
    3
 10
886.61664
 20
1575.8058
 11
887.1808
 21
1575.0728
  0
LINE
  8
0-2
  6
CONTINUOUS
 62
    3
 10
831.34699
 20
1571.2792
 11
831.4618
 21
1572.0946
  0
LINE
  8
0-2
  6
CONTINUOUS
 62
    3
 10
831.4618
 20
1572.0946
 11
831.62462
 21
1572.8536
  0
LINE
  8
0-2
  6
CONTINUOUS
 62
    3
 10
831.62462
 20
1572.8536
 11
831.83197
 21
1573.5592
  0
LINE
  8
0-2
  6
CONTINUOUS
 62
    3
 10
831.83197
 20
1573.5592
 11
832.07966
 21
1574.2124
  0
LINE
  8
0-2
  6
CONTINUOUS
 62
    3
 10
832.07966
 20
1574.2124
 11
832.36397
 21
1574.8156
  0
LINE
  8
0-2
  6
CONTINUOUS
 62
    3
 10
832.36397
 20
1574.8156
 11
832.68218
 21
1575.3723
  0
LINE
  8
0-2
  6
CONTINUOUS
 62
    3
 10
832.68218
 20
1575.3723
 11
833.03082
 21
1575.8834
  0
LINE
  8
0-2
  6
CONTINUOUS
 62
    3
 10
833.03082
 20
1575.8834
 11
833.40668
 21
1576.3496
  0
LINE
  8
0-2
  6
CONTINUOUS
 62
    3
 10
833.40668
 20
1576.3496
 11
833.80704
 21
1576.7745
  0
LINE
  8
0-2
  6
CONTINUOUS
 62
    3
 10
833.80704
 20
1576.7745
 11
834.22942
 21
1577.158
  0
LINE
  8
0-2
  6
CONTINUOUS
 62
    3
 10
834.22942
 20
1577.158
 11
834.6711
 21
1577.502
  0
LINE
  8
0-2
  6
CONTINUOUS
 62
    3
 10
834.6711
 20
1577.502
 11
835.13035
 21
1577.8082
  0
LINE
  8
0-2
  6
CONTINUOUS
 62
    3
 10
835.13035
 20
1577.8082
 11
835.60444
 21
1578.0772
  0
LINE
  8
0-2
  6
CONTINUOUS
 62
    3
 10
835.60444
 20
1578.0772
 11
836.0919
 21
1578.3093
  0
LINE
  8
0-2
  6
CONTINUOUS
 62
    3
 10
836.0919
 20
1578.3093
 11
836.59074
 21
1578.506
  0
LINE
  8
0-2
  6
CONTINUOUS
 62
    3
 10
836.59074
 20
1578.506
 11
837.09997
 21
1578.6686
  0
LINE
  8
0-2
  6
CONTINUOUS
 62
    3
 10
837.09997
 20
1578.6686
 11
837.61811
 21
1578.7959
  0
LINE
  8
0-2
  6
CONTINUOUS
 62
    3
 10
837.61811
 20
1578.7959
 11
838.14367
 21
1578.8898
  0
LINE
  8
0-2
  6
CONTINUOUS
 62
    3
 10
838.14367
 20
1578.8898
 11
838.67616
 21
1578.9495
  0
LINE
  8
0-2
  6
CONTINUOUS
 62
    3
 10
838.81077
 20
1578.9432
 11
839.11042
 21
1578.9091
  0
LINE
  8
0-2
  6
CONTINUOUS
 62
    3
 10
839.11042
 20
1578.9091
 11
839.40512
 21
1578.8616
  0
LINE
  8
0-2
  6
CONTINUOUS
 62
    3
 10
839.40512
 20
1578.8616
 11
839.69462
 21
1578.7996
  0
LINE
  8
0-2
  6
CONTINUOUS
 62
    3
 10
839.69462
 20
1578.7996
 11
839.97893
 21
1578.7235
  0
LINE
  8
0-2
  6
CONTINUOUS
 62
    3
 10
839.97893
 20
1578.7235
 11
840.25804
 21
1578.6322
  0
LINE
  8
0-2
  6
CONTINUOUS
 62
    3
 10
840.25804
 20
1578.6322
 11
840.53221
 21
1578.5267
  0
LINE
  8
0-2
  6
CONTINUOUS
 62
    3
 10
840.53221
 20
1578.5267
 11
840.80093
 21
1578.4064
  0
LINE
  8
0-2
  6
CONTINUOUS
 62
    3
 10
840.80093
 20
1578.4064
 11
841.06445
 21
1578.2722
  0
LINE
  8
0-2
  6
CONTINUOUS
 62
    3
 10
841.06445
 20
1578.2722
 11
841.32302
 21
1578.1232
  0
LINE
  8
0-2
  6
CONTINUOUS
 62
    3
 10
717.63428
 20
1571.2792
 11
717.73697
 21
1572.1369
  0
LINE
  8
0-2
  6
CONTINUOUS
 62
    3
 10
717.73697
 20
1572.1369
 11
717.84535
 21
1572.9208
  0
LINE
  8
0-2
  6
CONTINUOUS
 62
    3
 10
717.84535
 20
1572.9208
 11
717.96016
 21
1573.6308
  0
LINE
  8
0-2
  6
CONTINUOUS
 62
    3
 10
717.96016
 20
1573.6308
 11
718.08067
 21
1574.2662
  0
LINE
  8
0-2
  6
CONTINUOUS
 62
    3
 10
718.08067
 20
1574.2662
 11
718.20711
 21
1574.8284
  0
LINE
  8
0-2
  6
CONTINUOUS
 62
    3
 10
718.20711
 20
1574.8284
 11
718.33974
 21
1575.3163
  0
LINE
  8
0-2
  6
CONTINUOUS
 62
    3
 10
718.33974
 20
1575.3163
 11
718.47805
 21
1575.7297
  0
LINE
  8
0-2
  6
CONTINUOUS
 62
    3
 10
718.47805
 20
1575.7297
 11
718.62231
 21
1576.0697
  0
LINE
  8
0-2
  6
CONTINUOUS
 62
    3
 10
718.62231
 20
1576.0697
 11
718.77275
 21
1576.3347
  0
LINE
  8
0-2
  6
CONTINUOUS
 62
    3
 10
736.30189
 20
1571.2792
 11
736.3588
 21
1571.9587
  0
LINE
  8
0-2
  6
CONTINUOUS
 62
    3
 10
736.3588
 20
1571.9587
 11
736.45283
 21
1572.6012
  0
LINE
  8
0-2
  6
CONTINUOUS
 62
    3
 10
736.45283
 20
1572.6012
 11
736.57952
 21
1573.2058
  0
LINE
  8
0-2
  6
CONTINUOUS
 62
    3
 10
736.57952
 20
1573.2058
 11
736.73565
 21
1573.7747
  0
LINE
  8
0-2
  6
CONTINUOUS
 62
    3
 10
736.73565
 20
1573.7747
 11
736.91801
 21
1574.3051
  0
LINE
  8
0-2
  6
CONTINUOUS
 62
    3
 10
736.91801
 20
1574.3051
 11
737.1224
 21
1574.7974
  0
LINE
  8
0-2
  6
CONTINUOUS
 62
    3
 10
737.1224
 20
1574.7974
 11
737.34559
 21
1575.2524
  0
LINE
  8
0-2
  6
CONTINUOUS
 62
    3
 10
737.34559
 20
1575.2524
 11
737.58338
 21
1575.6695
  0
LINE
  8
0-2
  6
CONTINUOUS
 62
    3
 10
737.58338
 20
1575.6695
 11
737.83255
 21
1576.0489
  0
LINE
  8
0-2
  6
CONTINUOUS
 62
    3
 10
737.83255
 20
1576.0489
 11
738.08939
 21
1576.3893
  0
LINE
  8
0-2
  6
CONTINUOUS
 62
    3
 10
738.08939
 20
1576.3893
 11
738.35019
 21
1576.691
  0
LINE
  8
0-2
  6
CONTINUOUS
 62
    3
 10
738.35019
 20
1576.691
 11
738.61149
 21
1576.9546
  0
LINE
  8
0-2
  6
CONTINUOUS
 62
    3
 10
738.61149
 20
1576.9546
 11
738.86932
 21
1577.1787
  0
LINE
  8
0-2
  6
CONTINUOUS
 62
    3
 10
738.86932
 20
1577.1787
 11
739.12023
 21
1577.3635
  0
LINE
  8
0-2
  6
CONTINUOUS
 62
    3
 10
761.86861
 20
1571.2792
 11
762.0381
 21
1572.0351
  0
LINE
  8
0-2
  6
CONTINUOUS
 62
    3
 10
762.0381
 20
1572.0351
 11
762.24472
 21
1572.743
  0
LINE
  8
0-2
  6
CONTINUOUS
 62
    3
 10
762.24472
 20
1572.743
 11
762.48647
 21
1573.4033
  0
LINE
  8
0-2
  6
CONTINUOUS
 62
    3
 10
762.48647
 20
1573.4033
 11
762.76211
 21
1574.0165
  0
LINE
  8
0-2
  6
CONTINUOUS
 62
    3
 10
762.76211
 20
1574.0165
 11
763.06993
 21
1574.5825
  0
LINE
  8
0-2
  6
CONTINUOUS
 62
    3
 10
763.06993
 20
1574.5825
 11
763.40867
 21
1575.1012
  0
LINE
  8
0-2
  6
CONTINUOUS
 62
    3
 10
763.40867
 20
1575.1012
 11
763.77711
 21
1575.5746
  0
LINE
  8
0-2
  6
CONTINUOUS
 62
    3
 10
763.77711
 20
1575.5746
 11
764.17326
 21
1576.0014
  0
LINE
  8
0-2
  6
CONTINUOUS
 62
    3
 10
764.17326
 20
1576.0014
 11
764.59614
 21
1576.3826
  0
LINE
  8
0-2
  6
CONTINUOUS
 62
    3
 10
764.59614
 20
1576.3826
 11
765.04376
 21
1576.7192
  0
LINE
  8
0-2
  6
CONTINUOUS
 62
    3
 10
765.04376
 20
1576.7192
 11
765.51513
 21
1577.0106
  0
LINE
  8
0-2
  6
CONTINUOUS
 62
    3
 10
765.51513
 20
1577.0106
 11
766.00852
 21
1577.2578
  0
LINE
  8
0-2
  6
CONTINUOUS
 62
    3
 10
766.00852
 20
1577.2578
 11
766.52196
 21
1577.4608
  0
LINE
  8
0-2
  6
CONTINUOUS
 62
    3
 10
766.52196
 20
1577.4608
 11
767.05519
 21
1577.6203
  0
LINE
  8
0-2
  6
CONTINUOUS
 62
    3
 10
793.76633
 20
1571.2792
 11
794.02267
 21
1572.0718
  0
LINE
  8
0-2
  6
CONTINUOUS
 62
    3
 10
794.02267
 20
1572.0718
 11
794.32306
 21
1572.8061
  0
LINE
  8
0-2
  6
CONTINUOUS
 62
    3
 10
794.32306
 20
1572.8061
 11
794.66354
 21
1573.4822
  0
LINE
  8
0-2
  6
CONTINUOUS
 62
    3
 10
794.66354
 20
1573.4822
 11
795.04064
 21
1574.1007
  0
LINE
  8
0-2
  6
CONTINUOUS
 62
    3
 10
795.04064
 20
1574.1007
 11
795.45114
 21
1574.6608
  0
LINE
  8
0-2
  6
CONTINUOUS
 62
    3
 10
795.45114
 20
1574.6608
 11
795.89035
 21
1575.1626
  0
LINE
  8
0-2
  6
CONTINUOUS
 62
    3
 10
795.89035
 20
1575.1626
 11
796.35504
 21
1575.6064
  0
LINE
  8
0-2
  6
CONTINUOUS
 62
    3
 10
796.35504
 20
1575.6064
 11
796.84077
 21
1575.994
  0
LINE
  8
0-2
  6
CONTINUOUS
 62
    3
 10
796.84077
 20
1575.994
 11
797.34406
 21
1576.3243
  0
LINE
  8
0-2
  6
CONTINUOUS
 62
    3
 10
797.34406
 20
1576.3243
 11
797.85997
 21
1576.599
  0
LINE
  8
0-2
  6
CONTINUOUS
 62
    3
 10
797.85997
 20
1576.599
 11
798.38479
 21
1576.8206
  0
LINE
  8
0-2
  6
CONTINUOUS
 62
    3
 10
798.38479
 20
1576.8206
 11
798.91382
 21
1576.9894
  0
LINE
  8
0-2
  6
CONTINUOUS
 62
    3
 10
798.91382
 20
1576.9894
 11
799.44259
 21
1577.1056
  0
LINE
  8
0-2
  6
CONTINUOUS
 62
    3
 10
799.44259
 20
1577.1056
 11
799.96667
 21
1577.1735
  0
LINE
  8
0-2
  6
CONTINUOUS
 62
    3
 10
799.96667
 20
1577.1735
 11
800.4811
 21
1577.1936
  0
LINE
  8
0-2
  6
CONTINUOUS
 62
    3
 10
800.4811
 20
1577.1936
 11
800.98142
 21
1577.1691
  0
LINE
  8
0-2
  6
CONTINUOUS
 62
    3
 10
800.98142
 20
1577.1691
 11
801.46245
 21
1577.1015
  0
LINE
  8
0-2
  6
CONTINUOUS
 62
    3
 10
801.46245
 20
1577.1015
 11
801.91947
 21
1576.9935
  0
LINE
  8
0-2
  6
CONTINUOUS
 62
    3
 10
801.91947
 20
1576.9935
 11
802.34729
 21
1576.8491
  0
LINE
  8
0-2
  6
CONTINUOUS
 62
    3
 10
717.63428
 20
1571.2792
 11
709.23345
 21
1571.2792
  0
LINE
  8
0-2
  6
CONTINUOUS
 62
    3
 10
635.3499
 20
1665.5993
 11
717.63428
 21
1571.2792
  0
LINE
  8
0-2
  6
CONTINUOUS
 62
    3
 10
723.06237
 20
1571.2792
 11
642.10179
 21
1665.5993
  0
LINE
  8
0-2
  6
CONTINUOUS
 62
    3
 10
658.57089
 20
1665.5993
 11
736.30189
 21
1571.2792
  0
LINE
  8
0-2
  6
CONTINUOUS
 62
    3
 10
736.30189
 20
1571.2792
 11
723.06237
 21
1571.2792
  0
LINE
  8
0-2
  6
CONTINUOUS
 62
    3
 10
744.08214
 20
1571.2792
 11
668.24826
 21
1665.5993
  0
LINE
  8
0-2
  6
CONTINUOUS
 62
    3
 10
761.86861
 20
1571.2792
 11
744.08214
 21
1571.2792
  0
LINE
  8
0-2
  6
CONTINUOUS
 62
    3
 10
690.3731
 20
1665.5993
 11
761.86861
 21
1571.2792
  0
LINE
  8
0-2
  6
CONTINUOUS
 62
    3
 10
771.83227
 20
1571.2792
 11
702.76686
 21
1665.5993
  0
LINE
  8
0-2
  6
CONTINUOUS
 62
    3
 10
793.78043
 20
1571.2792
 11
771.83227
 21
1571.2792
  0
LINE
  8
0-2
  6
CONTINUOUS
 62
    3
 10
730.06838
 20
1665.5993
 11
793.78043
 21
1571.2792
  0
LINE
  8
0-2
  6
CONTINUOUS
 62
    3
 10
805.71223
 20
1571.2792
 11
744.91032
 21
1665.5993
  0
LINE
  8
0-2
  6
CONTINUOUS
 62
    3
 10
831.34699
 20
1571.2792
 11
805.71223
 21
1571.2792
  0
LINE
  8
0-2
  6
CONTINUOUS
 62
    3
 10
776.79764
 20
1665.5993
 11
831.34699
 21
1571.2792
  0
LINE
  8
0-2
  6
CONTINUOUS
 62
    3
 10
844.9886
 20
1571.2792
 11
793.76633
 21
1665.5993
  0
LINE
  8
0-2
  6
CONTINUOUS
 62
    3
 10
873.75521
 20
1571.2792
 11
844.9886
 21
1571.2792
  0
LINE
  8
0-2
  6
CONTINUOUS
 62
    3
 10
888.81094
 20
1571.2792
 11
848.27683
 21
1665.5993
  0
LINE
  8
0-2
  6
CONTINUOUS
 62
    3
 10
920.08659
 20
1571.2792
 11
888.81094
 21
1571.2792
  0
LINE
  8
0-2
  6
CONTINUOUS
 62
    3
 10
887.1808
 20
1665.5993
 11
920.08659
 21
1571.2792
  0
LINE
  8
0-2
  6
CONTINUOUS
 62
    3
 10
907.26252
 20
1665.5993
 11
936.2308
 21
1571.2792
  0
LINE
  8
0-2
  6
CONTINUOUS
 62
    3
 10
969.33825
 20
1571.2792
 11
936.2308
 21
1571.2792
  0
LINE
  8
0-2
  6
CONTINUOUS
 62
    3
 10
969.33825
 20
1571.2792
 11
948.44517
 21
1665.5993
  0
LINE
  8
0-2
  6
CONTINUOUS
 62
    3
 10
969.44663
 20
1665.5993
 11
986.22206
 21
1571.2792
  0
LINE
  8
0-2
  6
CONTINUOUS
 62
    3
 10
1020.4447
 20
1571.2792
 11
986.22206
 21
1571.2792
  0
LINE
  8
0-2
  6
CONTINUOUS
 62
    3
 10
1020.4447
 20
1571.2792
 11
1012.0166
 21
1665.5993
  0
LINE
  8
0-2
  6
CONTINUOUS
 62
    3
 10
1037.7014
 20
1571.2792
 11
1033.4825
 21
1665.5993
  0
LINE
  8
0-2
  6
CONTINUOUS
 62
    3
 10
1055.0001
 20
1571.2792
 11
1037.7014
 21
1571.2792
  0
LINE
  8
0-2
  6
CONTINUOUS
 62
    3
 10
1485.0998
 20
1665.5993
 11
1400.7669
 21
1571.2792
  0
LINE
  8
0-2
  6
CONTINUOUS
 62
    3
 10
1129.9281
 20
1579.0752
 11
1129.2338
 21
1578.8675
  0
LINE
  8
0-2
  6
CONTINUOUS
 62
    3
 10
1129.2338
 20
1578.8675
 11
1128.5818
 21
1578.5851
  0
LINE
  8
0-2
  6
CONTINUOUS
 62
    3
 10
1128.5818
 20
1578.5851
 11
1127.9714
 21
1578.2323
  0
LINE
  8
0-2
  6
CONTINUOUS
 62
    3
 10
1127.9714
 20
1578.2323
 11
1127.4015
 21
1577.8164
  0
LINE
  8
0-2
  6
CONTINUOUS
 62
    3
 10
1127.4015
 20
1577.8164
 11
1126.8723
 21
1577.3406
  0
LINE
  8
0-2
  6
CONTINUOUS
 62
    3
 10
1126.8723
 20
1577.3406
 11
1126.3816
 21
1576.8113
  0
LINE
  8
0-2
  6
CONTINUOUS
 62
    3
 10
1126.3816
 20
1576.8113
 11
1125.93
 21
1576.2334
  0
LINE
  8
0-2
  6
CONTINUOUS
 62
    3
 10
1125.93
 20
1576.2334
 11
1125.5153
 21
1575.6124
  0
LINE
  8
0-2
  6
CONTINUOUS
 62
    3
 10
1125.5153
 20
1575.6124
 11
1125.1377
 21
1574.954
  0
LINE
  8
0-2
  6
CONTINUOUS
 62
    3
 10
1125.1377
 20
1574.954
 11
1124.7967
 21
1574.2633
  0
LINE
  8
0-2
  6
CONTINUOUS
 62
    3
 10
1124.7967
 20
1574.2633
 11
1124.4914
 21
1573.5443
  0
LINE
  8
0-2
  6
CONTINUOUS
 62
    3
 10
1124.4914
 20
1573.5443
 11
1124.22
 21
1572.8041
  0
LINE
  8
0-2
  6
CONTINUOUS
 62
    3
 10
1124.22
 20
1572.8041
 11
1123.9824
 21
1572.0475
  0
LINE
  8
0-2
  6
CONTINUOUS
 62
    3
 10
1123.9824
 20
1572.0475
 11
1123.7783
 21
1571.2792
  0
LINE
  8
0-2
  6
CONTINUOUS
 62
    3
 10
1133.7407
 20
1579.1169
 11
1134.5434
 21
1578.8284
  0
LINE
  8
0-2
  6
CONTINUOUS
 62
    3
 10
1134.5434
 20
1578.8284
 11
1135.2966
 21
1578.4874
  0
LINE
  8
0-2
  6
CONTINUOUS
 62
    3
 10
1135.2966
 20
1578.4874
 11
1136.0008
 21
1578.0974
  0
LINE
  8
0-2
  6
CONTINUOUS
 62
    3
 10
1136.0008
 20
1578.0974
 11
1136.656
 21
1577.6594
  0
LINE
  8
0-2
  6
CONTINUOUS
 62
    3
 10
1136.656
 20
1577.6594
 11
1137.2637
 21
1577.1776
  0
LINE
  8
0-2
  6
CONTINUOUS
 62
    3
 10
1137.2637
 20
1577.1776
 11
1137.8239
 21
1576.6539
  0
LINE
  8
0-2
  6
CONTINUOUS
 62
    3
 10
1137.8239
 20
1576.6539
 11
1138.3374
 21
1576.0907
  0
LINE
  8
0-2
  6
CONTINUOUS
 62
    3
 10
1138.3374
 20
1576.0907
 11
1138.8038
 21
1575.4922
  0
LINE
  8
0-2
  6
CONTINUOUS
 62
    3
 10
1138.8038
 20
1575.4922
 11
1139.2254
 21
1574.859
  0
LINE
  8
0-2
  6
CONTINUOUS
 62
    3
 10
1139.2254
 20
1574.859
 11
1139.6011
 21
1574.1949
  0
LINE
  8
0-2
  6
CONTINUOUS
 62
    3
 10
1139.6011
 20
1574.1949
 11
1139.9321
 21
1573.502
  0
LINE
  8
0-2
  6
CONTINUOUS
 62
    3
 10
1139.9321
 20
1573.502
 11
1140.2187
 21
1572.7838
  0
LINE
  8
0-2
  6
CONTINUOUS
 62
    3
 10
1140.2187
 20
1572.7838
 11
1140.4619
 21
1572.0419
  0
LINE
  8
0-2
  6
CONTINUOUS
 62
    3
 10
1140.4619
 20
1572.0419
 11
1140.6616
 21
1571.2792
  0
LINE
  8
0-2
  6
CONTINUOUS
 62
    3
 10
1173.7695
 20
1571.2792
 11
1174.547
 21
1572.5456
  0
LINE
  8
0-2
  6
CONTINUOUS
 62
    3
 10
1174.547
 20
1572.5456
 11
1175.3334
 21
1573.672
  0
LINE
  8
0-2
  6
CONTINUOUS
 62
    3
 10
1175.3334
 20
1573.672
 11
1176.1259
 21
1574.666
  0
LINE
  8
0-2
  6
CONTINUOUS
 62
    3
 10
1176.1259
 20
1574.666
 11
1176.9209
 21
1575.536
  0
LINE
  8
0-2
  6
CONTINUOUS
 62
    3
 10
1176.9209
 20
1575.536
 11
1177.716
 21
1576.2894
  0
LINE
  8
0-2
  6
CONTINUOUS
 62
    3
 10
1177.716
 20
1576.2894
 11
1178.5075
 21
1576.934
  0
LINE
  8
0-2
  6
CONTINUOUS
 62
    3
 10
1178.5075
 20
1576.934
 11
1179.2934
 21
1577.4783
  0
LINE
  8
0-2
  6
CONTINUOUS
 62
    3
 10
1179.2934
 20
1577.4783
 11
1180.0689
 21
1577.9292
  0
LINE
  8
0-2
  6
CONTINUOUS
 62
    3
 10
1180.0689
 20
1577.9292
 11
1180.832
 21
1578.2948
  0
LINE
  8
0-2
  6
CONTINUOUS
 62
    3
 10
1180.832
 20
1578.2948
 11
1181.5792
 21
1578.5828
  0
LINE
  8
0-2
  6
CONTINUOUS
 62
    3
 10
1181.5792
 20
1578.5828
 11
1182.3082
 21
1578.8013
  0
LINE
  8
0-2
  6
CONTINUOUS
 62
    3
 10
1182.3082
 20
1578.8013
 11
1183.0146
 21
1578.9581
  0
LINE
  8
0-2
  6
CONTINUOUS
 62
    3
 10
1183.0146
 20
1578.9581
 11
1183.6968
 21
1579.0613
  0
LINE
  8
0-2
  6
CONTINUOUS
 62
    3
 10
1183.6968
 20
1579.0613
 11
1184.3501
 21
1579.1169
  0
LINE
  8
0-2
  6
CONTINUOUS
 62
    3
 10
1189.9137
 20
1571.2792
 11
1189.8902
 21
1572.1899
  0
LINE
  8
0-2
  6
CONTINUOUS
 62
    3
 10
1189.8902
 20
1572.1899
 11
1189.82
 21
1573.032
  0
LINE
  8
0-2
  6
CONTINUOUS
 62
    3
 10
1189.82
 20
1573.032
 11
1189.7002
 21
1573.8082
  0
LINE
  8
0-2
  6
CONTINUOUS
 62
    3
 10
1189.7002
 20
1573.8082
 11
1189.5277
 21
1574.5227
  0
LINE
  8
0-2
  6
CONTINUOUS
 62
    3
 10
1189.5277
 20
1574.5227
 11
1189.3008
 21
1575.1793
  0
LINE
  8
0-2
  6
CONTINUOUS
 62
    3
 10
1189.3008
 20
1575.1793
 11
1189.0158
 21
1575.7824
  0
LINE
  8
0-2
  6
CONTINUOUS
 62
    3
 10
1189.0158
 20
1575.7824
 11
1188.6711
 21
1576.3347
  0
LINE
  8
0-2
  6
CONTINUOUS
 62
    3
 10
1188.6711
 20
1576.3347
 11
1188.2631
 21
1576.8409
  0
LINE
  8
0-2
  6
CONTINUOUS
 62
    3
 10
1188.2631
 20
1576.8409
 11
1187.79
 21
1577.3049
  0
LINE
  8
0-2
  6
CONTINUOUS
 62
    3
 10
1187.79
 20
1577.3049
 11
1187.2488
 21
1577.7294
  0
LINE
  8
0-2
  6
CONTINUOUS
 62
    3
 10
1187.2488
 20
1577.7294
 11
1186.6369
 21
1578.1196
  0
LINE
  8
0-2
  6
CONTINUOUS
 62
    3
 10
1186.6369
 20
1578.1196
 11
1185.9515
 21
1578.4782
  0
LINE
  8
0-2
  6
CONTINUOUS
 62
    3
 10
1185.9515
 20
1578.4782
 11
1185.1899
 21
1578.8099
  0
LINE
  8
0-2
  6
CONTINUOUS
 62
    3
 10
1185.1899
 20
1578.8099
 11
1184.3501
 21
1579.1169
  0
LINE
  8
0-2
  6
CONTINUOUS
 62
    3
 10
1236.2451
 20
1571.2792
 11
1235.8485
 21
1572.3492
  0
LINE
  8
0-2
  6
CONTINUOUS
 62
    3
 10
1235.8485
 20
1572.3492
 11
1235.4357
 21
1573.3194
  0
LINE
  8
0-2
  6
CONTINUOUS
 62
    3
 10
1235.4357
 20
1573.3194
 11
1235.0067
 21
1574.1949
  0
LINE
  8
0-2
  6
CONTINUOUS
 62
    3
 10
1235.0067
 20
1574.1949
 11
1234.5615
 21
1574.9807
  0
LINE
  8
0-2
  6
CONTINUOUS
 62
    3
 10
1234.5615
 20
1574.9807
 11
1234.1023
 21
1575.6819
  0
LINE
  8
0-2
  6
CONTINUOUS
 62
    3
 10
1234.1023
 20
1575.6819
 11
1233.6275
 21
1576.3023
  0
LINE
  8
0-2
  6
CONTINUOUS
 62
    3
 10
1233.6275
 20
1576.3023
 11
1233.1383
 21
1576.8477
  0
LINE
  8
0-2
  6
CONTINUOUS
 62
    3
 10
1233.1383
 20
1576.8477
 11
1232.635
 21
1577.322
  0
LINE
  8
0-2
  6
CONTINUOUS
 62
    3
 10
1232.635
 20
1577.322
 11
1232.1183
 21
1577.7302
  0
LINE
  8
0-2
  6
CONTINUOUS
 62
    3
 10
1232.1183
 20
1577.7302
 11
1231.5888
 21
1578.0776
  0
LINE
  8
0-2
  6
CONTINUOUS
 62
    3
 10
1231.5888
 20
1578.0776
 11
1231.0459
 21
1578.3679
  0
LINE
  8
0-2
  6
CONTINUOUS
 62
    3
 10
1231.0459
 20
1578.3679
 11
1230.4907
 21
1578.6076
  0
LINE
  8
0-2
  6
CONTINUOUS
 62
    3
 10
1230.4907
 20
1578.6076
 11
1229.9235
 21
1578.7992
  0
LINE
  8
0-2
  6
CONTINUOUS
 62
    3
 10
1229.9235
 20
1578.7992
 11
1229.3455
 21
1578.9495
  0
LINE
  8
0-2
  6
CONTINUOUS
 62
    3
 10
1228.0732
 20
1578.9495
 11
1227.4704
 21
1578.8215
  0
LINE
  8
0-2
  6
CONTINUOUS
 62
    3
 10
1227.4704
 20
1578.8215
 11
1226.8716
 21
1578.6172
  0
LINE
  8
0-2
  6
CONTINUOUS
 62
    3
 10
1226.8716
 20
1578.6172
 11
1226.2782
 21
1578.3382
  0
LINE
  8
0-2
  6
CONTINUOUS
 62
    3
 10
1226.2782
 20
1578.3382
 11
1225.6893
 21
1577.9827
  0
LINE
  8
0-2
  6
CONTINUOUS
 62
    3
 10
1225.6893
 20
1577.9827
 11
1225.1054
 21
1577.5529
  0
LINE
  8
0-2
  6
CONTINUOUS
 62
    3
 10
1225.1054
 20
1577.5529
 11
1224.5266
 21
1577.0462
  0
LINE
  8
0-2
  6
CONTINUOUS
 62
    3
 10
1224.5266
 20
1577.0462
 11
1223.9528
 21
1576.4631
  0
LINE
  8
0-2
  6
CONTINUOUS
 62
    3
 10
1223.9528
 20
1576.4631
 11
1223.3834
 21
1575.8058
  0
LINE
  8
0-2
  6
CONTINUOUS
 62
    3
 10
1223.3834
 20
1575.8058
 11
1222.8195
 21
1575.0728
  0
LINE
  8
0-2
  6
CONTINUOUS
 62
    3
 10
1278.6533
 20
1571.2792
 11
1278.5385
 21
1572.0946
  0
LINE
  8
0-2
  6
CONTINUOUS
 62
    3
 10
1278.5385
 20
1572.0946
 11
1278.3757
 21
1572.8536
  0
LINE
  8
0-2
  6
CONTINUOUS
 62
    3
 10
1278.3757
 20
1572.8536
 11
1278.1684
 21
1573.5592
  0
LINE
  8
0-2
  6
CONTINUOUS
 62
    3
 10
1278.1684
 20
1573.5592
 11
1277.9209
 21
1574.2124
  0
LINE
  8
0-2
  6
CONTINUOUS
 62
    3
 10
1277.9209
 20
1574.2124
 11
1277.6364
 21
1574.8156
  0
LINE
  8
0-2
  6
CONTINUOUS
 62
    3
 10
1277.6364
 20
1574.8156
 11
1277.3177
 21
1575.3723
  0
LINE
  8
0-2
  6
CONTINUOUS
 62
    3
 10
1277.3177
 20
1575.3723
 11
1276.9693
 21
1575.8834
  0
LINE
  8
0-2
  6
CONTINUOUS
 62
    3
 10
1276.9693
 20
1575.8834
 11
1276.5937
 21
1576.3496
  0
LINE
  8
0-2
  6
CONTINUOUS
 62
    3
 10
1276.5937
 20
1576.3496
 11
1276.1933
 21
1576.7745
  0
LINE
  8
0-2
  6
CONTINUOUS
 62
    3
 10
1276.1933
 20
1576.7745
 11
1275.7707
 21
1577.158
  0
LINE
  8
0-2
  6
CONTINUOUS
 62
    3
 10
1275.7707
 20
1577.158
 11
1275.3292
 21
1577.502
  0
LINE
  8
0-2
  6
CONTINUOUS
 62
    3
 10
1275.3292
 20
1577.502
 11
1274.87
 21
1577.8082
  0
LINE
  8
0-2
  6
CONTINUOUS
 62
    3
 10
1274.87
 20
1577.8082
 11
1274.3959
 21
1578.0772
  0
LINE
  8
0-2
  6
CONTINUOUS
 62
    3
 10
1274.3959
 20
1578.0772
 11
1273.9087
 21
1578.3093
  0
LINE
  8
0-2
  6
CONTINUOUS
 62
    3
 10
1273.9087
 20
1578.3093
 11
1273.4096
 21
1578.506
  0
LINE
  8
0-2
  6
CONTINUOUS
 62
    3
 10
1273.4096
 20
1578.506
 11
1272.9004
 21
1578.6686
  0
LINE
  8
0-2
  6
CONTINUOUS
 62
    3
 10
1272.9004
 20
1578.6686
 11
1272.3825
 21
1578.7959
  0
LINE
  8
0-2
  6
CONTINUOUS
 62
    3
 10
1272.3825
 20
1578.7959
 11
1271.8567
 21
1578.8898
  0
LINE
  8
0-2
  6
CONTINUOUS
 62
    3
 10
1271.8567
 20
1578.8898
 11
1271.3242
 21
1578.9495
  0
LINE
  8
0-2
  6
CONTINUOUS
 62
    3
 10
1271.1901
 20
1578.9432
 11
1270.8902
 21
1578.9091
  0
LINE
  8
0-2
  6
CONTINUOUS
 62
    3
 10
1270.8902
 20
1578.9091
 11
1270.5952
 21
1578.8616
  0
LINE
  8
0-2
  6
CONTINUOUS
 62
    3
 10
1270.5952
 20
1578.8616
 11
1270.3057
 21
1578.7996
  0
LINE
  8
0-2
  6
CONTINUOUS
 62
    3
 10
1270.3057
 20
1578.7996
 11
1270.0214
 21
1578.7235
  0
LINE
  8
0-2
  6
CONTINUOUS
 62
    3
 10
1270.0214
 20
1578.7235
 11
1269.7425
 21
1578.6322
  0
LINE
  8
0-2
  6
CONTINUOUS
 62
    3
 10
1269.7425
 20
1578.6322
 11
1269.4681
 21
1578.5267
  0
LINE
  8
0-2
  6
CONTINUOUS
 62
    3
 10
1269.4681
 20
1578.5267
 11
1269.1994
 21
1578.4064
  0
LINE
  8
0-2
  6
CONTINUOUS
 62
    3
 10
1269.1994
 20
1578.4064
 11
1268.9359
 21
1578.2722
  0
LINE
  8
0-2
  6
CONTINUOUS
 62
    3
 10
1268.9359
 20
1578.2722
 11
1268.6771
 21
1578.1232
  0
LINE
  8
0-2
  6
CONTINUOUS
 62
    3
 10
1392.3663
 20
1571.2792
 11
1392.2634
 21
1572.1369
  0
LINE
  8
0-2
  6
CONTINUOUS
 62
    3
 10
1392.2634
 20
1572.1369
 11
1392.1545
 21
1572.9208
  0
LINE
  8
0-2
  6
CONTINUOUS
 62
    3
 10
1392.1545
 20
1572.9208
 11
1392.0402
 21
1573.6308
  0
LINE
  8
0-2
  6
CONTINUOUS
 62
    3
 10
1392.0402
 20
1573.6308
 11
1391.9197
 21
1574.2662
  0
LINE
  8
0-2
  6
CONTINUOUS
 62
    3
 10
1391.9197
 20
1574.2662
 11
1391.7932
 21
1574.8284
  0
LINE
  8
0-2
  6
CONTINUOUS
 62
    3
 10
1391.7932
 20
1574.8284
 11
1391.6606
 21
1575.3163
  0
LINE
  8
0-2
  6
CONTINUOUS
 62
    3
 10
1391.6606
 20
1575.3163
 11
1391.522
 21
1575.7297
  0
LINE
  8
0-2
  6
CONTINUOUS
 62
    3
 10
1391.522
 20
1575.7297
 11
1391.378
 21
1576.0697
  0
LINE
  8
0-2
  6
CONTINUOUS
 62
    3
 10
1391.378
 20
1576.0697
 11
1391.2276
 21
1576.3347
  0
LINE
  8
0-2
  6
CONTINUOUS
 62
    3
 10
1373.6984
 20
1571.2792
 11
1373.6415
 21
1571.9587
  0
LINE
  8
0-2
  6
CONTINUOUS
 62
    3
 10
1373.6415
 20
1571.9587
 11
1373.5475
 21
1572.6012
  0
LINE
  8
0-2
  6
CONTINUOUS
 62
    3
 10
1373.5475
 20
1572.6012
 11
1373.4206
 21
1573.2058
  0
LINE
  8
0-2
  6
CONTINUOUS
 62
    3
 10
1373.4206
 20
1573.2058
 11
1373.2647
 21
1573.7747
  0
LINE
  8
0-2
  6
CONTINUOUS
 62
    3
 10
1373.2647
 20
1573.7747
 11
1373.0821
 21
1574.3051
  0
LINE
  8
0-2
  6
CONTINUOUS
 62
    3
 10
1373.0821
 20
1574.3051
 11
1372.8779
 21
1574.7974
  0
LINE
  8
0-2
  6
CONTINUOUS
 62
    3
 10
1372.8779
 20
1574.7974
 11
1372.655
 21
1575.2524
  0
LINE
  8
0-2
  6
CONTINUOUS
 62
    3
 10
1372.655
 20
1575.2524
 11
1372.4172
 21
1575.6695
  0
LINE
  8
0-2
  6
CONTINUOUS
 62
    3
 10
1372.4172
 20
1575.6695
 11
1372.1678
 21
1576.0489
  0
LINE
  8
0-2
  6
CONTINUOUS
 62
    3
 10
1372.1678
 20
1576.0489
 11
1371.9112
 21
1576.3893
  0
LINE
  8
0-2
  6
CONTINUOUS
 62
    3
 10
1371.9112
 20
1576.3893
 11
1371.6501
 21
1576.691
  0
LINE
  8
0-2
  6
CONTINUOUS
 62
    3
 10
1371.6501
 20
1576.691
 11
1371.3888
 21
1576.9546
  0
LINE
  8
0-2
  6
CONTINUOUS
 62
    3
 10
1371.3888
 20
1576.9546
 11
1371.131
 21
1577.1787
  0
LINE
  8
0-2
  6
CONTINUOUS
 62
    3
 10
1371.131
 20
1577.1787
 11
1370.8801
 21
1577.3635
  0
LINE
  8
0-2
  6
CONTINUOUS
 62
    3
 10
1348.1317
 20
1571.2792
 11
1347.9622
 21
1572.0351
  0
LINE
  8
0-2
  6
CONTINUOUS
 62
    3
 10
1347.9622
 20
1572.0351
 11
1347.7559
 21
1572.743
  0
LINE
  8
0-2
  6
CONTINUOUS
 62
    3
 10
1347.7559
 20
1572.743
 11
1347.5141
 21
1573.4033
  0
LINE
  8
0-2
  6
CONTINUOUS
 62
    3
 10
1347.5141
 20
1573.4033
 11
1347.2382
 21
1574.0165
  0
LINE
  8
0-2
  6
CONTINUOUS
 62
    3
 10
1347.2382
 20
1574.0165
 11
1346.9304
 21
1574.5825
  0
LINE
  8
0-2
  6
CONTINUOUS
 62
    3
 10
1346.9304
 20
1574.5825
 11
1346.5914
 21
1575.1012
  0
LINE
  8
0-2
  6
CONTINUOUS
 62
    3
 10
1346.5914
 20
1575.1012
 11
1346.2232
 21
1575.5746
  0
LINE
  8
0-2
  6
CONTINUOUS
 62
    3
 10
1346.2232
 20
1575.5746
 11
1345.8268
 21
1576.0014
  0
LINE
  8
0-2
  6
CONTINUOUS
 62
    3
 10
1345.8268
 20
1576.0014
 11
1345.4044
 21
1576.3826
  0
LINE
  8
0-2
  6
CONTINUOUS
 62
    3
 10
1345.4044
 20
1576.3826
 11
1344.9563
 21
1576.7192
  0
LINE
  8
0-2
  6
CONTINUOUS
 62
    3
 10
1344.9563
 20
1576.7192
 11
1344.4855
 21
1577.0106
  0
LINE
  8
0-2
  6
CONTINUOUS
 62
    3
 10
1344.4855
 20
1577.0106
 11
1343.9918
 21
1577.2578
  0
LINE
  8
0-2
  6
CONTINUOUS
 62
    3
 10
1343.9918
 20
1577.2578
 11
1343.4781
 21
1577.4608
  0
LINE
  8
0-2
  6
CONTINUOUS
 62
    3
 10
1343.4781
 20
1577.4608
 11
1342.9451
 21
1577.6203
  0
LINE
  8
0-2
  6
CONTINUOUS
 62
    3
 10
1316.2343
 20
1571.2792
 11
1315.9777
 21
1572.0718
  0
LINE
  8
0-2
  6
CONTINUOUS
 62
    3
 10
1315.9777
 20
1572.0718
 11
1315.6775
 21
1572.8061
  0
LINE
  8
0-2
  6
CONTINUOUS
 62
    3
 10
1315.6775
 20
1572.8061
 11
1315.3368
 21
1573.4822
  0
LINE
  8
0-2
  6
CONTINUOUS
 62
    3
 10
1315.3368
 20
1573.4822
 11
1314.9597
 21
1574.1007
  0
LINE
  8
0-2
  6
CONTINUOUS
 62
    3
 10
1314.9597
 20
1574.1007
 11
1314.5492
 21
1574.6608
  0
LINE
  8
0-2
  6
CONTINUOUS
 62
    3
 10
1314.5492
 20
1574.6608
 11
1314.11
 21
1575.1626
  0
LINE
  8
0-2
  6
CONTINUOUS
 62
    3
 10
1314.11
 20
1575.1626
 11
1313.6453
 21
1575.6064
  0
LINE
  8
0-2
  6
CONTINUOUS
 62
    3
 10
1313.6453
 20
1575.6064
 11
1313.1596
 21
1575.994
  0
LINE
  8
0-2
  6
CONTINUOUS
 62
    3
 10
1313.1596
 20
1575.994
 11
1312.6563
 21
1576.3243
  0
LINE
  8
0-2
  6
CONTINUOUS
 62
    3
 10
1312.6563
 20
1576.3243
 11
1312.1404
 21
1576.599
  0
LINE
  8
0-2
  6
CONTINUOUS
 62
    3
 10
1312.1404
 20
1576.599
 11
1311.6155
 21
1576.8206
  0
LINE
  8
0-2
  6
CONTINUOUS
 62
    3
 10
1311.6155
 20
1576.8206
 11
1311.0863
 21
1576.9894
  0
LINE
  8
0-2
  6
CONTINUOUS
 62
    3
 10
1311.0863
 20
1576.9894
 11
1310.5577
 21
1577.1056
  0
LINE
  8
0-2
  6
CONTINUOUS
 62
    3
 10
1310.5577
 20
1577.1056
 11
1310.0342
 21
1577.1735
  0
LINE
  8
0-2
  6
CONTINUOUS
 62
    3
 10
1310.0342
 20
1577.1735
 11
1309.5192
 21
1577.1936
  0
LINE
  8
0-2
  6
CONTINUOUS
 62
    3
 10
1309.5192
 20
1577.1936
 11
1309.0189
 21
1577.1691
  0
LINE
  8
0-2
  6
CONTINUOUS
 62
    3
 10
1309.0189
 20
1577.1691
 11
1308.5376
 21
1577.1015
  0
LINE
  8
0-2
  6
CONTINUOUS
 62
    3
 10
1308.5376
 20
1577.1015
 11
1308.0809
 21
1576.9935
  0
LINE
  8
0-2
  6
CONTINUOUS
 62
    3
 10
1308.0809
 20
1576.9935
 11
1307.653
 21
1576.8491
  0
LINE
  8
0-2
  6
CONTINUOUS
 62
    3
 10
1392.3663
 20
1571.2792
 11
1400.7669
 21
1571.2792
  0
LINE
  8
0-2
  6
CONTINUOUS
 62
    3
 10
1474.6504
 20
1665.5993
 11
1392.3663
 21
1571.2792
  0
LINE
  8
0-2
  6
CONTINUOUS
 62
    3
 10
1386.938
 20
1571.2792
 11
1467.8983
 21
1665.5993
  0
LINE
  8
0-2
  6
CONTINUOUS
 62
    3
 10
1451.4294
 20
1665.5993
 11
1373.6984
 21
1571.2792
  0
LINE
  8
0-2
  6
CONTINUOUS
 62
    3
 10
1373.6984
 20
1571.2792
 11
1386.938
 21
1571.2792
  0
LINE
  8
0-2
  6
CONTINUOUS
 62
    3
 10
1365.9179
 20
1571.2792
 11
1441.7518
 21
1665.5993
  0
LINE
  8
0-2
  6
CONTINUOUS
 62
    3
 10
1348.1317
 20
1571.2792
 11
1365.9179
 21
1571.2792
  0
LINE
  8
0-2
  6
CONTINUOUS
 62
    3
 10
1419.627
 20
1665.5993
 11
1348.1317
 21
1571.2792
  0
LINE
  8
0-2
  6
CONTINUOUS
 62
    3
 10
1379.9319
 20
1665.5993
 11
1316.2197
 21
1571.2792
  0
LINE
  8
0-2
  6
CONTINUOUS
 62
    3
 10
1304.2881
 20
1571.2792
 11
1365.09
 21
1665.5993
  0
LINE
  8
0-2
  6
CONTINUOUS
 62
    3
 10
1278.6533
 20
1571.2792
 11
1304.2881
 21
1571.2792
  0
LINE
  8
0-2
  6
CONTINUOUS
 62
    3
 10
1333.2024
 20
1665.5993
 11
1278.6533
 21
1571.2792
  0
LINE
  8
0-2
  6
CONTINUOUS
 62
    3
 10
1265.0115
 20
1571.2792
 11
1316.2343
 21
1665.5993
  0
LINE
  8
0-2
  6
CONTINUOUS
 62
    3
 10
1236.2451
 20
1571.2792
 11
1265.0115
 21
1571.2792
  0
LINE
  8
0-2
  6
CONTINUOUS
 62
    3
 10
1221.1892
 20
1571.2792
 11
1261.723
 21
1665.5993
  0
LINE
  8
0-2
  6
CONTINUOUS
 62
    3
 10
1189.9137
 20
1571.2792
 11
1221.1892
 21
1571.2792
  0
LINE
  8
0-2
  6
CONTINUOUS
 62
    3
 10
1222.8195
 20
1665.5993
 11
1189.9137
 21
1571.2792
  0
LINE
  8
0-2
  6
CONTINUOUS
 62
    3
 10
1202.7378
 20
1665.5993
 11
1173.7695
 21
1571.2792
  0
LINE
  8
0-2
  6
CONTINUOUS
 62
    3
 10
1140.6616
 20
1571.2792
 11
1173.7695
 21
1571.2792
  0
LINE
  8
0-2
  6
CONTINUOUS
 62
    3
 10
1140.6616
 20
1571.2792
 11
1161.5549
 21
1665.5993
  0
LINE
  8
0-2
  6
CONTINUOUS
 62
    3
 10
1140.5537
 20
1665.5993
 11
1123.7783
 21
1571.2792
  0
LINE
  8
0-2
  6
CONTINUOUS
 62
    3
 10
1089.5554
 20
1571.2792
 11
1123.7783
 21
1571.2792
  0
LINE
  8
0-2
  6
CONTINUOUS
 62
    3
 10
1089.5554
 20
1571.2792
 11
1097.9837
 21
1665.5993
  0
LINE
  8
0-2
  6
CONTINUOUS
 62
    3
 10
1072.2984
 20
1571.2792
 11
1076.5178
 21
1665.5993
  0
LINE
  8
0-2
  6
CONTINUOUS
 62
    3
 10
1055.0001
 20
1571.2792
 11
1072.2984
 21
1571.2792
  0
LINE
  8
0-2
  6
CONTINUOUS
 62
    3
 10
829.54909
 20
1665.5993
 11
873.75546
 21
1571.2792
  0
LINE
  8
0-2
  6
CONTINUOUS
 62
    3
 10
1280.4512
 20
1665.5993
 11
1236.2449
 21
1571.2792
  0
LINE
  8
0-2
  6
CONTINUOUS
 62
    3
 10
881.21874
 20
1571.2792
 11
881.21874
 21
1475.0505
  0
LINE
  8
0-2
  6
CONTINUOUS
 62
    3
 10
847.48551
 20
1571.2792
 11
847.48551
 21
1475.0505
  0
LINE
  8
0-2
  6
CONTINUOUS
 62
    3
 10
1228.7816
 20
1571.2792
 11
1228.7816
 21
1475.0505
  0
LINE
  8
0-2
  6
CONTINUOUS
 62
    3
 10
1262.5148
 20
1571.2792
 11
1262.5148
 21
1475.0505
  0
LINE
  8
0-2
  6
CONTINUOUS
 62
    7
 10
460.45052
 20
1399.5939
 11
460.45052
 21
2429.5939
  0
LINE
  8
0-2
  6
CONTINUOUS
 62
    7
 10
635.81954
 20
1399.5946
 11
460.45052
 21
1399.5946
  0
LINE
  8
0-2
  6
CONTINUOUS
 62
    3
 10
880.65482
 20
2280.4421
 11
880.80923
 21
2280.43
  0
LINE
  8
0-2
  6
CONTINUOUS
 62
    3
 10
880.80923
 20
2280.43
 11
880.96016
 21
2280.4211
  0
LINE
  8
0-2
  6
CONTINUOUS
 62
    3
 10
880.96016
 20
2280.4211
 11
881.10789
 21
2280.4151
  0
LINE
  8
0-2
  6
CONTINUOUS
 62
    3
 10
881.10789
 20
2280.4151
 11
881.25239
 21
2280.4119
  0
LINE
  8
0-2
  6
CONTINUOUS
 62
    3
 10
881.25239
 20
2280.4119
 11
881.39368
 21
2280.4119
  0
LINE
  8
0-2
  6
CONTINUOUS
 62
    3
 10
881.39368
 20
2280.4119
 11
881.53175
 21
2280.4151
  0
LINE
  8
0-2
  6
CONTINUOUS
 62
    3
 10
881.53175
 20
2280.4151
 11
881.66685
 21
2280.4211
  0
LINE
  8
0-2
  6
CONTINUOUS
 62
    3
 10
881.66685
 20
2280.4211
 11
881.79849
 21
2280.43
  0
LINE
  8
0-2
  6
CONTINUOUS
 62
    3
 10
881.79849
 20
2280.43
 11
881.92716
 21
2280.4421
  0
LINE
  8
0-2
  6
CONTINUOUS
 62
    3
 10
976.25964
 20
2280.2753
 11
976.67286
 21
2280.2466
  0
LINE
  8
0-2
  6
CONTINUOUS
 62
    3
 10
976.67286
 20
2280.2466
 11
977.08856
 21
2280.2266
  0
LINE
  8
0-2
  6
CONTINUOUS
 62
    3
 10
977.08856
 20
2280.2266
 11
977.50673
 21
2280.2152
  0
LINE
  8
0-2
  6
CONTINUOUS
 62
    3
 10
977.50673
 20
2280.2152
 11
977.92763
 21
2280.2117
  0
LINE
  8
0-2
  6
CONTINUOUS
 62
    3
 10
977.92763
 20
2280.2117
 11
978.35149
 21
2280.2162
  0
LINE
  8
0-2
  6
CONTINUOUS
 62
    3
 10
978.35149
 20
2280.2162
 11
978.77758
 21
2280.2286
  0
LINE
  8
0-2
  6
CONTINUOUS
 62
    3
 10
978.77758
 20
2280.2286
 11
979.20665
 21
2280.2501
  0
LINE
  8
0-2
  6
CONTINUOUS
 62
    3
 10
979.20665
 20
2280.2501
 11
979.63793
 21
2280.279
  0
LINE
  8
0-2
  6
CONTINUOUS
 62
    3
 10
979.63793
 20
2280.279
 11
980.07219
 21
2280.3169
  0
LINE
  8
0-2
  6
CONTINUOUS
 62
    3
 10
1133.7407
 20
2280.2753
 11
1133.3275
 21
2280.2466
  0
LINE
  8
0-2
  6
CONTINUOUS
 62
    3
 10
1133.3275
 20
2280.2466
 11
1132.9123
 21
2280.2266
  0
LINE
  8
0-2
  6
CONTINUOUS
 62
    3
 10
1132.9123
 20
2280.2266
 11
1132.4936
 21
2280.2152
  0
LINE
  8
0-2
  6
CONTINUOUS
 62
    3
 10
1132.4936
 20
2280.2152
 11
1132.0725
 21
2280.2117
  0
LINE
  8
0-2
  6
CONTINUOUS
 62
    3
 10
1132.0725
 20
2280.2117
 11
1131.6488
 21
2280.2162
  0
LINE
  8
0-2
  6
CONTINUOUS
 62
    3
 10
1131.6488
 20
2280.2162
 11
1131.2227
 21
2280.2286
  0
LINE
  8
0-2
  6
CONTINUOUS
 62
    3
 10
1131.2227
 20
2280.2286
 11
1130.7939
 21
2280.2501
  0
LINE
  8
0-2
  6
CONTINUOUS
 62
    3
 10
1130.7939
 20
2280.2501
 11
1130.3622
 21
2280.279
  0
LINE
  8
0-2
  6
CONTINUOUS
 62
    3
 10
1130.3622
 20
2280.279
 11
1129.9281
 21
2280.3169
  0
LINE
  8
0-2
  6
CONTINUOUS
 62
    3
 10
1271.1901
 20
2280.4493
 11
1270.8902
 21
2280.4824
  0
LINE
  8
0-2
  6
CONTINUOUS
 62
    3
 10
1270.8902
 20
2280.4824
 11
1270.5952
 21
2280.5297
  0
LINE
  8
0-2
  6
CONTINUOUS
 62
    3
 10
1270.5952
 20
2280.5297
 11
1270.3057
 21
2280.5925
  0
LINE
  8
0-2
  6
CONTINUOUS
 62
    3
 10
1270.3057
 20
2280.5925
 11
1270.0214
 21
2280.669
  0
LINE
  8
0-2
  6
CONTINUOUS
 62
    3
 10
1270.0214
 20
2280.669
 11
1269.7425
 21
2280.7596
  0
LINE
  8
0-2
  6
CONTINUOUS
 62
    3
 10
1269.7425
 20
2280.7596
 11
1269.4681
 21
2280.865
  0
LINE
  8
0-2
  6
CONTINUOUS
 62
    3
 10
1269.4681
 20
2280.865
 11
1269.1994
 21
2280.9852
  0
LINE
  8
0-2
  6
CONTINUOUS
 62
    3
 10
1269.1994
 20
2280.9852
 11
1268.9359
 21
2281.1196
  0
LINE
  8
0-2
  6
CONTINUOUS
 62
    3
 10
1268.9359
 20
2281.1196
 11
1268.6771
 21
2281.268
  0
LINE
  8
0-2
  6
CONTINUOUS
 62
    3
 10
1229.3455
 20
2280.4421
 11
1229.1911
 21
2280.43
  0
LINE
  8
0-2
  6
CONTINUOUS
 62
    3
 10
1229.1911
 20
2280.43
 11
1229.0402
 21
2280.4211
  0
LINE
  8
0-2
  6
CONTINUOUS
 62
    3
 10
1229.0402
 20
2280.4211
 11
1228.8927
 21
2280.4151
  0
LINE
  8
0-2
  6
CONTINUOUS
 62
    3
 10
1228.8927
 20
2280.4151
 11
1228.7477
 21
2280.4119
  0
LINE
  8
0-2
  6
CONTINUOUS
 62
    3
 10
1228.7477
 20
2280.4119
 11
1228.6064
 21
2280.4119
  0
LINE
  8
0-2
  6
CONTINUOUS
 62
    3
 10
1228.6064
 20
2280.4119
 11
1228.4686
 21
2280.4151
  0
LINE
  8
0-2
  6
CONTINUOUS
 62
    3
 10
1228.4686
 20
2280.4151
 11
1228.3335
 21
2280.4211
  0
LINE
  8
0-2
  6
CONTINUOUS
 62
    3
 10
1228.3335
 20
2280.4211
 11
1228.2018
 21
2280.43
  0
LINE
  8
0-2
  6
CONTINUOUS
 62
    3
 10
1228.2018
 20
2280.43
 11
1228.0732
 21
2280.4421
  0
LINE
  8
0-2
  6
CONTINUOUS
 62
    3
 10
976.25964
 20
1579.1169
 11
976.67286
 21
1579.1455
  0
LINE
  8
0-2
  6
CONTINUOUS
 62
    3
 10
976.67286
 20
1579.1455
 11
977.08856
 21
1579.1652
  0
LINE
  8
0-2
  6
CONTINUOUS
 62
    3
 10
977.08856
 20
1579.1652
 11
977.50673
 21
1579.1769
  0
LINE
  8
0-2
  6
CONTINUOUS
 62
    3
 10
977.50673
 20
1579.1769
 11
977.92763
 21
1579.1808
  0
LINE
  8
0-2
  6
CONTINUOUS
 62
    3
 10
977.92763
 20
1579.1808
 11
978.35149
 21
1579.1758
  0
LINE
  8
0-2
  6
CONTINUOUS
 62
    3
 10
978.35149
 20
1579.1758
 11
978.77758
 21
1579.1633
  0
LINE
  8
0-2
  6
CONTINUOUS
 62
    3
 10
978.77758
 20
1579.1633
 11
979.20665
 21
1579.1425
  0
LINE
  8
0-2
  6
CONTINUOUS
 62
    3
 10
979.20665
 20
1579.1425
 11
979.63793
 21
1579.1131
  0
LINE
  8
0-2
  6
CONTINUOUS
 62
    3
 10
979.63793
 20
1579.1131
 11
980.07219
 21
1579.0752
  0
LINE
  8
0-2
  6
CONTINUOUS
 62
    3
 10
1133.7407
 20
1579.1169
 11
1133.3275
 21
1579.1455
  0
LINE
  8
0-2
  6
CONTINUOUS
 62
    3
 10
1133.3275
 20
1579.1455
 11
1132.9123
 21
1579.1652
  0
LINE
  8
0-2
  6
CONTINUOUS
 62
    3
 10
1132.9123
 20
1579.1652
 11
1132.4936
 21
1579.1769
  0
LINE
  8
0-2
  6
CONTINUOUS
 62
    3
 10
1132.4936
 20
1579.1769
 11
1132.0725
 21
1579.1808
  0
LINE
  8
0-2
  6
CONTINUOUS
 62
    3
 10
1132.0725
 20
1579.1808
 11
1131.6488
 21
1579.1758
  0
LINE
  8
0-2
  6
CONTINUOUS
 62
    3
 10
1131.6488
 20
1579.1758
 11
1131.2227
 21
1579.1633
  0
LINE
  8
0-2
  6
CONTINUOUS
 62
    3
 10
1131.2227
 20
1579.1633
 11
1130.7939
 21
1579.1425
  0
LINE
  8
0-2
  6
CONTINUOUS
 62
    3
 10
1130.7939
 20
1579.1425
 11
1130.3622
 21
1579.1131
  0
LINE
  8
0-2
  6
CONTINUOUS
 62
    3
 10
1130.3622
 20
1579.1131
 11
1129.9281
 21
1579.0752
  0
LINE
  8
0-2
  6
CONTINUOUS
 62
    3
 10
880.65482
 20
1578.9495
 11
880.80923
 21
1578.9618
  0
LINE
  8
0-2
  6
CONTINUOUS
 62
    3
 10
880.80923
 20
1578.9618
 11
880.96016
 21
1578.9707
  0
LINE
  8
0-2
  6
CONTINUOUS
 62
    3
 10
880.96016
 20
1578.9707
 11
881.10789
 21
1578.9774
  0
LINE
  8
0-2
  6
CONTINUOUS
 62
    3
 10
881.10789
 20
1578.9774
 11
881.25239
 21
1578.9803
  0
LINE
  8
0-2
  6
CONTINUOUS
 62
    3
 10
881.25239
 20
1578.9803
 11
881.39368
 21
1578.9803
  0
LINE
  8
0-2
  6
CONTINUOUS
 62
    3
 10
881.39368
 20
1578.9803
 11
881.53175
 21
1578.9774
  0
LINE
  8
0-2
  6
CONTINUOUS
 62
    3
 10
881.53175
 20
1578.9774
 11
881.66685
 21
1578.9707
  0
LINE
  8
0-2
  6
CONTINUOUS
 62
    3
 10
881.66685
 20
1578.9707
 11
881.79849
 21
1578.9618
  0
LINE
  8
0-2
  6
CONTINUOUS
 62
    3
 10
881.79849
 20
1578.9618
 11
881.92716
 21
1578.9495
  0
LINE
  8
0-2
  6
CONTINUOUS
 62
    3
 10
1229.3455
 20
1578.9495
 11
1229.1911
 21
1578.9618
  0
LINE
  8
0-2
  6
CONTINUOUS
 62
    3
 10
1229.1911
 20
1578.9618
 11
1229.0402
 21
1578.9707
  0
LINE
  8
0-2
  6
CONTINUOUS
 62
    3
 10
1229.0402
 20
1578.9707
 11
1228.8927
 21
1578.9774
  0
LINE
  8
0-2
  6
CONTINUOUS
 62
    3
 10
1228.8927
 20
1578.9774
 11
1228.7477
 21
1578.9803
  0
LINE
  8
0-2
  6
CONTINUOUS
 62
    3
 10
1228.7477
 20
1578.9803
 11
1228.6064
 21
1578.9803
  0
LINE
  8
0-2
  6
CONTINUOUS
 62
    3
 10
1228.6064
 20
1578.9803
 11
1228.4686
 21
1578.9774
  0
LINE
  8
0-2
  6
CONTINUOUS
 62
    3
 10
1228.4686
 20
1578.9774
 11
1228.3335
 21
1578.9707
  0
LINE
  8
0-2
  6
CONTINUOUS
 62
    3
 10
1228.3335
 20
1578.9707
 11
1228.2018
 21
1578.9618
  0
LINE
  8
0-2
  6
CONTINUOUS
 62
    3
 10
1228.2018
 20
1578.9618
 11
1228.0732
 21
1578.9495
  0
LINE
  8
0-2
  6
CONTINUOUS
 62
    7
 10
797.50106
 20
1285.6895
 11
1312.5009
 21
1285.6894
  0
LINE
  8
0-2
  6
CONTINUOUS
 62
    7
 10
797.50106
 20
1285.6895
 11
797.50106
 21
1379.2948
  0
LINE
  8
0-2
  6
CONTINUOUS
 62
    7
 10
1312.5009
 20
1379.2948
 11
1312.5009
 21
1285.6894
  0
LINE
  8
0-2
  6
CONTINUOUS
 62
    7
 10
927.40388
 20
2429.5939
 11
460.45052
 21
2429.5939
  0
LINE
  8
0-2
  6
CONTINUOUS
 62
    3
 10
1055.0001
 20
2429.5939
 11
832.68539
 21
2286.0399
  0
LINE
  8
0-2
  6
CONTINUOUS
 62
    3
 10
1312.5
 20
1456.1866
 11
1312.501
 21
1418.457
  0
LINE
  8
0-2
  6
CONTINUOUS
 62
    3
 10
797.50025
 20
1399.5939
 11
1312.5003
 21
1399.5939
  0
LINE
  8
0-2
  6
CONTINUOUS
 62
    3
 10
797.49902
 20
1475.0499
 11
1312.5003
 21
1475.0499
  0
LINE
  8
0-2
  6
CONTINUOUS
 62
    3
 10
797.50025
 20
1409.5939
 11
1312.5003
 21
1409.5939
  0
LINE
  8
0-2
  6
CONTINUOUS
 62
    3
 10
797.49865
 20
1465.0499
 11
797.5005
 21
1409.5939
  0
LINE
  8
0-2
  6
CONTINUOUS
 62
    3
 10
797.49902
 20
1465.0499
 11
1312.5003
 21
1465.0499
  0
LINE
  8
0-2
  6
CONTINUOUS
 62
    3
 10
1312.502
 20
1465.0499
 11
1312.5
 21
1409.5939
  0
LINE
  8
0-2
  6
CONTINUOUS
 62
    3
 10
1316.2197
 20
1571.2792
 11
1338.3116
 21
1571.2792
  0
LINE
  8
0-2
  6
CONTINUOUS
 62
    3
 10
1407.233
 20
1665.5993
 11
1338.3116
 21
1571.2792
  0
LINE
  8
0-2
  6
CENTER2
 62
    7
 10
1055.0001
 20
2429.5939
 11
1055.0001
 21
1399.5939
  0
LINE
  8
0-2
  6
CONTINUOUS
 62
    3
 10
624.9015
 20
1797.6482
 11
623.43717
 21
1797.5049
  0
LINE
  8
0-2
  6
CONTINUOUS
 62
    3
 10
623.43717
 20
1797.5049
 11
622.01733
 21
1797.0794
  0
LINE
  8
0-2
  6
CONTINUOUS
 62
    3
 10
622.01733
 20
1797.0794
 11
620.68512
 21
1796.3846
  0
LINE
  8
0-2
  6
CONTINUOUS
 62
    3
 10
620.68512
 20
1796.3846
 11
619.48102
 21
1795.4416
  0
LINE
  8
0-2
  6
CONTINUOUS
 62
    3
 10
619.48102
 20
1795.4416
 11
618.44162
 21
1794.2791
  0
LINE
  8
0-2
  6
CONTINUOUS
 62
    3
 10
618.44162
 20
1794.2791
 11
617.59851
 21
1792.9324
  0
LINE
  8
0-2
  6
CONTINUOUS
 62
    3
 10
617.59851
 20
1792.9324
 11
616.97729
 21
1791.4424
  0
LINE
  8
0-2
  6
CONTINUOUS
 62
    3
 10
616.97729
 20
1791.4424
 11
616.59684
 21
1789.8544
  0
LINE
  8
0-2
  6
CONTINUOUS
 62
    3
 10
616.59684
 20
1789.8544
 11
616.46873
 21
1788.2166
  0
LINE
  8
0-2
  6
CONTINUOUS
 62
    3
 10
616.46873
 20
1788.2166
 11
616.59684
 21
1786.5788
  0
LINE
  8
0-2
  6
CONTINUOUS
 62
    3
 10
616.59684
 20
1786.5788
 11
616.97729
 21
1784.9908
  0
LINE
  8
0-2
  6
CONTINUOUS
 62
    3
 10
616.97729
 20
1784.9908
 11
617.59851
 21
1783.5008
  0
LINE
  8
0-2
  6
CONTINUOUS
 62
    3
 10
617.59851
 20
1783.5008
 11
618.44162
 21
1782.1541
  0
LINE
  8
0-2
  6
CONTINUOUS
 62
    3
 10
618.44162
 20
1782.1541
 11
619.48102
 21
1780.9916
  0
LINE
  8
0-2
  6
CONTINUOUS
 62
    3
 10
619.48102
 20
1780.9916
 11
620.68512
 21
1780.0486
  0
LINE
  8
0-2
  6
CONTINUOUS
 62
    3
 10
620.68512
 20
1780.0486
 11
622.01733
 21
1779.3538
  0
LINE
  8
0-2
  6
CONTINUOUS
 62
    3
 10
622.01733
 20
1779.3538
 11
623.43717
 21
1778.9283
  0
LINE
  8
0-2
  6
CONTINUOUS
 62
    3
 10
623.43717
 20
1778.9283
 11
624.9015
 21
1778.785
  0
LINE
  8
0-2
  6
CONTINUOUS
 62
    3
 10
624.90027
 20
1684.4623
 11
623.43593
 21
1684.319
  0
LINE
  8
0-2
  6
CONTINUOUS
 62
    3
 10
623.43593
 20
1684.319
 11
622.01609
 21
1683.8935
  0
LINE
  8
0-2
  6
CONTINUOUS
 62
    3
 10
622.01609
 20
1683.8935
 11
620.68388
 21
1683.1987
  0
LINE
  8
0-2
  6
CONTINUOUS
 62
    3
 10
620.68388
 20
1683.1987
 11
619.47978
 21
1682.2557
  0
LINE
  8
0-2
  6
CONTINUOUS
 62
    3
 10
619.47978
 20
1682.2557
 11
618.44039
 21
1681.0932
  0
LINE
  8
0-2
  6
CONTINUOUS
 62
    3
 10
618.44039
 20
1681.0932
 11
617.59727
 21
1679.7465
  0
LINE
  8
0-2
  6
CONTINUOUS
 62
    3
 10
617.59727
 20
1679.7465
 11
616.97605
 21
1678.2565
  0
LINE
  8
0-2
  6
CONTINUOUS
 62
    3
 10
616.97605
 20
1678.2565
 11
616.59561
 21
1676.6685
  0
LINE
  8
0-2
  6
CONTINUOUS
 62
    3
 10
616.59561
 20
1676.6685
 11
616.46749
 21
1675.0307
  0
LINE
  8
0-2
  6
CONTINUOUS
 62
    3
 10
616.46749
 20
1675.0307
 11
616.59561
 21
1673.3929
  0
LINE
  8
0-2
  6
CONTINUOUS
 62
    3
 10
616.59561
 20
1673.3929
 11
616.97605
 21
1671.8049
  0
LINE
  8
0-2
  6
CONTINUOUS
 62
    3
 10
616.97605
 20
1671.8049
 11
617.59727
 21
1670.3149
  0
LINE
  8
0-2
  6
CONTINUOUS
 62
    3
 10
617.59727
 20
1670.3149
 11
618.44039
 21
1668.9682
  0
LINE
  8
0-2
  6
CONTINUOUS
 62
    3
 10
618.44039
 20
1668.9682
 11
619.47978
 21
1667.8057
  0
LINE
  8
0-2
  6
CONTINUOUS
 62
    3
 10
619.47978
 20
1667.8057
 11
620.68388
 21
1666.8627
  0
LINE
  8
0-2
  6
CONTINUOUS
 62
    3
 10
620.68388
 20
1666.8627
 11
622.01609
 21
1666.1679
  0
LINE
  8
0-2
  6
CONTINUOUS
 62
    3
 10
622.01609
 20
1666.1679
 11
623.43593
 21
1665.7424
  0
LINE
  8
0-2
  6
CONTINUOUS
 62
    3
 10
623.43593
 20
1665.7424
 11
624.90027
 21
1665.5991
  0
LINE
  8
0-2
  6
CONTINUOUS
 62
    3
 10
1485.1011
 20
1778.785
 11
1486.5654
 21
1778.9283
  0
LINE
  8
0-2
  6
CONTINUOUS
 62
    3
 10
1486.5654
 20
1778.9283
 11
1487.9852
 21
1779.3538
  0
LINE
  8
0-2
  6
CONTINUOUS
 62
    3
 10
1487.9852
 20
1779.3538
 11
1489.3174
 21
1780.0486
  0
LINE
  8
0-2
  6
CONTINUOUS
 62
    3
 10
1489.3174
 20
1780.0486
 11
1490.5215
 21
1780.9916
  0
LINE
  8
0-2
  6
CONTINUOUS
 62
    3
 10
1490.5215
 20
1780.9916
 11
1491.5609
 21
1782.1541
  0
LINE
  8
0-2
  6
CONTINUOUS
 62
    3
 10
1491.5609
 20
1782.1541
 11
1492.4041
 21
1783.5008
  0
LINE
  8
0-2
  6
CONTINUOUS
 62
    3
 10
1492.4041
 20
1783.5008
 11
1493.0253
 21
1784.9908
  0
LINE
  8
0-2
  6
CONTINUOUS
 62
    3
 10
1493.0253
 20
1784.9908
 11
1493.4057
 21
1786.5788
  0
LINE
  8
0-2
  6
CONTINUOUS
 62
    3
 10
1493.4057
 20
1786.5788
 11
1493.5338
 21
1788.2166
  0
LINE
  8
0-2
  6
CONTINUOUS
 62
    3
 10
1493.5338
 20
1788.2166
 11
1493.4057
 21
1789.8544
  0
LINE
  8
0-2
  6
CONTINUOUS
 62
    3
 10
1493.4057
 20
1789.8544
 11
1493.0253
 21
1791.4424
  0
LINE
  8
0-2
  6
CONTINUOUS
 62
    3
 10
1493.0253
 20
1791.4424
 11
1492.4041
 21
1792.9324
  0
LINE
  8
0-2
  6
CONTINUOUS
 62
    3
 10
1492.4041
 20
1792.9324
 11
1491.5609
 21
1794.2791
  0
LINE
  8
0-2
  6
CONTINUOUS
 62
    3
 10
1491.5609
 20
1794.2791
 11
1490.5215
 21
1795.4416
  0
LINE
  8
0-2
  6
CONTINUOUS
 62
    3
 10
1490.5215
 20
1795.4416
 11
1489.3174
 21
1796.3846
  0
LINE
  8
0-2
  6
CONTINUOUS
 62
    3
 10
1489.3174
 20
1796.3846
 11
1487.9852
 21
1797.0794
  0
LINE
  8
0-2
  6
CONTINUOUS
 62
    3
 10
1487.9852
 20
1797.0794
 11
1486.5654
 21
1797.5049
  0
LINE
  8
0-2
  6
CONTINUOUS
 62
    3
 10
1486.5654
 20
1797.5049
 11
1485.1011
 21
1797.6482
  0
LINE
  8
0-2
  6
CONTINUOUS
 62
    3
 10
1485.0998
 20
1665.5991
 11
1486.5642
 21
1665.7424
  0
LINE
  8
0-2
  6
CONTINUOUS
 62
    3
 10
1486.5642
 20
1665.7424
 11
1487.984
 21
1666.1679
  0
LINE
  8
0-2
  6
CONTINUOUS
 62
    3
 10
1487.984
 20
1666.1679
 11
1489.3162
 21
1666.8627
  0
LINE
  8
0-2
  6
CONTINUOUS
 62
    3
 10
1489.3162
 20
1666.8627
 11
1490.5203
 21
1667.8057
  0
LINE
  8
0-2
  6
CONTINUOUS
 62
    3
 10
1490.5203
 20
1667.8057
 11
1491.5597
 21
1668.9682
  0
LINE
  8
0-2
  6
CONTINUOUS
 62
    3
 10
1491.5597
 20
1668.9682
 11
1492.4028
 21
1670.3149
  0
LINE
  8
0-2
  6
CONTINUOUS
 62
    3
 10
1492.4028
 20
1670.3149
 11
1493.024
 21
1671.8049
  0
LINE
  8
0-2
  6
CONTINUOUS
 62
    3
 10
1493.024
 20
1671.8049
 11
1493.4045
 21
1673.3929
  0
LINE
  8
0-2
  6
CONTINUOUS
 62
    3
 10
1493.4045
 20
1673.3929
 11
1493.5326
 21
1675.0307
  0
LINE
  8
0-2
  6
CONTINUOUS
 62
    3
 10
1493.5326
 20
1675.0307
 11
1493.4045
 21
1676.6685
  0
LINE
  8
0-2
  6
CONTINUOUS
 62
    3
 10
1493.4045
 20
1676.6685
 11
1493.024
 21
1678.2565
  0
LINE
  8
0-2
  6
CONTINUOUS
 62
    3
 10
1493.024
 20
1678.2565
 11
1492.4028
 21
1679.7465
  0
LINE
  8
0-2
  6
CONTINUOUS
 62
    3
 10
1492.4028
 20
1679.7465
 11
1491.5597
 21
1681.0932
  0
LINE
  8
0-2
  6
CONTINUOUS
 62
    3
 10
1491.5597
 20
1681.0932
 11
1490.5203
 21
1682.2557
  0
LINE
  8
0-2
  6
CONTINUOUS
 62
    3
 10
1490.5203
 20
1682.2557
 11
1489.3162
 21
1683.1987
  0
LINE
  8
0-2
  6
CONTINUOUS
 62
    3
 10
1489.3162
 20
1683.1987
 11
1487.984
 21
1683.8935
  0
LINE
  8
0-2
  6
CONTINUOUS
 62
    3
 10
1487.984
 20
1683.8935
 11
1486.5642
 21
1684.319
  0
LINE
  8
0-2
  6
CONTINUOUS
 62
    3
 10
1486.5642
 20
1684.319
 11
1485.0998
 21
1684.4623
  0
LINE
  8
0-2
  6
CONTINUOUS
 62
    3
 10
624.90002
 20
2193.7925
 11
623.43568
 21
2193.6492
  0
LINE
  8
0-2
  6
CONTINUOUS
 62
    3
 10
623.43568
 20
2193.6492
 11
622.01584
 21
2193.2237
  0
LINE
  8
0-2
  6
CONTINUOUS
 62
    3
 10
622.01584
 20
2193.2237
 11
620.68363
 21
2192.5289
  0
LINE
  8
0-2
  6
CONTINUOUS
 62
    3
 10
620.68363
 20
2192.5289
 11
619.47954
 21
2191.586
  0
LINE
  8
0-2
  6
CONTINUOUS
 62
    3
 10
619.47954
 20
2191.586
 11
618.44014
 21
2190.4235
  0
LINE
  8
0-2
  6
CONTINUOUS
 62
    3
 10
618.44014
 20
2190.4235
 11
617.59702
 21
2189.0767
  0
LINE
  8
0-2
  6
CONTINUOUS
 62
    3
 10
617.59702
 20
2189.0767
 11
616.9758
 21
2187.5867
  0
LINE
  8
0-2
  6
CONTINUOUS
 62
    3
 10
616.9758
 20
2187.5867
 11
616.59536
 21
2185.9987
  0
LINE
  8
0-2
  6
CONTINUOUS
 62
    3
 10
616.59536
 20
2185.9987
 11
616.46725
 21
2184.361
  0
LINE
  8
0-2
  6
CONTINUOUS
 62
    3
 10
616.46725
 20
2184.361
 11
616.59536
 21
2182.7232
  0
LINE
  8
0-2
  6
CONTINUOUS
 62
    3
 10
616.59536
 20
2182.7232
 11
616.9758
 21
2181.1352
  0
LINE
  8
0-2
  6
CONTINUOUS
 62
    3
 10
616.9758
 20
2181.1352
 11
617.59702
 21
2179.6452
  0
LINE
  8
0-2
  6
CONTINUOUS
 62
    3
 10
617.59702
 20
2179.6452
 11
618.44014
 21
2178.2985
  0
LINE
  8
0-2
  6
CONTINUOUS
 62
    3
 10
618.44014
 20
2178.2985
 11
619.47954
 21
2177.1359
  0
LINE
  8
0-2
  6
CONTINUOUS
 62
    3
 10
619.47954
 20
2177.1359
 11
620.68363
 21
2176.193
  0
LINE
  8
0-2
  6
CONTINUOUS
 62
    3
 10
620.68363
 20
2176.193
 11
622.01584
 21
2175.4982
  0
LINE
  8
0-2
  6
CONTINUOUS
 62
    3
 10
622.01584
 20
2175.4982
 11
623.43568
 21
2175.0727
  0
LINE
  8
0-2
  6
CONTINUOUS
 62
    3
 10
623.43568
 20
2175.0727
 11
624.90002
 21
2174.9294
  0
LINE
  8
0-2
  6
CONTINUOUS
 62
    3
 10
624.90002
 20
2080.6075
 11
623.43568
 21
2080.4642
  0
LINE
  8
0-2
  6
CONTINUOUS
 62
    3
 10
623.43568
 20
2080.4642
 11
622.01584
 21
2080.0387
  0
LINE
  8
0-2
  6
CONTINUOUS
 62
    3
 10
622.01584
 20
2080.0387
 11
620.68363
 21
2079.3439
  0
LINE
  8
0-2
  6
CONTINUOUS
 62
    3
 10
620.68363
 20
2079.3439
 11
619.47954
 21
2078.4009
  0
LINE
  8
0-2
  6
CONTINUOUS
 62
    3
 10
619.47954
 20
2078.4009
 11
618.44014
 21
2077.2384
  0
LINE
  8
0-2
  6
CONTINUOUS
 62
    3
 10
618.44014
 20
2077.2384
 11
617.59702
 21
2075.8917
  0
LINE
  8
0-2
  6
CONTINUOUS
 62
    3
 10
617.59702
 20
2075.8917
 11
616.9758
 21
2074.4017
  0
LINE
  8
0-2
  6
CONTINUOUS
 62
    3
 10
616.9758
 20
2074.4017
 11
616.59536
 21
2072.8137
  0
LINE
  8
0-2
  6
CONTINUOUS
 62
    3
 10
616.59536
 20
2072.8137
 11
616.46725
 21
2071.1759
  0
LINE
  8
0-2
  6
CONTINUOUS
 62
    3
 10
616.46725
 20
2071.1759
 11
616.59536
 21
2069.5381
  0
LINE
  8
0-2
  6
CONTINUOUS
 62
    3
 10
616.59536
 20
2069.5381
 11
616.9758
 21
2067.9501
  0
LINE
  8
0-2
  6
CONTINUOUS
 62
    3
 10
616.9758
 20
2067.9501
 11
617.59702
 21
2066.4601
  0
LINE
  8
0-2
  6
CONTINUOUS
 62
    3
 10
617.59702
 20
2066.4601
 11
618.44014
 21
2065.1134
  0
LINE
  8
0-2
  6
CONTINUOUS
 62
    3
 10
618.44014
 20
2065.1134
 11
619.47954
 21
2063.9509
  0
LINE
  8
0-2
  6
CONTINUOUS
 62
    3
 10
619.47954
 20
2063.9509
 11
620.68363
 21
2063.0079
  0
LINE
  8
0-2
  6
CONTINUOUS
 62
    3
 10
620.68363
 20
2063.0079
 11
622.01584
 21
2062.3131
  0
LINE
  8
0-2
  6
CONTINUOUS
 62
    3
 10
622.01584
 20
2062.3131
 11
623.43568
 21
2061.8876
  0
LINE
  8
0-2
  6
CONTINUOUS
 62
    3
 10
623.43568
 20
2061.8876
 11
624.90002
 21
2061.7443
  0
LINE
  8
0-2
  6
CONTINUOUS
 62
    3
 10
1485.0998
 20
2174.9294
 11
1486.5642
 21
2175.0727
  0
LINE
  8
0-2
  6
CONTINUOUS
 62
    3
 10
1486.5642
 20
2175.0727
 11
1487.984
 21
2175.4982
  0
LINE
  8
0-2
  6
CONTINUOUS
 62
    3
 10
1487.984
 20
2175.4982
 11
1489.3162
 21
2176.193
  0
LINE
  8
0-2
  6
CONTINUOUS
 62
    3
 10
1489.3162
 20
2176.193
 11
1490.5203
 21
2177.1359
  0
LINE
  8
0-2
  6
CONTINUOUS
 62
    3
 10
1490.5203
 20
2177.1359
 11
1491.5597
 21
2178.2985
  0
LINE
  8
0-2
  6
CONTINUOUS
 62
    3
 10
1491.5597
 20
2178.2985
 11
1492.4028
 21
2179.6452
  0
LINE
  8
0-2
  6
CONTINUOUS
 62
    3
 10
1492.4028
 20
2179.6452
 11
1493.024
 21
2181.1352
  0
LINE
  8
0-2
  6
CONTINUOUS
 62
    3
 10
1493.024
 20
2181.1352
 11
1493.4045
 21
2182.7232
  0
LINE
  8
0-2
  6
CONTINUOUS
 62
    3
 10
1493.4045
 20
2182.7232
 11
1493.5326
 21
2184.361
  0
LINE
  8
0-2
  6
CONTINUOUS
 62
    3
 10
1493.5326
 20
2184.361
 11
1493.4045
 21
2185.9987
  0
LINE
  8
0-2
  6
CONTINUOUS
 62
    3
 10
1493.4045
 20
2185.9987
 11
1493.024
 21
2187.5867
  0
LINE
  8
0-2
  6
CONTINUOUS
 62
    3
 10
1493.024
 20
2187.5867
 11
1492.4028
 21
2189.0767
  0
LINE
  8
0-2
  6
CONTINUOUS
 62
    3
 10
1492.4028
 20
2189.0767
 11
1491.5597
 21
2190.4235
  0
LINE
  8
0-2
  6
CONTINUOUS
 62
    3
 10
1491.5597
 20
2190.4235
 11
1490.5203
 21
2191.586
  0
LINE
  8
0-2
  6
CONTINUOUS
 62
    3
 10
1490.5203
 20
2191.586
 11
1489.3162
 21
2192.5289
  0
LINE
  8
0-2
  6
CONTINUOUS
 62
    3
 10
1489.3162
 20
2192.5289
 11
1487.984
 21
2193.2237
  0
LINE
  8
0-2
  6
CONTINUOUS
 62
    3
 10
1487.984
 20
2193.2237
 11
1486.5642
 21
2193.6492
  0
LINE
  8
0-2
  6
CONTINUOUS
 62
    3
 10
1486.5642
 20
2193.6492
 11
1485.0998
 21
2193.7925
  0
LINE
  8
0-2
  6
CONTINUOUS
 62
    3
 10
1485.0998
 20
2061.7443
 11
1486.5642
 21
2061.8876
  0
LINE
  8
0-2
  6
CONTINUOUS
 62
    3
 10
1486.5642
 20
2061.8876
 11
1487.984
 21
2062.3131
  0
LINE
  8
0-2
  6
CONTINUOUS
 62
    3
 10
1487.984
 20
2062.3131
 11
1489.3162
 21
2063.0079
  0
LINE
  8
0-2
  6
CONTINUOUS
 62
    3
 10
1489.3162
 20
2063.0079
 11
1490.5203
 21
2063.9509
  0
LINE
  8
0-2
  6
CONTINUOUS
 62
    3
 10
1490.5203
 20
2063.9509
 11
1491.5597
 21
2065.1134
  0
LINE
  8
0-2
  6
CONTINUOUS
 62
    3
 10
1491.5597
 20
2065.1134
 11
1492.4028
 21
2066.4601
  0
LINE
  8
0-2
  6
CONTINUOUS
 62
    3
 10
1492.4028
 20
2066.4601
 11
1493.024
 21
2067.9501
  0
LINE
  8
0-2
  6
CONTINUOUS
 62
    3
 10
1493.024
 20
2067.9501
 11
1493.4045
 21
2069.5381
  0
LINE
  8
0-2
  6
CONTINUOUS
 62
    3
 10
1493.4045
 20
2069.5381
 11
1493.5326
 21
2071.1759
  0
LINE
  8
0-2
  6
CONTINUOUS
 62
    3
 10
1493.5326
 20
2071.1759
 11
1493.4045
 21
2072.8137
  0
LINE
  8
0-2
  6
CONTINUOUS
 62
    3
 10
1493.4045
 20
2072.8137
 11
1493.024
 21
2074.4017
  0
LINE
  8
0-2
  6
CONTINUOUS
 62
    3
 10
1493.024
 20
2074.4017
 11
1492.4028
 21
2075.8917
  0
LINE
  8
0-2
  6
CONTINUOUS
 62
    3
 10
1492.4028
 20
2075.8917
 11
1491.5597
 21
2077.2384
  0
LINE
  8
0-2
  6
CONTINUOUS
 62
    3
 10
1491.5597
 20
2077.2384
 11
1490.5203
 21
2078.4009
  0
LINE
  8
0-2
  6
CONTINUOUS
 62
    3
 10
1490.5203
 20
2078.4009
 11
1489.3162
 21
2079.3439
  0
LINE
  8
0-2
  6
CONTINUOUS
 62
    3
 10
1489.3162
 20
2079.3439
 11
1487.984
 21
2080.0387
  0
LINE
  8
0-2
  6
CONTINUOUS
 62
    3
 10
1487.984
 20
2080.0387
 11
1486.5642
 21
2080.4642
  0
LINE
  8
0-2
  6
CONTINUOUS
 62
    3
 10
1486.5642
 20
2080.4642
 11
1485.0998
 21
2080.6075
  0
LINE
  8
0-2
  6
CONTINUOUS
 62
    3
 10
1020.4449
 20
2288.1129
 11
1020.8867
 21
2286.4676
  0
LINE
  8
0-2
  6
CONTINUOUS
 62
    3
 10
1020.8867
 20
2286.4676
 11
1021.5772
 21
2284.9331
  0
LINE
  8
0-2
  6
CONTINUOUS
 62
    3
 10
1021.5772
 20
2284.9331
 11
1022.4955
 21
2283.5559
  0
LINE
  8
0-2
  6
CONTINUOUS
 62
    3
 10
1022.4955
 20
2283.5559
 11
1023.6137
 21
2282.3781
  0
LINE
  8
0-2
  6
CONTINUOUS
 62
    3
 10
1023.6137
 20
2282.3781
 11
1024.8977
 21
2281.4353
  0
LINE
  8
0-2
  6
CONTINUOUS
 62
    3
 10
1024.8977
 20
2281.4353
 11
1026.3087
 21
2280.7562
  0
LINE
  8
0-2
  6
CONTINUOUS
 62
    3
 10
1026.3087
 20
2280.7562
 11
1027.8036
 21
2280.3615
  0
LINE
  8
0-2
  6
CONTINUOUS
 62
    3
 10
1027.8036
 20
2280.3615
 11
1029.3371
 21
2280.2631
  0
LINE
  8
0-2
  6
CONTINUOUS
 62
    3
 10
1029.3371
 20
2280.2631
 11
1030.8625
 21
2280.464
  0
LINE
  8
0-2
  6
CONTINUOUS
 62
    3
 10
1030.8625
 20
2280.464
 11
1032.3336
 21
2280.9582
  0
LINE
  8
0-2
  6
CONTINUOUS
 62
    3
 10
1032.3336
 20
2280.9582
 11
1033.7057
 21
2281.7305
  0
LINE
  8
0-2
  6
CONTINUOUS
 62
    3
 10
1033.7057
 20
2281.7305
 11
1034.9369
 21
2282.7576
  0
LINE
  8
0-2
  6
CONTINUOUS
 62
    3
 10
1034.9369
 20
2282.7576
 11
1035.9901
 21
2284.0082
  0
LINE
  8
0-2
  6
CONTINUOUS
 62
    3
 10
1035.9901
 20
2284.0082
 11
1036.833
 21
2285.4443
  0
LINE
  8
0-2
  6
CONTINUOUS
 62
    3
 10
1036.833
 20
2285.4443
 11
1037.4402
 21
2287.0223
  0
LINE
  8
0-2
  6
CONTINUOUS
 62
    3
 10
1037.4402
 20
2287.0223
 11
1037.7014
 21
2288.1129
  0
LINE
  8
0-2
  6
CONTINUOUS
 62
    3
 10
1072.2988
 20
2288.1129
 11
1072.7407
 21
2286.4676
  0
LINE
  8
0-2
  6
CONTINUOUS
 62
    3
 10
1072.7407
 20
2286.4676
 11
1073.4312
 21
2284.9331
  0
LINE
  8
0-2
  6
CONTINUOUS
 62
    3
 10
1073.4312
 20
2284.9331
 11
1074.3495
 21
2283.5559
  0
LINE
  8
0-2
  6
CONTINUOUS
 62
    3
 10
1074.3495
 20
2283.5559
 11
1075.4677
 21
2282.3781
  0
LINE
  8
0-2
  6
CONTINUOUS
 62
    3
 10
1075.4677
 20
2282.3781
 11
1076.7517
 21
2281.4353
  0
LINE
  8
0-2
  6
CONTINUOUS
 62
    3
 10
1076.7517
 20
2281.4353
 11
1078.1626
 21
2280.7562
  0
LINE
  8
0-2
  6
CONTINUOUS
 62
    3
 10
1078.1626
 20
2280.7562
 11
1079.6576
 21
2280.3615
  0
LINE
  8
0-2
  6
CONTINUOUS
 62
    3
 10
1079.6576
 20
2280.3615
 11
1081.1911
 21
2280.2631
  0
LINE
  8
0-2
  6
CONTINUOUS
 62
    3
 10
1081.1911
 20
2280.2631
 11
1082.7165
 21
2280.464
  0
LINE
  8
0-2
  6
CONTINUOUS
 62
    3
 10
1082.7165
 20
2280.464
 11
1084.1876
 21
2280.9582
  0
LINE
  8
0-2
  6
CONTINUOUS
 62
    3
 10
1084.1876
 20
2280.9582
 11
1085.5597
 21
2281.7305
  0
LINE
  8
0-2
  6
CONTINUOUS
 62
    3
 10
1085.5597
 20
2281.7305
 11
1086.7909
 21
2282.7576
  0
LINE
  8
0-2
  6
CONTINUOUS
 62
    3
 10
1086.7909
 20
2282.7576
 11
1087.844
 21
2284.0082
  0
LINE
  8
0-2
  6
CONTINUOUS
 62
    3
 10
1087.844
 20
2284.0082
 11
1088.687
 21
2285.4443
  0
LINE
  8
0-2
  6
CONTINUOUS
 62
    3
 10
1088.687
 20
2285.4443
 11
1089.2941
 21
2287.0223
  0
LINE
  8
0-2
  6
CONTINUOUS
 62
    3
 10
1089.2941
 20
2287.0223
 11
1089.5554
 21
2288.1129
  0
LINE
  8
0-2
  6
CONTINUOUS
 62
    3
 10
804.72024
 20
2089.2864
 11
804.64337
 21
2090.2691
  0
LINE
  8
0-2
  6
CONTINUOUS
 62
    3
 10
804.64337
 20
2090.2691
 11
804.41509
 21
2091.222
  0
LINE
  8
0-2
  6
CONTINUOUS
 62
    3
 10
804.41509
 20
2091.222
 11
804.04234
 21
2092.116
  0
LINE
  8
0-2
  6
CONTINUOUS
 62
    3
 10
804.04234
 20
2092.116
 11
803.53645
 21
2092.9241
  0
LINE
  8
0-2
  6
CONTINUOUS
 62
    3
 10
803.53645
 20
2092.9241
 11
802.91278
 21
2093.6216
  0
LINE
  8
0-2
  6
CONTINUOUS
 62
    3
 10
802.91278
 20
2093.6216
 11
802.19029
 21
2094.1874
  0
LINE
  8
0-2
  6
CONTINUOUS
 62
    3
 10
802.19029
 20
2094.1874
 11
801.39093
 21
2094.6043
  0
LINE
  8
0-2
  6
CONTINUOUS
 62
    3
 10
801.39093
 20
2094.6043
 11
800.53898
 21
2094.8596
  0
LINE
  8
0-2
  6
CONTINUOUS
 62
    3
 10
800.53898
 20
2094.8596
 11
799.66034
 21
2094.9456
  0
LINE
  8
0-2
  6
CONTINUOUS
 62
    3
 10
799.66034
 20
2094.9456
 11
798.7817
 21
2094.8596
  0
LINE
  8
0-2
  6
CONTINUOUS
 62
    3
 10
798.7817
 20
2094.8596
 11
797.92975
 21
2094.6043
  0
LINE
  8
0-2
  6
CONTINUOUS
 62
    3
 10
797.92975
 20
2094.6043
 11
797.13039
 21
2094.1874
  0
LINE
  8
0-2
  6
CONTINUOUS
 62
    3
 10
797.13039
 20
2094.1874
 11
796.4079
 21
2093.6216
  0
LINE
  8
0-2
  6
CONTINUOUS
 62
    3
 10
796.4079
 20
2093.6216
 11
795.78424
 21
2092.9241
  0
LINE
  8
0-2
  6
CONTINUOUS
 62
    3
 10
795.78424
 20
2092.9241
 11
795.27834
 21
2092.116
  0
LINE
  8
0-2
  6
CONTINUOUS
 62
    3
 10
795.27834
 20
2092.116
 11
794.90559
 21
2091.222
  0
LINE
  8
0-2
  6
CONTINUOUS
 62
    3
 10
794.90559
 20
2091.222
 11
794.67731
 21
2090.2691
  0
LINE
  8
0-2
  6
CONTINUOUS
 62
    3
 10
794.67731
 20
2090.2691
 11
794.60044
 21
2089.2864
  0
LINE
  8
0-2
  6
CONTINUOUS
 62
    3
 10
794.60044
 20
2089.2864
 11
794.67731
 21
2088.3037
  0
LINE
  8
0-2
  6
CONTINUOUS
 62
    3
 10
794.67731
 20
2088.3037
 11
794.90559
 21
2087.3508
  0
LINE
  8
0-2
  6
CONTINUOUS
 62
    3
 10
794.90559
 20
2087.3508
 11
795.27834
 21
2086.4568
  0
LINE
  8
0-2
  6
CONTINUOUS
 62
    3
 10
795.27834
 20
2086.4568
 11
795.78424
 21
2085.6487
  0
LINE
  8
0-2
  6
CONTINUOUS
 62
    3
 10
795.78424
 20
2085.6487
 11
796.4079
 21
2084.9512
  0
LINE
  8
0-2
  6
CONTINUOUS
 62
    3
 10
796.4079
 20
2084.9512
 11
797.13039
 21
2084.3854
  0
LINE
  8
0-2
  6
CONTINUOUS
 62
    3
 10
797.13039
 20
2084.3854
 11
797.92975
 21
2083.9685
  0
LINE
  8
0-2
  6
CONTINUOUS
 62
    3
 10
797.92975
 20
2083.9685
 11
798.7817
 21
2083.7132
  0
LINE
  8
0-2
  6
CONTINUOUS
 62
    3
 10
798.7817
 20
2083.7132
 11
799.66034
 21
2083.6272
  0
LINE
  8
0-2
  6
CONTINUOUS
 62
    3
 10
799.66034
 20
2083.6272
 11
800.53898
 21
2083.7132
  0
LINE
  8
0-2
  6
CONTINUOUS
 62
    3
 10
800.53898
 20
2083.7132
 11
801.39093
 21
2083.9685
  0
LINE
  8
0-2
  6
CONTINUOUS
 62
    3
 10
801.39093
 20
2083.9685
 11
802.19029
 21
2084.3854
  0
LINE
  8
0-2
  6
CONTINUOUS
 62
    3
 10
802.19029
 20
2084.3854
 11
802.91278
 21
2084.9512
  0
LINE
  8
0-2
  6
CONTINUOUS
 62
    3
 10
802.91278
 20
2084.9512
 11
803.53645
 21
2085.6487
  0
LINE
  8
0-2
  6
CONTINUOUS
 62
    3
 10
803.53645
 20
2085.6487
 11
804.04234
 21
2086.4568
  0
LINE
  8
0-2
  6
CONTINUOUS
 62
    3
 10
804.04234
 20
2086.4568
 11
804.41509
 21
2087.3508
  0
LINE
  8
0-2
  6
CONTINUOUS
 62
    3
 10
804.41509
 20
2087.3508
 11
804.64337
 21
2088.3037
  0
LINE
  8
0-2
  6
CONTINUOUS
 62
    3
 10
804.64337
 20
2088.3037
 11
804.72024
 21
2089.2864
  0
LINE
  8
0-2
  6
CONTINUOUS
 62
    3
 10
804.72024
 20
2156.8917
 11
804.64337
 21
2157.8744
  0
LINE
  8
0-2
  6
CONTINUOUS
 62
    3
 10
804.64337
 20
2157.8744
 11
804.41509
 21
2158.8272
  0
LINE
  8
0-2
  6
CONTINUOUS
 62
    3
 10
804.41509
 20
2158.8272
 11
804.04234
 21
2159.7213
  0
LINE
  8
0-2
  6
CONTINUOUS
 62
    3
 10
804.04234
 20
2159.7213
 11
803.53645
 21
2160.5293
  0
LINE
  8
0-2
  6
CONTINUOUS
 62
    3
 10
803.53645
 20
2160.5293
 11
802.91278
 21
2161.2269
  0
LINE
  8
0-2
  6
CONTINUOUS
 62
    3
 10
802.91278
 20
2161.2269
 11
802.19029
 21
2161.7927
  0
LINE
  8
0-2
  6
CONTINUOUS
 62
    3
 10
802.19029
 20
2161.7927
 11
801.39093
 21
2162.2096
  0
LINE
  8
0-2
  6
CONTINUOUS
 62
    3
 10
801.39093
 20
2162.2096
 11
800.53898
 21
2162.4649
  0
LINE
  8
0-2
  6
CONTINUOUS
 62
    3
 10
800.53898
 20
2162.4649
 11
799.66034
 21
2162.5509
  0
LINE
  8
0-2
  6
CONTINUOUS
 62
    3
 10
799.66034
 20
2162.5509
 11
798.7817
 21
2162.4649
  0
LINE
  8
0-2
  6
CONTINUOUS
 62
    3
 10
798.7817
 20
2162.4649
 11
797.92975
 21
2162.2096
  0
LINE
  8
0-2
  6
CONTINUOUS
 62
    3
 10
797.92975
 20
2162.2096
 11
797.13039
 21
2161.7927
  0
LINE
  8
0-2
  6
CONTINUOUS
 62
    3
 10
797.13039
 20
2161.7927
 11
796.4079
 21
2161.2269
  0
LINE
  8
0-2
  6
CONTINUOUS
 62
    3
 10
796.4079
 20
2161.2269
 11
795.78424
 21
2160.5293
  0
LINE
  8
0-2
  6
CONTINUOUS
 62
    3
 10
795.78424
 20
2160.5293
 11
795.27834
 21
2159.7213
  0
LINE
  8
0-2
  6
CONTINUOUS
 62
    3
 10
795.27834
 20
2159.7213
 11
794.90559
 21
2158.8272
  0
LINE
  8
0-2
  6
CONTINUOUS
 62
    3
 10
794.90559
 20
2158.8272
 11
794.67731
 21
2157.8744
  0
LINE
  8
0-2
  6
CONTINUOUS
 62
    3
 10
794.67731
 20
2157.8744
 11
794.60044
 21
2156.8917
  0
LINE
  8
0-2
  6
CONTINUOUS
 62
    3
 10
794.60044
 20
2156.8917
 11
794.67731
 21
2155.909
  0
LINE
  8
0-2
  6
CONTINUOUS
 62
    3
 10
794.67731
 20
2155.909
 11
794.90559
 21
2154.9561
  0
LINE
  8
0-2
  6
CONTINUOUS
 62
    3
 10
794.90559
 20
2154.9561
 11
795.27834
 21
2154.0621
  0
LINE
  8
0-2
  6
CONTINUOUS
 62
    3
 10
795.27834
 20
2154.0621
 11
795.78424
 21
2153.254
  0
LINE
  8
0-2
  6
CONTINUOUS
 62
    3
 10
795.78424
 20
2153.254
 11
796.4079
 21
2152.5565
  0
LINE
  8
0-2
  6
CONTINUOUS
 62
    3
 10
796.4079
 20
2152.5565
 11
797.13039
 21
2151.9907
  0
LINE
  8
0-2
  6
CONTINUOUS
 62
    3
 10
797.13039
 20
2151.9907
 11
797.92975
 21
2151.5738
  0
LINE
  8
0-2
  6
CONTINUOUS
 62
    3
 10
797.92975
 20
2151.5738
 11
798.7817
 21
2151.3184
  0
LINE
  8
0-2
  6
CONTINUOUS
 62
    3
 10
798.7817
 20
2151.3184
 11
799.66034
 21
2151.2325
  0
LINE
  8
0-2
  6
CONTINUOUS
 62
    3
 10
799.66034
 20
2151.2325
 11
800.53898
 21
2151.3184
  0
LINE
  8
0-2
  6
CONTINUOUS
 62
    3
 10
800.53898
 20
2151.3184
 11
801.39093
 21
2151.5738
  0
LINE
  8
0-2
  6
CONTINUOUS
 62
    3
 10
801.39093
 20
2151.5738
 11
802.19029
 21
2151.9907
  0
LINE
  8
0-2
  6
CONTINUOUS
 62
    3
 10
802.19029
 20
2151.9907
 11
802.91278
 21
2152.5565
  0
LINE
  8
0-2
  6
CONTINUOUS
 62
    3
 10
802.91278
 20
2152.5565
 11
803.53645
 21
2153.254
  0
LINE
  8
0-2
  6
CONTINUOUS
 62
    3
 10
803.53645
 20
2153.254
 11
804.04234
 21
2154.0621
  0
LINE
  8
0-2
  6
CONTINUOUS
 62
    3
 10
804.04234
 20
2154.0621
 11
804.41509
 21
2154.9561
  0
LINE
  8
0-2
  6
CONTINUOUS
 62
    3
 10
804.41509
 20
2154.9561
 11
804.64337
 21
2155.909
  0
LINE
  8
0-2
  6
CONTINUOUS
 62
    3
 10
804.64337
 20
2155.909
 11
804.72024
 21
2156.8917
  0
LINE
  8
0-2
  6
CONTINUOUS
 62
    3
 10
804.72024
 20
1770.1062
 11
804.64337
 21
1771.0889
  0
LINE
  8
0-2
  6
CONTINUOUS
 62
    3
 10
804.64337
 20
1771.0889
 11
804.41509
 21
1772.0418
  0
LINE
  8
0-2
  6
CONTINUOUS
 62
    3
 10
804.41509
 20
1772.0418
 11
804.04234
 21
1772.9358
  0
LINE
  8
0-2
  6
CONTINUOUS
 62
    3
 10
804.04234
 20
1772.9358
 11
803.53645
 21
1773.7439
  0
LINE
  8
0-2
  6
CONTINUOUS
 62
    3
 10
803.53645
 20
1773.7439
 11
802.91278
 21
1774.4414
  0
LINE
  8
0-2
  6
CONTINUOUS
 62
    3
 10
802.91278
 20
1774.4414
 11
802.19029
 21
1775.0072
  0
LINE
  8
0-2
  6
CONTINUOUS
 62
    3
 10
802.19029
 20
1775.0072
 11
801.39093
 21
1775.4241
  0
LINE
  8
0-2
  6
CONTINUOUS
 62
    3
 10
801.39093
 20
1775.4241
 11
800.53898
 21
1775.6794
  0
LINE
  8
0-2
  6
CONTINUOUS
 62
    3
 10
800.53898
 20
1775.6794
 11
799.66034
 21
1775.7654
  0
LINE
  8
0-2
  6
CONTINUOUS
 62
    3
 10
799.66034
 20
1775.7654
 11
798.7817
 21
1775.6794
  0
LINE
  8
0-2
  6
CONTINUOUS
 62
    3
 10
798.7817
 20
1775.6794
 11
797.92975
 21
1775.4241
  0
LINE
  8
0-2
  6
CONTINUOUS
 62
    3
 10
797.92975
 20
1775.4241
 11
797.13039
 21
1775.0072
  0
LINE
  8
0-2
  6
CONTINUOUS
 62
    3
 10
797.13039
 20
1775.0072
 11
796.4079
 21
1774.4414
  0
LINE
  8
0-2
  6
CONTINUOUS
 62
    3
 10
796.4079
 20
1774.4414
 11
795.78424
 21
1773.7439
  0
LINE
  8
0-2
  6
CONTINUOUS
 62
    3
 10
795.78424
 20
1773.7439
 11
795.27834
 21
1772.9358
  0
LINE
  8
0-2
  6
CONTINUOUS
 62
    3
 10
795.27834
 20
1772.9358
 11
794.90559
 21
1772.0418
  0
LINE
  8
0-2
  6
CONTINUOUS
 62
    3
 10
794.90559
 20
1772.0418
 11
794.67731
 21
1771.0889
  0
LINE
  8
0-2
  6
CONTINUOUS
 62
    3
 10
794.67731
 20
1771.0889
 11
794.60044
 21
1770.1062
  0
LINE
  8
0-2
  6
CONTINUOUS
 62
    3
 10
794.60044
 20
1770.1062
 11
794.67731
 21
1769.1235
  0
LINE
  8
0-2
  6
CONTINUOUS
 62
    3
 10
794.67731
 20
1769.1235
 11
794.90559
 21
1768.1707
  0
LINE
  8
0-2
  6
CONTINUOUS
 62
    3
 10
794.90559
 20
1768.1707
 11
795.27834
 21
1767.2766
  0
LINE
  8
0-2
  6
CONTINUOUS
 62
    3
 10
795.27834
 20
1767.2766
 11
795.78424
 21
1766.4685
  0
LINE
  8
0-2
  6
CONTINUOUS
 62
    3
 10
795.78424
 20
1766.4685
 11
796.4079
 21
1765.771
  0
LINE
  8
0-2
  6
CONTINUOUS
 62
    3
 10
796.4079
 20
1765.771
 11
797.13039
 21
1765.2052
  0
LINE
  8
0-2
  6
CONTINUOUS
 62
    3
 10
797.13039
 20
1765.2052
 11
797.92975
 21
1764.7883
  0
LINE
  8
0-2
  6
CONTINUOUS
 62
    3
 10
797.92975
 20
1764.7883
 11
798.7817
 21
1764.533
  0
LINE
  8
0-2
  6
CONTINUOUS
 62
    3
 10
798.7817
 20
1764.533
 11
799.66034
 21
1764.447
  0
LINE
  8
0-2
  6
CONTINUOUS
 62
    3
 10
799.66034
 20
1764.447
 11
800.53898
 21
1764.533
  0
LINE
  8
0-2
  6
CONTINUOUS
 62
    3
 10
800.53898
 20
1764.533
 11
801.39093
 21
1764.7883
  0
LINE
  8
0-2
  6
CONTINUOUS
 62
    3
 10
801.39093
 20
1764.7883
 11
802.19029
 21
1765.2052
  0
LINE
  8
0-2
  6
CONTINUOUS
 62
    3
 10
802.19029
 20
1765.2052
 11
802.91278
 21
1765.771
  0
LINE
  8
0-2
  6
CONTINUOUS
 62
    3
 10
802.91278
 20
1765.771
 11
803.53645
 21
1766.4685
  0
LINE
  8
0-2
  6
CONTINUOUS
 62
    3
 10
803.53645
 20
1766.4685
 11
804.04234
 21
1767.2766
  0
LINE
  8
0-2
  6
CONTINUOUS
 62
    3
 10
804.04234
 20
1767.2766
 11
804.41509
 21
1768.1707
  0
LINE
  8
0-2
  6
CONTINUOUS
 62
    3
 10
804.41509
 20
1768.1707
 11
804.64337
 21
1769.1235
  0
LINE
  8
0-2
  6
CONTINUOUS
 62
    3
 10
804.64337
 20
1769.1235
 11
804.72024
 21
1770.1062
  0
LINE
  8
0-2
  6
CONTINUOUS
 62
    3
 10
804.72024
 20
1702.5003
 11
804.64337
 21
1703.483
  0
LINE
  8
0-2
  6
CONTINUOUS
 62
    3
 10
804.64337
 20
1703.483
 11
804.41509
 21
1704.4359
  0
LINE
  8
0-2
  6
CONTINUOUS
 62
    3
 10
804.41509
 20
1704.4359
 11
804.04234
 21
1705.3299
  0
LINE
  8
0-2
  6
CONTINUOUS
 62
    3
 10
804.04234
 20
1705.3299
 11
803.53645
 21
1706.138
  0
LINE
  8
0-2
  6
CONTINUOUS
 62
    3
 10
803.53645
 20
1706.138
 11
802.91278
 21
1706.8355
  0
LINE
  8
0-2
  6
CONTINUOUS
 62
    3
 10
802.91278
 20
1706.8355
 11
802.19029
 21
1707.4014
  0
LINE
  8
0-2
  6
CONTINUOUS
 62
    3
 10
802.19029
 20
1707.4014
 11
801.39093
 21
1707.8183
  0
LINE
  8
0-2
  6
CONTINUOUS
 62
    3
 10
801.39093
 20
1707.8183
 11
800.53898
 21
1708.0736
  0
LINE
  8
0-2
  6
CONTINUOUS
 62
    3
 10
800.53898
 20
1708.0736
 11
799.66034
 21
1708.1595
  0
LINE
  8
0-2
  6
CONTINUOUS
 62
    3
 10
799.66034
 20
1708.1595
 11
798.7817
 21
1708.0736
  0
LINE
  8
0-2
  6
CONTINUOUS
 62
    3
 10
798.7817
 20
1708.0736
 11
797.92975
 21
1707.8183
  0
LINE
  8
0-2
  6
CONTINUOUS
 62
    3
 10
797.92975
 20
1707.8183
 11
797.13039
 21
1707.4014
  0
LINE
  8
0-2
  6
CONTINUOUS
 62
    3
 10
797.13039
 20
1707.4014
 11
796.4079
 21
1706.8355
  0
LINE
  8
0-2
  6
CONTINUOUS
 62
    3
 10
796.4079
 20
1706.8355
 11
795.78424
 21
1706.138
  0
LINE
  8
0-2
  6
CONTINUOUS
 62
    3
 10
795.78424
 20
1706.138
 11
795.27834
 21
1705.3299
  0
LINE
  8
0-2
  6
CONTINUOUS
 62
    3
 10
795.27834
 20
1705.3299
 11
794.90559
 21
1704.4359
  0
LINE
  8
0-2
  6
CONTINUOUS
 62
    3
 10
794.90559
 20
1704.4359
 11
794.67731
 21
1703.483
  0
LINE
  8
0-2
  6
CONTINUOUS
 62
    3
 10
794.67731
 20
1703.483
 11
794.60044
 21
1702.5003
  0
LINE
  8
0-2
  6
CONTINUOUS
 62
    3
 10
794.60044
 20
1702.5003
 11
794.67731
 21
1701.5176
  0
LINE
  8
0-2
  6
CONTINUOUS
 62
    3
 10
794.67731
 20
1701.5176
 11
794.90559
 21
1700.5648
  0
LINE
  8
0-2
  6
CONTINUOUS
 62
    3
 10
794.90559
 20
1700.5648
 11
795.27834
 21
1699.6707
  0
LINE
  8
0-2
  6
CONTINUOUS
 62
    3
 10
795.27834
 20
1699.6707
 11
795.78424
 21
1698.8627
  0
LINE
  8
0-2
  6
CONTINUOUS
 62
    3
 10
795.78424
 20
1698.8627
 11
796.4079
 21
1698.1651
  0
LINE
  8
0-2
  6
CONTINUOUS
 62
    3
 10
796.4079
 20
1698.1651
 11
797.13039
 21
1697.5993
  0
LINE
  8
0-2
  6
CONTINUOUS
 62
    3
 10
797.13039
 20
1697.5993
 11
797.92975
 21
1697.1824
  0
LINE
  8
0-2
  6
CONTINUOUS
 62
    3
 10
797.92975
 20
1697.1824
 11
798.7817
 21
1696.9271
  0
LINE
  8
0-2
  6
CONTINUOUS
 62
    3
 10
798.7817
 20
1696.9271
 11
799.66034
 21
1696.8411
  0
LINE
  8
0-2
  6
CONTINUOUS
 62
    3
 10
799.66034
 20
1696.8411
 11
800.53898
 21
1696.9271
  0
LINE
  8
0-2
  6
CONTINUOUS
 62
    3
 10
800.53898
 20
1696.9271
 11
801.39093
 21
1697.1824
  0
LINE
  8
0-2
  6
CONTINUOUS
 62
    3
 10
801.39093
 20
1697.1824
 11
802.19029
 21
1697.5993
  0
LINE
  8
0-2
  6
CONTINUOUS
 62
    3
 10
802.19029
 20
1697.5993
 11
802.91278
 21
1698.1651
  0
LINE
  8
0-2
  6
CONTINUOUS
 62
    3
 10
802.91278
 20
1698.1651
 11
803.53645
 21
1698.8627
  0
LINE
  8
0-2
  6
CONTINUOUS
 62
    3
 10
803.53645
 20
1698.8627
 11
804.04234
 21
1699.6707
  0
LINE
  8
0-2
  6
CONTINUOUS
 62
    3
 10
804.04234
 20
1699.6707
 11
804.41509
 21
1700.5648
  0
LINE
  8
0-2
  6
CONTINUOUS
 62
    3
 10
804.41509
 20
1700.5648
 11
804.64337
 21
1701.5176
  0
LINE
  8
0-2
  6
CONTINUOUS
 62
    3
 10
804.64337
 20
1701.5176
 11
804.72024
 21
1702.5003
  0
LINE
  8
0-2
  6
CONTINUOUS
 62
    3
 10
1305.2801
 20
2089.2864
 11
1305.357
 21
2088.3037
  0
LINE
  8
0-2
  6
CONTINUOUS
 62
    3
 10
1305.357
 20
2088.3037
 11
1305.5852
 21
2087.3508
  0
LINE
  8
0-2
  6
CONTINUOUS
 62
    3
 10
1305.5852
 20
2087.3508
 11
1305.958
 21
2086.4568
  0
LINE
  8
0-2
  6
CONTINUOUS
 62
    3
 10
1305.958
 20
2086.4568
 11
1306.4639
 21
2085.6487
  0
LINE
  8
0-2
  6
CONTINUOUS
 62
    3
 10
1306.4639
 20
2085.6487
 11
1307.0876
 21
2084.9512
  0
LINE
  8
0-2
  6
CONTINUOUS
 62
    3
 10
1307.0876
 20
2084.9512
 11
1307.81
 21
2084.3854
  0
LINE
  8
0-2
  6
CONTINUOUS
 62
    3
 10
1307.81
 20
2084.3854
 11
1308.6094
 21
2083.9685
  0
LINE
  8
0-2
  6
CONTINUOUS
 62
    3
 10
1308.6094
 20
2083.9685
 11
1309.4613
 21
2083.7132
  0
LINE
  8
0-2
  6
CONTINUOUS
 62
    3
 10
1309.4613
 20
2083.7132
 11
1310.34
 21
2083.6272
  0
LINE
  8
0-2
  6
CONTINUOUS
 62
    3
 10
1310.34
 20
2083.6272
 11
1311.2186
 21
2083.7132
  0
LINE
  8
0-2
  6
CONTINUOUS
 62
    3
 10
1311.2186
 20
2083.7132
 11
1312.0706
 21
2083.9685
  0
LINE
  8
0-2
  6
CONTINUOUS
 62
    3
 10
1312.0706
 20
2083.9685
 11
1312.8699
 21
2084.3854
  0
LINE
  8
0-2
  6
CONTINUOUS
 62
    3
 10
1312.8699
 20
2084.3854
 11
1313.5924
 21
2084.9512
  0
LINE
  8
0-2
  6
CONTINUOUS
 62
    3
 10
1313.5924
 20
2084.9512
 11
1314.2161
 21
2085.6487
  0
LINE
  8
0-2
  6
CONTINUOUS
 62
    3
 10
1314.2161
 20
2085.6487
 11
1314.722
 21
2086.4568
  0
LINE
  8
0-2
  6
CONTINUOUS
 62
    3
 10
1314.722
 20
2086.4568
 11
1315.0947
 21
2087.3508
  0
LINE
  8
0-2
  6
CONTINUOUS
 62
    3
 10
1315.0947
 20
2087.3508
 11
1315.323
 21
2088.3037
  0
LINE
  8
0-2
  6
CONTINUOUS
 62
    3
 10
1315.323
 20
2088.3037
 11
1315.3999
 21
2089.2864
  0
LINE
  8
0-2
  6
CONTINUOUS
 62
    3
 10
1315.3999
 20
2089.2864
 11
1315.323
 21
2090.2691
  0
LINE
  8
0-2
  6
CONTINUOUS
 62
    3
 10
1315.323
 20
2090.2691
 11
1315.0947
 21
2091.222
  0
LINE
  8
0-2
  6
CONTINUOUS
 62
    3
 10
1315.0947
 20
2091.222
 11
1314.722
 21
2092.116
  0
LINE
  8
0-2
  6
CONTINUOUS
 62
    3
 10
1314.722
 20
2092.116
 11
1314.2161
 21
2092.9241
  0
LINE
  8
0-2
  6
CONTINUOUS
 62
    3
 10
1314.2161
 20
2092.9241
 11
1313.5924
 21
2093.6216
  0
LINE
  8
0-2
  6
CONTINUOUS
 62
    3
 10
1313.5924
 20
2093.6216
 11
1312.8699
 21
2094.1874
  0
LINE
  8
0-2
  6
CONTINUOUS
 62
    3
 10
1312.8699
 20
2094.1874
 11
1312.0706
 21
2094.6043
  0
LINE
  8
0-2
  6
CONTINUOUS
 62
    3
 10
1312.0706
 20
2094.6043
 11
1311.2186
 21
2094.8596
  0
LINE
  8
0-2
  6
CONTINUOUS
 62
    3
 10
1311.2186
 20
2094.8596
 11
1310.34
 21
2094.9456
  0
LINE
  8
0-2
  6
CONTINUOUS
 62
    3
 10
1310.34
 20
2094.9456
 11
1309.4613
 21
2094.8596
  0
LINE
  8
0-2
  6
CONTINUOUS
 62
    3
 10
1309.4613
 20
2094.8596
 11
1308.6094
 21
2094.6043
  0
LINE
  8
0-2
  6
CONTINUOUS
 62
    3
 10
1308.6094
 20
2094.6043
 11
1307.81
 21
2094.1874
  0
LINE
  8
0-2
  6
CONTINUOUS
 62
    3
 10
1307.81
 20
2094.1874
 11
1307.0876
 21
2093.6216
  0
LINE
  8
0-2
  6
CONTINUOUS
 62
    3
 10
1307.0876
 20
2093.6216
 11
1306.4639
 21
2092.9241
  0
LINE
  8
0-2
  6
CONTINUOUS
 62
    3
 10
1306.4639
 20
2092.9241
 11
1305.958
 21
2092.116
  0
LINE
  8
0-2
  6
CONTINUOUS
 62
    3
 10
1305.958
 20
2092.116
 11
1305.5852
 21
2091.222
  0
LINE
  8
0-2
  6
CONTINUOUS
 62
    3
 10
1305.5852
 20
2091.222
 11
1305.357
 21
2090.2691
  0
LINE
  8
0-2
  6
CONTINUOUS
 62
    3
 10
1305.357
 20
2090.2691
 11
1305.2801
 21
2089.2864
  0
LINE
  8
0-2
  6
CONTINUOUS
 62
    3
 10
1305.2801
 20
2156.8917
 11
1305.357
 21
2155.909
  0
LINE
  8
0-2
  6
CONTINUOUS
 62
    3
 10
1305.357
 20
2155.909
 11
1305.5852
 21
2154.9561
  0
LINE
  8
0-2
  6
CONTINUOUS
 62
    3
 10
1305.5852
 20
2154.9561
 11
1305.958
 21
2154.0621
  0
LINE
  8
0-2
  6
CONTINUOUS
 62
    3
 10
1305.958
 20
2154.0621
 11
1306.4639
 21
2153.254
  0
LINE
  8
0-2
  6
CONTINUOUS
 62
    3
 10
1306.4639
 20
2153.254
 11
1307.0876
 21
2152.5565
  0
LINE
  8
0-2
  6
CONTINUOUS
 62
    3
 10
1307.0876
 20
2152.5565
 11
1307.81
 21
2151.9907
  0
LINE
  8
0-2
  6
CONTINUOUS
 62
    3
 10
1307.81
 20
2151.9907
 11
1308.6094
 21
2151.5738
  0
LINE
  8
0-2
  6
CONTINUOUS
 62
    3
 10
1308.6094
 20
2151.5738
 11
1309.4613
 21
2151.3184
  0
LINE
  8
0-2
  6
CONTINUOUS
 62
    3
 10
1309.4613
 20
2151.3184
 11
1310.34
 21
2151.2325
  0
LINE
  8
0-2
  6
CONTINUOUS
 62
    3
 10
1310.34
 20
2151.2325
 11
1311.2186
 21
2151.3184
  0
LINE
  8
0-2
  6
CONTINUOUS
 62
    3
 10
1311.2186
 20
2151.3184
 11
1312.0706
 21
2151.5738
  0
LINE
  8
0-2
  6
CONTINUOUS
 62
    3
 10
1312.0706
 20
2151.5738
 11
1312.8699
 21
2151.9907
  0
LINE
  8
0-2
  6
CONTINUOUS
 62
    3
 10
1312.8699
 20
2151.9907
 11
1313.5924
 21
2152.5565
  0
LINE
  8
0-2
  6
CONTINUOUS
 62
    3
 10
1313.5924
 20
2152.5565
 11
1314.2161
 21
2153.254
  0
LINE
  8
0-2
  6
CONTINUOUS
 62
    3
 10
1314.2161
 20
2153.254
 11
1314.722
 21
2154.0621
  0
LINE
  8
0-2
  6
CONTINUOUS
 62
    3
 10
1314.722
 20
2154.0621
 11
1315.0947
 21
2154.9561
  0
LINE
  8
0-2
  6
CONTINUOUS
 62
    3
 10
1315.0947
 20
2154.9561
 11
1315.323
 21
2155.909
  0
LINE
  8
0-2
  6
CONTINUOUS
 62
    3
 10
1315.323
 20
2155.909
 11
1315.3999
 21
2156.8917
  0
LINE
  8
0-2
  6
CONTINUOUS
 62
    3
 10
1315.3999
 20
2156.8917
 11
1315.323
 21
2157.8744
  0
LINE
  8
0-2
  6
CONTINUOUS
 62
    3
 10
1315.323
 20
2157.8744
 11
1315.0947
 21
2158.8272
  0
LINE
  8
0-2
  6
CONTINUOUS
 62
    3
 10
1315.0947
 20
2158.8272
 11
1314.722
 21
2159.7213
  0
LINE
  8
0-2
  6
CONTINUOUS
 62
    3
 10
1314.722
 20
2159.7213
 11
1314.2161
 21
2160.5293
  0
LINE
  8
0-2
  6
CONTINUOUS
 62
    3
 10
1314.2161
 20
2160.5293
 11
1313.5924
 21
2161.2269
  0
LINE
  8
0-2
  6
CONTINUOUS
 62
    3
 10
1313.5924
 20
2161.2269
 11
1312.8699
 21
2161.7927
  0
LINE
  8
0-2
  6
CONTINUOUS
 62
    3
 10
1312.8699
 20
2161.7927
 11
1312.0706
 21
2162.2096
  0
LINE
  8
0-2
  6
CONTINUOUS
 62
    3
 10
1312.0706
 20
2162.2096
 11
1311.2186
 21
2162.4649
  0
LINE
  8
0-2
  6
CONTINUOUS
 62
    3
 10
1311.2186
 20
2162.4649
 11
1310.34
 21
2162.5509
  0
LINE
  8
0-2
  6
CONTINUOUS
 62
    3
 10
1310.34
 20
2162.5509
 11
1309.4613
 21
2162.4649
  0
LINE
  8
0-2
  6
CONTINUOUS
 62
    3
 10
1309.4613
 20
2162.4649
 11
1308.6094
 21
2162.2096
  0
LINE
  8
0-2
  6
CONTINUOUS
 62
    3
 10
1308.6094
 20
2162.2096
 11
1307.81
 21
2161.7927
  0
LINE
  8
0-2
  6
CONTINUOUS
 62
    3
 10
1307.81
 20
2161.7927
 11
1307.0876
 21
2161.2269
  0
LINE
  8
0-2
  6
CONTINUOUS
 62
    3
 10
1307.0876
 20
2161.2269
 11
1306.4639
 21
2160.5293
  0
LINE
  8
0-2
  6
CONTINUOUS
 62
    3
 10
1306.4639
 20
2160.5293
 11
1305.958
 21
2159.7213
  0
LINE
  8
0-2
  6
CONTINUOUS
 62
    3
 10
1305.958
 20
2159.7213
 11
1305.5852
 21
2158.8272
  0
LINE
  8
0-2
  6
CONTINUOUS
 62
    3
 10
1305.5852
 20
2158.8272
 11
1305.357
 21
2157.8744
  0
LINE
  8
0-2
  6
CONTINUOUS
 62
    3
 10
1305.357
 20
2157.8744
 11
1305.2801
 21
2156.8917
  0
LINE
  8
0-2
  6
CONTINUOUS
 62
    3
 10
1305.2801
 20
1770.1062
 11
1305.357
 21
1769.1235
  0
LINE
  8
0-2
  6
CONTINUOUS
 62
    3
 10
1305.357
 20
1769.1235
 11
1305.5852
 21
1768.1707
  0
LINE
  8
0-2
  6
CONTINUOUS
 62
    3
 10
1305.5852
 20
1768.1707
 11
1305.958
 21
1767.2766
  0
LINE
  8
0-2
  6
CONTINUOUS
 62
    3
 10
1305.958
 20
1767.2766
 11
1306.4639
 21
1766.4685
  0
LINE
  8
0-2
  6
CONTINUOUS
 62
    3
 10
1306.4639
 20
1766.4685
 11
1307.0876
 21
1765.771
  0
LINE
  8
0-2
  6
CONTINUOUS
 62
    3
 10
1307.0876
 20
1765.771
 11
1307.81
 21
1765.2052
  0
LINE
  8
0-2
  6
CONTINUOUS
 62
    3
 10
1307.81
 20
1765.2052
 11
1308.6094
 21
1764.7883
  0
LINE
  8
0-2
  6
CONTINUOUS
 62
    3
 10
1308.6094
 20
1764.7883
 11
1309.4613
 21
1764.533
  0
LINE
  8
0-2
  6
CONTINUOUS
 62
    3
 10
1309.4613
 20
1764.533
 11
1310.34
 21
1764.447
  0
LINE
  8
0-2
  6
CONTINUOUS
 62
    3
 10
1310.34
 20
1764.447
 11
1311.2186
 21
1764.533
  0
LINE
  8
0-2
  6
CONTINUOUS
 62
    3
 10
1311.2186
 20
1764.533
 11
1312.0706
 21
1764.7883
  0
LINE
  8
0-2
  6
CONTINUOUS
 62
    3
 10
1312.0706
 20
1764.7883
 11
1312.8699
 21
1765.2052
  0
LINE
  8
0-2
  6
CONTINUOUS
 62
    3
 10
1312.8699
 20
1765.2052
 11
1313.5924
 21
1765.771
  0
LINE
  8
0-2
  6
CONTINUOUS
 62
    3
 10
1313.5924
 20
1765.771
 11
1314.2161
 21
1766.4685
  0
LINE
  8
0-2
  6
CONTINUOUS
 62
    3
 10
1314.2161
 20
1766.4685
 11
1314.722
 21
1767.2766
  0
LINE
  8
0-2
  6
CONTINUOUS
 62
    3
 10
1314.722
 20
1767.2766
 11
1315.0947
 21
1768.1707
  0
LINE
  8
0-2
  6
CONTINUOUS
 62
    3
 10
1315.0947
 20
1768.1707
 11
1315.323
 21
1769.1235
  0
LINE
  8
0-2
  6
CONTINUOUS
 62
    3
 10
1315.323
 20
1769.1235
 11
1315.3999
 21
1770.1062
  0
LINE
  8
0-2
  6
CONTINUOUS
 62
    3
 10
1315.3999
 20
1770.1062
 11
1315.323
 21
1771.0889
  0
LINE
  8
0-2
  6
CONTINUOUS
 62
    3
 10
1315.323
 20
1771.0889
 11
1315.0947
 21
1772.0418
  0
LINE
  8
0-2
  6
CONTINUOUS
 62
    3
 10
1315.0947
 20
1772.0418
 11
1314.722
 21
1772.9358
  0
LINE
  8
0-2
  6
CONTINUOUS
 62
    3
 10
1314.722
 20
1772.9358
 11
1314.2161
 21
1773.7439
  0
LINE
  8
0-2
  6
CONTINUOUS
 62
    3
 10
1314.2161
 20
1773.7439
 11
1313.5924
 21
1774.4414
  0
LINE
  8
0-2
  6
CONTINUOUS
 62
    3
 10
1313.5924
 20
1774.4414
 11
1312.8699
 21
1775.0072
  0
LINE
  8
0-2
  6
CONTINUOUS
 62
    3
 10
1312.8699
 20
1775.0072
 11
1312.0706
 21
1775.4241
  0
LINE
  8
0-2
  6
CONTINUOUS
 62
    3
 10
1312.0706
 20
1775.4241
 11
1311.2186
 21
1775.6794
  0
LINE
  8
0-2
  6
CONTINUOUS
 62
    3
 10
1311.2186
 20
1775.6794
 11
1310.34
 21
1775.7654
  0
LINE
  8
0-2
  6
CONTINUOUS
 62
    3
 10
1310.34
 20
1775.7654
 11
1309.4613
 21
1775.6794
  0
LINE
  8
0-2
  6
CONTINUOUS
 62
    3
 10
1309.4613
 20
1775.6794
 11
1308.6094
 21
1775.4241
  0
LINE
  8
0-2
  6
CONTINUOUS
 62
    3
 10
1308.6094
 20
1775.4241
 11
1307.81
 21
1775.0072
  0
LINE
  8
0-2
  6
CONTINUOUS
 62
    3
 10
1307.81
 20
1775.0072
 11
1307.0876
 21
1774.4414
  0
LINE
  8
0-2
  6
CONTINUOUS
 62
    3
 10
1307.0876
 20
1774.4414
 11
1306.4639
 21
1773.7439
  0
LINE
  8
0-2
  6
CONTINUOUS
 62
    3
 10
1306.4639
 20
1773.7439
 11
1305.958
 21
1772.9358
  0
LINE
  8
0-2
  6
CONTINUOUS
 62
    3
 10
1305.958
 20
1772.9358
 11
1305.5852
 21
1772.0418
  0
LINE
  8
0-2
  6
CONTINUOUS
 62
    3
 10
1305.5852
 20
1772.0418
 11
1305.357
 21
1771.0889
  0
LINE
  8
0-2
  6
CONTINUOUS
 62
    3
 10
1305.357
 20
1771.0889
 11
1305.2801
 21
1770.1062
  0
LINE
  8
0-2
  6
CONTINUOUS
 62
    3
 10
1305.2801
 20
1702.5003
 11
1305.357
 21
1701.5176
  0
LINE
  8
0-2
  6
CONTINUOUS
 62
    3
 10
1305.357
 20
1701.5176
 11
1305.5852
 21
1700.5648
  0
LINE
  8
0-2
  6
CONTINUOUS
 62
    3
 10
1305.5852
 20
1700.5648
 11
1305.958
 21
1699.6707
  0
LINE
  8
0-2
  6
CONTINUOUS
 62
    3
 10
1305.958
 20
1699.6707
 11
1306.4639
 21
1698.8627
  0
LINE
  8
0-2
  6
CONTINUOUS
 62
    3
 10
1306.4639
 20
1698.8627
 11
1307.0876
 21
1698.1651
  0
LINE
  8
0-2
  6
CONTINUOUS
 62
    3
 10
1307.0876
 20
1698.1651
 11
1307.81
 21
1697.5993
  0
LINE
  8
0-2
  6
CONTINUOUS
 62
    3
 10
1307.81
 20
1697.5993
 11
1308.6094
 21
1697.1824
  0
LINE
  8
0-2
  6
CONTINUOUS
 62
    3
 10
1308.6094
 20
1697.1824
 11
1309.4613
 21
1696.9271
  0
LINE
  8
0-2
  6
CONTINUOUS
 62
    3
 10
1309.4613
 20
1696.9271
 11
1310.34
 21
1696.8411
  0
LINE
  8
0-2
  6
CONTINUOUS
 62
    3
 10
1310.34
 20
1696.8411
 11
1311.2186
 21
1696.9271
  0
LINE
  8
0-2
  6
CONTINUOUS
 62
    3
 10
1311.2186
 20
1696.9271
 11
1312.0706
 21
1697.1824
  0
LINE
  8
0-2
  6
CONTINUOUS
 62
    3
 10
1312.0706
 20
1697.1824
 11
1312.8699
 21
1697.5993
  0
LINE
  8
0-2
  6
CONTINUOUS
 62
    3
 10
1312.8699
 20
1697.5993
 11
1313.5924
 21
1698.1651
  0
LINE
  8
0-2
  6
CONTINUOUS
 62
    3
 10
1313.5924
 20
1698.1651
 11
1314.2161
 21
1698.8627
  0
LINE
  8
0-2
  6
CONTINUOUS
 62
    3
 10
1314.2161
 20
1698.8627
 11
1314.722
 21
1699.6707
  0
LINE
  8
0-2
  6
CONTINUOUS
 62
    3
 10
1314.722
 20
1699.6707
 11
1315.0947
 21
1700.5648
  0
LINE
  8
0-2
  6
CONTINUOUS
 62
    3
 10
1315.0947
 20
1700.5648
 11
1315.323
 21
1701.5176
  0
LINE
  8
0-2
  6
CONTINUOUS
 62
    3
 10
1315.323
 20
1701.5176
 11
1315.3999
 21
1702.5003
  0
LINE
  8
0-2
  6
CONTINUOUS
 62
    3
 10
1315.3999
 20
1702.5003
 11
1315.323
 21
1703.483
  0
LINE
  8
0-2
  6
CONTINUOUS
 62
    3
 10
1315.323
 20
1703.483
 11
1315.0947
 21
1704.4359
  0
LINE
  8
0-2
  6
CONTINUOUS
 62
    3
 10
1315.0947
 20
1704.4359
 11
1314.722
 21
1705.3299
  0
LINE
  8
0-2
  6
CONTINUOUS
 62
    3
 10
1314.722
 20
1705.3299
 11
1314.2161
 21
1706.138
  0
LINE
  8
0-2
  6
CONTINUOUS
 62
    3
 10
1314.2161
 20
1706.138
 11
1313.5924
 21
1706.8355
  0
LINE
  8
0-2
  6
CONTINUOUS
 62
    3
 10
1313.5924
 20
1706.8355
 11
1312.8699
 21
1707.4014
  0
LINE
  8
0-2
  6
CONTINUOUS
 62
    3
 10
1312.8699
 20
1707.4014
 11
1312.0706
 21
1707.8183
  0
LINE
  8
0-2
  6
CONTINUOUS
 62
    3
 10
1312.0706
 20
1707.8183
 11
1311.2186
 21
1708.0736
  0
LINE
  8
0-2
  6
CONTINUOUS
 62
    3
 10
1311.2186
 20
1708.0736
 11
1310.34
 21
1708.1595
  0
LINE
  8
0-2
  6
CONTINUOUS
 62
    3
 10
1310.34
 20
1708.1595
 11
1309.4613
 21
1708.0736
  0
LINE
  8
0-2
  6
CONTINUOUS
 62
    3
 10
1309.4613
 20
1708.0736
 11
1308.6094
 21
1707.8183
  0
LINE
  8
0-2
  6
CONTINUOUS
 62
    3
 10
1308.6094
 20
1707.8183
 11
1307.81
 21
1707.4014
  0
LINE
  8
0-2
  6
CONTINUOUS
 62
    3
 10
1307.81
 20
1707.4014
 11
1307.0876
 21
1706.8355
  0
LINE
  8
0-2
  6
CONTINUOUS
 62
    3
 10
1307.0876
 20
1706.8355
 11
1306.4639
 21
1706.138
  0
LINE
  8
0-2
  6
CONTINUOUS
 62
    3
 10
1306.4639
 20
1706.138
 11
1305.958
 21
1705.3299
  0
LINE
  8
0-2
  6
CONTINUOUS
 62
    3
 10
1305.958
 20
1705.3299
 11
1305.5852
 21
1704.4359
  0
LINE
  8
0-2
  6
CONTINUOUS
 62
    3
 10
1305.5852
 20
1704.4359
 11
1305.357
 21
1703.483
  0
LINE
  8
0-2
  6
CONTINUOUS
 62
    3
 10
1305.357
 20
1703.483
 11
1305.2801
 21
1702.5003
  0
LINE
  8
0-2
  6
CONTINUOUS
 62
    3
 10
1037.7014
 20
1571.2796
 11
1037.2596
 21
1572.9249
  0
LINE
  8
0-2
  6
CONTINUOUS
 62
    3
 10
1037.2596
 20
1572.9249
 11
1036.5691
 21
1574.4594
  0
LINE
  8
0-2
  6
CONTINUOUS
 62
    3
 10
1036.5691
 20
1574.4594
 11
1035.6508
 21
1575.8366
  0
LINE
  8
0-2
  6
CONTINUOUS
 62
    3
 10
1035.6508
 20
1575.8366
 11
1034.5326
 21
1577.0144
  0
LINE
  8
0-2
  6
CONTINUOUS
 62
    3
 10
1034.5326
 20
1577.0144
 11
1033.2486
 21
1577.9572
  0
LINE
  8
0-2
  6
CONTINUOUS
 62
    3
 10
1033.2486
 20
1577.9572
 11
1031.8376
 21
1578.6363
  0
LINE
  8
0-2
  6
CONTINUOUS
 62
    3
 10
1031.8376
 20
1578.6363
 11
1030.3427
 21
1579.031
  0
LINE
  8
0-2
  6
CONTINUOUS
 62
    3
 10
1030.3427
 20
1579.031
 11
1028.8092
 21
1579.1294
  0
LINE
  8
0-2
  6
CONTINUOUS
 62
    3
 10
1028.8092
 20
1579.1294
 11
1027.2838
 21
1578.9285
  0
LINE
  8
0-2
  6
CONTINUOUS
 62
    3
 10
1027.2838
 20
1578.9285
 11
1025.8127
 21
1578.4343
  0
LINE
  8
0-2
  6
CONTINUOUS
 62
    3
 10
1025.8127
 20
1578.4343
 11
1024.4406
 21
1577.662
  0
LINE
  8
0-2
  6
CONTINUOUS
 62
    3
 10
1024.4406
 20
1577.662
 11
1023.2094
 21
1576.6349
  0
LINE
  8
0-2
  6
CONTINUOUS
 62
    3
 10
1023.2094
 20
1576.6349
 11
1022.1562
 21
1575.3843
  0
LINE
  8
0-2
  6
CONTINUOUS
 62
    3
 10
1022.1562
 20
1575.3843
 11
1021.3133
 21
1573.9482
  0
LINE
  8
0-2
  6
CONTINUOUS
 62
    3
 10
1021.3133
 20
1573.9482
 11
1020.7061
 21
1572.3702
  0
LINE
  8
0-2
  6
CONTINUOUS
 62
    3
 10
1020.7061
 20
1572.3702
 11
1020.4449
 21
1571.2796
  0
LINE
  8
0-2
  6
CONTINUOUS
 62
    3
 10
1089.5554
 20
1571.2796
 11
1089.1136
 21
1572.9249
  0
LINE
  8
0-2
  6
CONTINUOUS
 62
    3
 10
1089.1136
 20
1572.9249
 11
1088.4231
 21
1574.4594
  0
LINE
  8
0-2
  6
CONTINUOUS
 62
    3
 10
1088.4231
 20
1574.4594
 11
1087.5048
 21
1575.8366
  0
LINE
  8
0-2
  6
CONTINUOUS
 62
    3
 10
1087.5048
 20
1575.8366
 11
1086.3866
 21
1577.0144
  0
LINE
  8
0-2
  6
CONTINUOUS
 62
    3
 10
1086.3866
 20
1577.0144
 11
1085.1025
 21
1577.9572
  0
LINE
  8
0-2
  6
CONTINUOUS
 62
    3
 10
1085.1025
 20
1577.9572
 11
1083.6916
 21
1578.6363
  0
LINE
  8
0-2
  6
CONTINUOUS
 62
    3
 10
1083.6916
 20
1578.6363
 11
1082.1967
 21
1579.031
  0
LINE
  8
0-2
  6
CONTINUOUS
 62
    3
 10
1082.1967
 20
1579.031
 11
1080.6632
 21
1579.1294
  0
LINE
  8
0-2
  6
CONTINUOUS
 62
    3
 10
1080.6632
 20
1579.1294
 11
1079.1378
 21
1578.9285
  0
LINE
  8
0-2
  6
CONTINUOUS
 62
    3
 10
1079.1378
 20
1578.9285
 11
1077.6666
 21
1578.4343
  0
LINE
  8
0-2
  6
CONTINUOUS
 62
    3
 10
1077.6666
 20
1578.4343
 11
1076.2946
 21
1577.662
  0
LINE
  8
0-2
  6
CONTINUOUS
 62
    3
 10
1076.2946
 20
1577.662
 11
1075.0633
 21
1576.6349
  0
LINE
  8
0-2
  6
CONTINUOUS
 62
    3
 10
1075.0633
 20
1576.6349
 11
1074.0102
 21
1575.3843
  0
LINE
  8
0-2
  6
CONTINUOUS
 62
    3
 10
1074.0102
 20
1575.3843
 11
1073.1673
 21
1573.9482
  0
LINE
  8
0-2
  6
CONTINUOUS
 62
    3
 10
1073.1673
 20
1573.9482
 11
1072.5601
 21
1572.3702
  0
LINE
  8
0-2
  6
CONTINUOUS
 62
    3
 10
1072.5601
 20
1572.3702
 11
1072.2988
 21
1571.2796
  0
LINE
  8
0-2
  6
CONTINUOUS
 62
    3
 10
869.4119
 20
1554.6701
 11
869.33503
 21
1555.6528
  0
LINE
  8
0-2
  6
CONTINUOUS
 62
    3
 10
869.33503
 20
1555.6528
 11
869.10675
 21
1556.6057
  0
LINE
  8
0-2
  6
CONTINUOUS
 62
    3
 10
869.10675
 20
1556.6057
 11
868.734
 21
1557.4997
  0
LINE
  8
0-2
  6
CONTINUOUS
 62
    3
 10
868.734
 20
1557.4997
 11
868.22811
 21
1558.3078
  0
LINE
  8
0-2
  6
CONTINUOUS
 62
    3
 10
868.22811
 20
1558.3078
 11
867.60444
 21
1559.0053
  0
LINE
  8
0-2
  6
CONTINUOUS
 62
    3
 10
867.60444
 20
1559.0053
 11
866.88195
 21
1559.5711
  0
LINE
  8
0-2
  6
CONTINUOUS
 62
    3
 10
866.88195
 20
1559.5711
 11
866.08259
 21
1559.988
  0
LINE
  8
0-2
  6
CONTINUOUS
 62
    3
 10
866.08259
 20
1559.988
 11
865.23064
 21
1560.2434
  0
LINE
  8
0-2
  6
CONTINUOUS
 62
    3
 10
865.23064
 20
1560.2434
 11
864.352
 21
1560.3293
  0
LINE
  8
0-2
  6
CONTINUOUS
 62
    3
 10
864.352
 20
1560.3293
 11
863.47336
 21
1560.2434
  0
LINE
  8
0-2
  6
CONTINUOUS
 62
    3
 10
863.47336
 20
1560.2434
 11
862.62142
 21
1559.988
  0
LINE
  8
0-2
  6
CONTINUOUS
 62
    3
 10
862.62142
 20
1559.988
 11
861.82205
 21
1559.5711
  0
LINE
  8
0-2
  6
CONTINUOUS
 62
    3
 10
861.82205
 20
1559.5711
 11
861.09956
 21
1559.0053
  0
LINE
  8
0-2
  6
CONTINUOUS
 62
    3
 10
861.09956
 20
1559.0053
 11
860.4759
 21
1558.3078
  0
LINE
  8
0-2
  6
CONTINUOUS
 62
    3
 10
860.4759
 20
1558.3078
 11
859.97
 21
1557.4997
  0
LINE
  8
0-2
  6
CONTINUOUS
 62
    3
 10
859.97
 20
1557.4997
 11
859.59725
 21
1556.6057
  0
LINE
  8
0-2
  6
CONTINUOUS
 62
    3
 10
859.59725
 20
1556.6057
 11
859.36898
 21
1555.6528
  0
LINE
  8
0-2
  6
CONTINUOUS
 62
    3
 10
859.36898
 20
1555.6528
 11
859.2921
 21
1554.6701
  0
LINE
  8
0-2
  6
CONTINUOUS
 62
    3
 10
859.2921
 20
1554.6701
 11
859.36898
 21
1553.6874
  0
LINE
  8
0-2
  6
CONTINUOUS
 62
    3
 10
859.36898
 20
1553.6874
 11
859.59725
 21
1552.7346
  0
LINE
  8
0-2
  6
CONTINUOUS
 62
    3
 10
859.59725
 20
1552.7346
 11
859.97
 21
1551.8405
  0
LINE
  8
0-2
  6
CONTINUOUS
 62
    3
 10
859.97
 20
1551.8405
 11
860.4759
 21
1551.0325
  0
LINE
  8
0-2
  6
CONTINUOUS
 62
    3
 10
860.4759
 20
1551.0325
 11
861.09956
 21
1550.3349
  0
LINE
  8
0-2
  6
CONTINUOUS
 62
    3
 10
861.09956
 20
1550.3349
 11
861.82205
 21
1549.7691
  0
LINE
  8
0-2
  6
CONTINUOUS
 62
    3
 10
861.82205
 20
1549.7691
 11
862.62142
 21
1549.3522
  0
LINE
  8
0-2
  6
CONTINUOUS
 62
    3
 10
862.62142
 20
1549.3522
 11
863.47336
 21
1549.0969
  0
LINE
  8
0-2
  6
CONTINUOUS
 62
    3
 10
863.47336
 20
1549.0969
 11
864.352
 21
1549.0109
  0
LINE
  8
0-2
  6
CONTINUOUS
 62
    3
 10
864.352
 20
1549.0109
 11
865.23064
 21
1549.0969
  0
LINE
  8
0-2
  6
CONTINUOUS
 62
    3
 10
865.23064
 20
1549.0969
 11
866.08259
 21
1549.3522
  0
LINE
  8
0-2
  6
CONTINUOUS
 62
    3
 10
866.08259
 20
1549.3522
 11
866.88195
 21
1549.7691
  0
LINE
  8
0-2
  6
CONTINUOUS
 62
    3
 10
866.88195
 20
1549.7691
 11
867.60444
 21
1550.3349
  0
LINE
  8
0-2
  6
CONTINUOUS
 62
    3
 10
867.60444
 20
1550.3349
 11
868.22811
 21
1551.0325
  0
LINE
  8
0-2
  6
CONTINUOUS
 62
    3
 10
868.22811
 20
1551.0325
 11
868.734
 21
1551.8405
  0
LINE
  8
0-2
  6
CONTINUOUS
 62
    3
 10
868.734
 20
1551.8405
 11
869.10675
 21
1552.7346
  0
LINE
  8
0-2
  6
CONTINUOUS
 62
    3
 10
869.10675
 20
1552.7346
 11
869.33503
 21
1553.6874
  0
LINE
  8
0-2
  6
CONTINUOUS
 62
    3
 10
869.33503
 20
1553.6874
 11
869.4119
 21
1554.6701
  0
LINE
  8
0-2
  6
CONTINUOUS
 62
    3
 10
869.4119
 20
1490.9953
 11
869.33503
 21
1491.978
  0
LINE
  8
0-2
  6
CONTINUOUS
 62
    3
 10
869.33503
 20
1491.978
 11
869.10675
 21
1492.9309
  0
LINE
  8
0-2
  6
CONTINUOUS
 62
    3
 10
869.10675
 20
1492.9309
 11
868.734
 21
1493.8249
  0
LINE
  8
0-2
  6
CONTINUOUS
 62
    3
 10
868.734
 20
1493.8249
 11
868.22811
 21
1494.633
  0
LINE
  8
0-2
  6
CONTINUOUS
 62
    3
 10
868.22811
 20
1494.633
 11
867.60444
 21
1495.3305
  0
LINE
  8
0-2
  6
CONTINUOUS
 62
    3
 10
867.60444
 20
1495.3305
 11
866.88195
 21
1495.8963
  0
LINE
  8
0-2
  6
CONTINUOUS
 62
    3
 10
866.88195
 20
1495.8963
 11
866.08259
 21
1496.3132
  0
LINE
  8
0-2
  6
CONTINUOUS
 62
    3
 10
866.08259
 20
1496.3132
 11
865.23064
 21
1496.5686
  0
LINE
  8
0-2
  6
CONTINUOUS
 62
    3
 10
865.23064
 20
1496.5686
 11
864.352
 21
1496.6545
  0
LINE
  8
0-2
  6
CONTINUOUS
 62
    3
 10
864.352
 20
1496.6545
 11
863.47336
 21
1496.5686
  0
LINE
  8
0-2
  6
CONTINUOUS
 62
    3
 10
863.47336
 20
1496.5686
 11
862.62142
 21
1496.3132
  0
LINE
  8
0-2
  6
CONTINUOUS
 62
    3
 10
862.62142
 20
1496.3132
 11
861.82205
 21
1495.8963
  0
LINE
  8
0-2
  6
CONTINUOUS
 62
    3
 10
861.82205
 20
1495.8963
 11
861.09956
 21
1495.3305
  0
LINE
  8
0-2
  6
CONTINUOUS
 62
    3
 10
861.09956
 20
1495.3305
 11
860.4759
 21
1494.633
  0
LINE
  8
0-2
  6
CONTINUOUS
 62
    3
 10
860.4759
 20
1494.633
 11
859.97
 21
1493.8249
  0
LINE
  8
0-2
  6
CONTINUOUS
 62
    3
 10
859.97
 20
1493.8249
 11
859.59725
 21
1492.9309
  0
LINE
  8
0-2
  6
CONTINUOUS
 62
    3
 10
859.59725
 20
1492.9309
 11
859.36898
 21
1491.978
  0
LINE
  8
0-2
  6
CONTINUOUS
 62
    3
 10
859.36898
 20
1491.978
 11
859.2921
 21
1490.9953
  0
LINE
  8
0-2
  6
CONTINUOUS
 62
    3
 10
859.2921
 20
1490.9953
 11
859.36898
 21
1490.0126
  0
LINE
  8
0-2
  6
CONTINUOUS
 62
    3
 10
859.36898
 20
1490.0126
 11
859.59725
 21
1489.0598
  0
LINE
  8
0-2
  6
CONTINUOUS
 62
    3
 10
859.59725
 20
1489.0598
 11
859.97
 21
1488.1657
  0
LINE
  8
0-2
  6
CONTINUOUS
 62
    3
 10
859.97
 20
1488.1657
 11
860.4759
 21
1487.3577
  0
LINE
  8
0-2
  6
CONTINUOUS
 62
    3
 10
860.4759
 20
1487.3577
 11
861.09956
 21
1486.6601
  0
LINE
  8
0-2
  6
CONTINUOUS
 62
    3
 10
861.09956
 20
1486.6601
 11
861.82205
 21
1486.0943
  0
LINE
  8
0-2
  6
CONTINUOUS
 62
    3
 10
861.82205
 20
1486.0943
 11
862.62142
 21
1485.6774
  0
LINE
  8
0-2
  6
CONTINUOUS
 62
    3
 10
862.62142
 20
1485.6774
 11
863.47336
 21
1485.4221
  0
LINE
  8
0-2
  6
CONTINUOUS
 62
    3
 10
863.47336
 20
1485.4221
 11
864.352
 21
1485.3361
  0
LINE
  8
0-2
  6
CONTINUOUS
 62
    3
 10
864.352
 20
1485.3361
 11
865.23064
 21
1485.4221
  0
LINE
  8
0-2
  6
CONTINUOUS
 62
    3
 10
865.23064
 20
1485.4221
 11
866.08259
 21
1485.6774
  0
LINE
  8
0-2
  6
CONTINUOUS
 62
    3
 10
866.08259
 20
1485.6774
 11
866.88195
 21
1486.0943
  0
LINE
  8
0-2
  6
CONTINUOUS
 62
    3
 10
866.88195
 20
1486.0943
 11
867.60444
 21
1486.6601
  0
LINE
  8
0-2
  6
CONTINUOUS
 62
    3
 10
867.60444
 20
1486.6601
 11
868.22811
 21
1487.3577
  0
LINE
  8
0-2
  6
CONTINUOUS
 62
    3
 10
868.22811
 20
1487.3577
 11
868.734
 21
1488.1657
  0
LINE
  8
0-2
  6
CONTINUOUS
 62
    3
 10
868.734
 20
1488.1657
 11
869.10675
 21
1489.0598
  0
LINE
  8
0-2
  6
CONTINUOUS
 62
    3
 10
869.10675
 20
1489.0598
 11
869.33503
 21
1490.0126
  0
LINE
  8
0-2
  6
CONTINUOUS
 62
    3
 10
869.33503
 20
1490.0126
 11
869.4119
 21
1490.9953
  0
LINE
  8
0-2
  6
CONTINUOUS
 62
    3
 10
1240.5884
 20
1554.6701
 11
1240.6653
 21
1553.6874
  0
LINE
  8
0-2
  6
CONTINUOUS
 62
    3
 10
1240.6653
 20
1553.6874
 11
1240.8936
 21
1552.7346
  0
LINE
  8
0-2
  6
CONTINUOUS
 62
    3
 10
1240.8936
 20
1552.7346
 11
1241.2663
 21
1551.8405
  0
LINE
  8
0-2
  6
CONTINUOUS
 62
    3
 10
1241.2663
 20
1551.8405
 11
1241.7722
 21
1551.0325
  0
LINE
  8
0-2
  6
CONTINUOUS
 62
    3
 10
1241.7722
 20
1551.0325
 11
1242.3959
 21
1550.3349
  0
LINE
  8
0-2
  6
CONTINUOUS
 62
    3
 10
1242.3959
 20
1550.3349
 11
1243.1184
 21
1549.7691
  0
LINE
  8
0-2
  6
CONTINUOUS
 62
    3
 10
1243.1184
 20
1549.7691
 11
1243.9177
 21
1549.3522
  0
LINE
  8
0-2
  6
CONTINUOUS
 62
    3
 10
1243.9177
 20
1549.3522
 11
1244.7697
 21
1549.0969
  0
LINE
  8
0-2
  6
CONTINUOUS
 62
    3
 10
1244.7697
 20
1549.0969
 11
1245.6483
 21
1549.0109
  0
LINE
  8
0-2
  6
CONTINUOUS
 62
    3
 10
1245.6483
 20
1549.0109
 11
1246.527
 21
1549.0969
  0
LINE
  8
0-2
  6
CONTINUOUS
 62
    3
 10
1246.527
 20
1549.0969
 11
1247.3789
 21
1549.3522
  0
LINE
  8
0-2
  6
CONTINUOUS
 62
    3
 10
1247.3789
 20
1549.3522
 11
1248.1783
 21
1549.7691
  0
LINE
  8
0-2
  6
CONTINUOUS
 62
    3
 10
1248.1783
 20
1549.7691
 11
1248.9008
 21
1550.3349
  0
LINE
  8
0-2
  6
CONTINUOUS
 62
    3
 10
1248.9008
 20
1550.3349
 11
1249.5244
 21
1551.0325
  0
LINE
  8
0-2
  6
CONTINUOUS
 62
    3
 10
1249.5244
 20
1551.0325
 11
1250.0303
 21
1551.8405
  0
LINE
  8
0-2
  6
CONTINUOUS
 62
    3
 10
1250.0303
 20
1551.8405
 11
1250.4031
 21
1552.7346
  0
LINE
  8
0-2
  6
CONTINUOUS
 62
    3
 10
1250.4031
 20
1552.7346
 11
1250.6314
 21
1553.6874
  0
LINE
  8
0-2
  6
CONTINUOUS
 62
    3
 10
1250.6314
 20
1553.6874
 11
1250.7082
 21
1554.6701
  0
LINE
  8
0-2
  6
CONTINUOUS
 62
    3
 10
1250.7082
 20
1554.6701
 11
1250.6314
 21
1555.6528
  0
LINE
  8
0-2
  6
CONTINUOUS
 62
    3
 10
1250.6314
 20
1555.6528
 11
1250.4031
 21
1556.6057
  0
LINE
  8
0-2
  6
CONTINUOUS
 62
    3
 10
1250.4031
 20
1556.6057
 11
1250.0303
 21
1557.4997
  0
LINE
  8
0-2
  6
CONTINUOUS
 62
    3
 10
1250.0303
 20
1557.4997
 11
1249.5244
 21
1558.3078
  0
LINE
  8
0-2
  6
CONTINUOUS
 62
    3
 10
1249.5244
 20
1558.3078
 11
1248.9008
 21
1559.0053
  0
LINE
  8
0-2
  6
CONTINUOUS
 62
    3
 10
1248.9008
 20
1559.0053
 11
1248.1783
 21
1559.5711
  0
LINE
  8
0-2
  6
CONTINUOUS
 62
    3
 10
1248.1783
 20
1559.5711
 11
1247.3789
 21
1559.988
  0
LINE
  8
0-2
  6
CONTINUOUS
 62
    3
 10
1247.3789
 20
1559.988
 11
1246.527
 21
1560.2434
  0
LINE
  8
0-2
  6
CONTINUOUS
 62
    3
 10
1246.527
 20
1560.2434
 11
1245.6483
 21
1560.3293
  0
LINE
  8
0-2
  6
CONTINUOUS
 62
    3
 10
1245.6483
 20
1560.3293
 11
1244.7697
 21
1560.2434
  0
LINE
  8
0-2
  6
CONTINUOUS
 62
    3
 10
1244.7697
 20
1560.2434
 11
1243.9177
 21
1559.988
  0
LINE
  8
0-2
  6
CONTINUOUS
 62
    3
 10
1243.9177
 20
1559.988
 11
1243.1184
 21
1559.5711
  0
LINE
  8
0-2
  6
CONTINUOUS
 62
    3
 10
1243.1184
 20
1559.5711
 11
1242.3959
 21
1559.0053
  0
LINE
  8
0-2
  6
CONTINUOUS
 62
    3
 10
1242.3959
 20
1559.0053
 11
1241.7722
 21
1558.3078
  0
LINE
  8
0-2
  6
CONTINUOUS
 62
    3
 10
1241.7722
 20
1558.3078
 11
1241.2663
 21
1557.4997
  0
LINE
  8
0-2
  6
CONTINUOUS
 62
    3
 10
1241.2663
 20
1557.4997
 11
1240.8936
 21
1556.6057
  0
LINE
  8
0-2
  6
CONTINUOUS
 62
    3
 10
1240.8936
 20
1556.6057
 11
1240.6653
 21
1555.6528
  0
LINE
  8
0-2
  6
CONTINUOUS
 62
    3
 10
1240.6653
 20
1555.6528
 11
1240.5884
 21
1554.6701
  0
LINE
  8
0-2
  6
CONTINUOUS
 62
    3
 10
1240.5884
 20
1490.9953
 11
1240.6653
 21
1490.0126
  0
LINE
  8
0-2
  6
CONTINUOUS
 62
    3
 10
1240.6653
 20
1490.0126
 11
1240.8936
 21
1489.0598
  0
LINE
  8
0-2
  6
CONTINUOUS
 62
    3
 10
1240.8936
 20
1489.0598
 11
1241.2663
 21
1488.1657
  0
LINE
  8
0-2
  6
CONTINUOUS
 62
    3
 10
1241.2663
 20
1488.1657
 11
1241.7722
 21
1487.3577
  0
LINE
  8
0-2
  6
CONTINUOUS
 62
    3
 10
1241.7722
 20
1487.3577
 11
1242.3959
 21
1486.6601
  0
LINE
  8
0-2
  6
CONTINUOUS
 62
    3
 10
1242.3959
 20
1486.6601
 11
1243.1184
 21
1486.0943
  0
LINE
  8
0-2
  6
CONTINUOUS
 62
    3
 10
1243.1184
 20
1486.0943
 11
1243.9177
 21
1485.6774
  0
LINE
  8
0-2
  6
CONTINUOUS
 62
    3
 10
1243.9177
 20
1485.6774
 11
1244.7697
 21
1485.4221
  0
LINE
  8
0-2
  6
CONTINUOUS
 62
    3
 10
1244.7697
 20
1485.4221
 11
1245.6483
 21
1485.3361
  0
LINE
  8
0-2
  6
CONTINUOUS
 62
    3
 10
1245.6483
 20
1485.3361
 11
1246.527
 21
1485.4221
  0
LINE
  8
0-2
  6
CONTINUOUS
 62
    3
 10
1246.527
 20
1485.4221
 11
1247.3789
 21
1485.6774
  0
LINE
  8
0-2
  6
CONTINUOUS
 62
    3
 10
1247.3789
 20
1485.6774
 11
1248.1783
 21
1486.0943
  0
LINE
  8
0-2
  6
CONTINUOUS
 62
    3
 10
1248.1783
 20
1486.0943
 11
1248.9008
 21
1486.6601
  0
LINE
  8
0-2
  6
CONTINUOUS
 62
    3
 10
1248.9008
 20
1486.6601
 11
1249.5244
 21
1487.3577
  0
LINE
  8
0-2
  6
CONTINUOUS
 62
    3
 10
1249.5244
 20
1487.3577
 11
1250.0303
 21
1488.1657
  0
LINE
  8
0-2
  6
CONTINUOUS
 62
    3
 10
1250.0303
 20
1488.1657
 11
1250.4031
 21
1489.0598
  0
LINE
  8
0-2
  6
CONTINUOUS
 62
    3
 10
1250.4031
 20
1489.0598
 11
1250.6314
 21
1490.0126
  0
LINE
  8
0-2
  6
CONTINUOUS
 62
    3
 10
1250.6314
 20
1490.0126
 11
1250.7082
 21
1490.9953
  0
LINE
  8
0-2
  6
CONTINUOUS
 62
    3
 10
1250.7082
 20
1490.9953
 11
1250.6314
 21
1491.978
  0
LINE
  8
0-2
  6
CONTINUOUS
 62
    3
 10
1250.6314
 20
1491.978
 11
1250.4031
 21
1492.9309
  0
LINE
  8
0-2
  6
CONTINUOUS
 62
    3
 10
1250.4031
 20
1492.9309
 11
1250.0303
 21
1493.8249
  0
LINE
  8
0-2
  6
CONTINUOUS
 62
    3
 10
1250.0303
 20
1493.8249
 11
1249.5244
 21
1494.633
  0
LINE
  8
0-2
  6
CONTINUOUS
 62
    3
 10
1249.5244
 20
1494.633
 11
1248.9008
 21
1495.3305
  0
LINE
  8
0-2
  6
CONTINUOUS
 62
    3
 10
1248.9008
 20
1495.3305
 11
1248.1783
 21
1495.8963
  0
LINE
  8
0-2
  6
CONTINUOUS
 62
    3
 10
1248.1783
 20
1495.8963
 11
1247.3789
 21
1496.3132
  0
LINE
  8
0-2
  6
CONTINUOUS
 62
    3
 10
1247.3789
 20
1496.3132
 11
1246.527
 21
1496.5686
  0
LINE
  8
0-2
  6
CONTINUOUS
 62
    3
 10
1246.527
 20
1496.5686
 11
1245.6483
 21
1496.6545
  0
LINE
  8
0-2
  6
CONTINUOUS
 62
    3
 10
1245.6483
 20
1496.6545
 11
1244.7697
 21
1496.5686
  0
LINE
  8
0-2
  6
CONTINUOUS
 62
    3
 10
1244.7697
 20
1496.5686
 11
1243.9177
 21
1496.3132
  0
LINE
  8
0-2
  6
CONTINUOUS
 62
    3
 10
1243.9177
 20
1496.3132
 11
1243.1184
 21
1495.8963
  0
LINE
  8
0-2
  6
CONTINUOUS
 62
    3
 10
1243.1184
 20
1495.8963
 11
1242.3959
 21
1495.3305
  0
LINE
  8
0-2
  6
CONTINUOUS
 62
    3
 10
1242.3959
 20
1495.3305
 11
1241.7722
 21
1494.633
  0
LINE
  8
0-2
  6
CONTINUOUS
 62
    3
 10
1241.7722
 20
1494.633
 11
1241.2663
 21
1493.8249
  0
LINE
  8
0-2
  6
CONTINUOUS
 62
    3
 10
1241.2663
 20
1493.8249
 11
1240.8936
 21
1492.9309
  0
LINE
  8
0-2
  6
CONTINUOUS
 62
    3
 10
1240.8936
 20
1492.9309
 11
1240.6653
 21
1491.978
  0
LINE
  8
0-2
  6
CONTINUOUS
 62
    3
 10
1240.6653
 20
1491.978
 11
1240.5884
 21
1490.9953
  0
ARC
  8
0-2
  6
CONTINUOUS
 62
    3
 10
797.50025
 20
1404.5939
 40
5.0000167
 50
90
 51
270
  0
ARC
  8
0-2
  6
CONTINUOUS
 62
    3
 10
797.49902
 20
1470.0499
 40
5.0000167
 50
90
 51
270
  0
ARC
  8
0-2
  6
CONTINUOUS
 62
    3
 10
1312.5003
 20
1404.5939
 40
5.0000167
 50
270
 51
90
  0
ARC
  8
0-2
  6
CONTINUOUS
 62
    3
 10
1312.5015
 20
1470.0499
 40
5.0000167
 50
270
 51
90
  0
TEXT
  8
0-d
 10
259.99975
 20
167.50018
 40
25
 41
1
 50
0
  1
図
  0
TEXT
  8
0-d
 10
259.99975
 20
107.50023
 40
25
 41
1
 50
0
  1
番
  0
TEXT
  8
0-d
 10
660.0006
 20
167.50018
 40
25
 41
1
 50
0
  1
承
  0
TEXT
  8
0-d
 10
660.0006
 20
107.50023
 40
25
 41
1
 50
0
  1
認
  0
TEXT
  8
0-d
 10
1025.0003
 20
247.50021
 40
25
 41
1
 50
0
  1
尺
  0
TEXT
  8
0-d
 10
1025.0003
 20
207.50007
 40
25
 41
1
 50
0.0000762
  1
度
  0
TEXT
  8
0-d
 10
860.00028
 20
167.50018
 40
25
 41
1
 50
0
  1
製
  0
TEXT
  8
0-d
 10
860.00028
 20
107.50023
 40
25
 41
1
 50
0
  1
図
  0
TEXT
  8
0-d
 10
1560.0001
 20
247.50021
 40
25
 41
1
 50
0
  1
日
  0
TEXT
  8
0-d
 10
1560.0001
 20
207.50007
 40
25
 41
1
 50
0.0000762
  1
付
  0
TEXT
  8
0-d
 10
1116.4263
 20
173.48254
 40
20
 41
1
 50
0
  1
株式
  0
TEXT
  8
0-d
 10
1116.4263
 20
151.85209
 40
20
 41
1
 50
0.0000152
  1
会社
  0
TEXT
  8
0-d
 10
1179.2248
 20
153.2474
 40
40
 41
1
 50
0
  1
スズキベンチレーター
  0
TEXT
  8
0-d
 10
1242.9183
 20
104.02444
 40
20
 41
1
 50
0
  1
TEL(054)296-7000  FAX(054)296-7001
  0
TEXT
  8
0-d
 10
1089.349
 20
220.10095
 40
40
 41
1
 50
0
  1
１／１０
  0
TEXT
  8
0-2
 10
980.45572
 20
2582.6921
 40
30
 41
1
 50
0
  1
860φ
  0
TEXT
  8
0-2
 10
967.09199
 20
1288.5436
 40
30
 41
1
 50
0
  1
515φ
  0
TEXT
  8
0-2
 10
452.86055
 20
1827.802
 40
30
 41
1
 50
90
  1
1,030
  0
TEXT
  8
0-d
 10
313.45925
 20
150.30237
 40
30
 41
1
 50
0
  1
50-C09a
  0
TEXT
  8
0-d
 10
264.45945
 20
2794.1893
 40
50
 41
1
 50
0
  1
ＡＳ－５００　自然回転  直付型立面
  0
TEXT
  8
0-d
 10
285.67572
 20
225.81111
 40
30
 41
1
 50
0
  1
ＡＳ－５００　自然回転  直付型立面
  0
TEXT
  8
0-d
 10
1240.6792
 20
128.64619
 40
20
 41
1
 50
0
  1
〒421-2114　静岡市葵区安倍口新田１５２番地
  0
POINT
  8
0-2
 62
    2
 10
624.90002
 20
2567.7086
  0
POINT
  8
0-2
 62
    2
 10
1485.0998
 20
2567.7086
  0
POINT
  8
0-2
 62
    2
 10
460.45052
 20
1399.5939
  0
POINT
  8
0-2
 62
    2
 10
460.45052
 20
2429.5939
  0
POINT
  8
0-2
 62
    2
 10
460.45052
 20
1399.5946
  0
POINT
  8
0-2
 62
    2
 10
797.50106
 20
1285.6895
  0
POINT
  8
0-2
 62
    2
 10
1312.5009
 20
1285.6894
  0
ENDSEC
  0
EOF
