  0
SECTION
  2
HEADER
  9
$EXTMIN
 10
0
 20
0
  9
$EXTMAX
 10
4200
 20
2970
  0
ENDSEC
  0
SECTION
  2
TABLES
  0
TABLE
  2
LTYPE
 70
     9
  0
LTYPE
  2
CONTINUOUS
 70
    64
  3
実線
 72
    65
 73
     0
 40
0.0
  0
LTYPE
  2
DASHED1
 70
    64
  3
--  --  --  --  --  --  --  --  
 72
    65
 73
     2
 40
2.5
 49
1.25
 49
-1.25
  0
LTYPE
  2
DASHED2
 70
    64
  3
----    ----    ----    ----    
 72
    65
 73
     2
 40
5.0
 49
2.5
 49
-2.5
  0
LTYPE
  2
DASHED3
 70
    64
  3
------  ------  ------  ------  
 72
    65
 73
     2
 40
5.0
 49
3.75
 49
-1.25
  0
LTYPE
  2
CENTER1
 70
    64
  3
----- - ----- - ----- - ----- - 
 72
    65
 73
     4
 40
10.0
 49
6.25
 49
-1.25
 49
1.25
 49
-1.25
  0
LTYPE
  2
CENTER2
 70
    64
  3
----------  --  ----------  --  
 72
    65
 73
     4
 40
20.0
 49
12.5
 49
-2.5
 49
2.5
 49
-2.5
  0
LTYPE
  2
PHANTOM1
 70
    64
  3
--- - - --- - - --- - - --- - - 
 72
    65
 73
     6
 40
10.0
 49
3.25
 49
-1.25
 49
1.25
 49
-1.25
 49
1.25
 49
-1.25
  0
LTYPE
  2
PHANTOM2
 70
    64
  3
--------  -  -  --------  -  -  
 72
    65
 73
     6
 40
20.0
 49
10.0
 49
-2.5
 49
1.25
 49
-2.5
 49
1.25
 49
-2.5
  0
LTYPE
  2
DOT
 70
    64
  3
-   -   -   -   -   -   -   -   
 72
    65
 73
     2
 40
2.5
 49
0.625
 49
-1.875
  0
ENDTAB
  0
TABLE
  2
STYLE
 70
    1
  0
STYLE
  2
STANDARD
 70
    64
 40
0.0
 41
1.0
 42
0.0
 50
0.0
 71
     0
  3
TXT
  4
BIGFONT
  0
ENDTAB
  0
TABLE
  2
LAYER
 70
    4
  0
LAYER
  2
0-2
 70
   64
 62
    7
  6
CONTINUOUS
  0
LAYER
  2
0-5
 70
   64
 62
    7
  6
CONTINUOUS
  0
LAYER
  2
0-d
 70
   64
 62
    7
  6
CONTINUOUS
  0
LAYER
  2
ADD_LINE
 70
   64
 62
    7
  6
CONTINUOUS
  0
ENDTAB
  0
ENDSEC
  0
SECTION
  2
ENTITIES
  0
LINE
  8
0-d
  6
CONTINUOUS
 62
    7
 10
250.00004
 20
2757.7013
 11
1850.0001
 21
2757.7013
  0
LINE
  8
0-d
  6
CONTINUOUS
 62
    7
 10
250.00004
 20
2767.7016
 11
1850.0001
 21
2767.7016
  0
LINE
  8
0-d
  6
CONTINUOUS
 62
    7
 10
254.99974
 20
200.00017
 11
1855.0003
 21
200.00017
  0
LINE
  8
0-d
  6
CONTINUOUS
 62
    7
 10
254.99974
 20
100.00008
 11
254.99974
 21
280.00019
  0
LINE
  8
0-d
  6
CONTINUOUS
 62
    7
 10
254.99974
 20
100.00008
 11
1855.0003
 21
100.00008
  0
LINE
  8
0-d
  6
CONTINUOUS
 62
    7
 10
254.99974
 20
280.00019
 11
1855.0003
 21
280.00019
  0
LINE
  8
0-d
  6
CONTINUOUS
 62
    7
 10
1055.0001
 20
280.00019
 11
1055.0001
 21
100.00008
  0
LINE
  8
0-d
  6
CONTINUOUS
 62
    7
 10
655.00033
 20
100.00008
 11
655.00033
 21
200.00017
  0
LINE
  8
0-d
  6
CONTINUOUS
 62
    7
 10
1055.0001
 20
200.00017
 11
1055.0001
 21
280.00019
  0
LINE
  8
0-d
  6
CONTINUOUS
 62
    7
 10
854.99977
 20
100.00008
 11
854.99977
 21
200.00017
  0
LINE
  8
0-d
  6
CONTINUOUS
 62
    7
 10
290.0001
 20
100.00008
 11
290.0001
 21
200.00017
  0
LINE
  8
0-d
  6
CONTINUOUS
 62
    7
 10
690.0002
 20
100.00008
 11
690.0002
 21
200.00017
  0
LINE
  8
0-d
  6
CONTINUOUS
 62
    7
 10
890.00013
 20
100.00008
 11
890.00013
 21
200.00017
  0
LINE
  8
0-d
  6
CONTINUOUS
 62
    7
 10
1020
 20
200.00017
 11
1020
 21
280.00019
  0
LINE
  8
0-d
  6
CONTINUOUS
 62
    7
 10
1555.0003
 20
200.00017
 11
1555.0003
 21
280.00019
  0
LINE
  8
0-d
  6
CONTINUOUS
 62
    7
 10
1590.0002
 20
200.00017
 11
1590.0002
 21
280.00019
  0
LINE
  8
0-d
  6
CONTINUOUS
 62
    7
 10
1855.0003
 20
280.00019
 11
1855.0003
 21
100.00008
  0
LINE
  8
0-2
  6
CONTINUOUS
 62
    7
 10
614.30143
 20
1763.326
 11
339.00049
 21
1763.326
  0
LINE
  8
0-2
  6
CONTINUOUS
 62
    7
 10
670.00014
 20
2511.8797
 11
1439.9999
 21
2511.8797
  0
LINE
  8
0-2
  6
CONTINUOUS
 62
    7
 10
670.00014
 20
2395.3259
 11
670.00014
 21
2511.8797
  0
LINE
  8
0-2
  6
CONTINUOUS
 62
    7
 10
1439.9999
 20
2395.3259
 11
1439.9999
 21
2511.8797
  0
LINE
  8
0-2
  6
CONTINUOUS
 62
    7
 10
607.3016
 20
2443.3258
 11
339.00061
 21
2443.3258
  0
LINE
  8
0-2
  6
CONTINUOUS
 62
    7
 10
695.00022
 20
1627.7521
 11
1415.0001
 21
1627.7521
  0
LINE
  8
0-2
  6
CONTINUOUS
 62
    3
 10
695.00022
 20
1763.326
 11
1414.9999
 21
1763.326
  0
LINE
  8
0-2
  6
CONTINUOUS
 62
    3
 10
695.00022
 20
1823.3257
 11
1415.0001
 21
1823.3257
  0
LINE
  8
0-2
  6
CONTINUOUS
 62
    7
 10
1415.0001
 20
1726.7298
 11
1415.0001
 21
1627.7521
  0
LINE
  8
0-2
  6
CONTINUOUS
 62
    3
 10
695.00022
 20
1763.326
 11
695.00022
 21
1823.3257
  0
LINE
  8
0-2
  6
CONTINUOUS
 62
    7
 10
695.00022
 20
1724.2253
 11
695.00022
 21
1627.7521
  0
LINE
  8
ADD_LINE
  6
DOT
 62
    4
 10
695.00022
 20
1763.326
 11
1414.9999
 21
1763.326
  0
LINE
  8
0-2
  6
CONTINUOUS
 62
    3
 10
1055.0001
 20
2443.3258
 11
861.55321
 21
2335.3257
  0
LINE
  8
0-2
  6
CONTINUOUS
 62
    3
 10
797.49994
 20
1945.3258
 11
797.49994
 21
1885.3253
  0
LINE
  8
0-2
  6
CONTINUOUS
 62
    7
 10
339.00049
 20
1763.326
 11
339.00061
 21
2443.3258
  0
LINE
  8
0-2
  6
CONTINUOUS
 62
    7
 10
428.66328
 20
1763.326
 11
428.6634
 21
1823.3257
  0
LINE
  8
0-2
  6
CONTINUOUS
 62
    7
 10
614.30143
 20
1763.326
 11
428.66328
 21
1763.326
  0
LINE
  8
0-2
  6
CONTINUOUS
 62
    7
 10
614.30143
 20
1823.3257
 11
428.6634
 21
1823.3257
  0
LINE
  8
0-2
  6
CONTINUOUS
 62
    3
 10
797.49994
 20
1929.3357
 11
797.49994
 21
1879.3357
  0
LINE
  8
0-2
  6
CONTINUOUS
 62
    3
 10
797.4997
 20
1879.3357
 11
819.7772
 21
1879.3357
  0
LINE
  8
0-2
  6
CONTINUOUS
 62
    3
 10
670.00014
 20
2325.3257
 11
670.00014
 21
2293.0261
  0
LINE
  8
0-2
  6
CONTINUOUS
 62
    3
 10
669.99989
 20
2283.0266
 11
669.99989
 21
1997.6247
  0
LINE
  8
0-2
  6
CONTINUOUS
 62
    3
 10
669.99989
 20
1987.6246
 11
669.99989
 21
1955.3253
  0
LINE
  8
0-2
  6
CONTINUOUS
 62
    3
 10
1415.0004
 20
1763.326
 11
1415.0001
 21
1823.3257
  0
LINE
  8
0-2
  6
CONTINUOUS
 62
    3
 10
1440.0002
 20
2325.3257
 11
1440.0002
 21
2293.0261
  0
LINE
  8
0-2
  6
CONTINUOUS
 62
    3
 10
1440.0004
 20
2283.0266
 11
1440.0004
 21
1997.6247
  0
LINE
  8
0-2
  6
CONTINUOUS
 62
    3
 10
1440.0004
 20
1987.6246
 11
1440.0004
 21
1955.3253
  0
LINE
  8
0-2
  6
CONTINUOUS
 62
    3
 10
670.00014
 20
2293.0266
 11
1055.0001
 21
2293.0269
  0
LINE
  8
0-2
  6
CONTINUOUS
 62
    3
 10
670.00014
 20
2335.3257
 11
1055.0001
 21
2335.3257
  0
LINE
  8
0-2
  6
CONTINUOUS
 62
    3
 10
669.99989
 20
1945.3253
 11
1055.0001
 21
1945.3255
  0
LINE
  8
0-2
  6
CONTINUOUS
 62
    3
 10
669.99989
 20
1987.6246
 11
1055.0001
 21
1987.6246
  0
LINE
  8
0-2
  6
CONTINUOUS
 62
    3
 10
670.00014
 20
2325.3257
 11
1055.0001
 21
2325.3257
  0
LINE
  8
0-2
  6
CONTINUOUS
 62
    3
 10
669.99989
 20
2283.0266
 11
1055.0001
 21
2283.0268
  0
LINE
  8
0-2
  6
CONTINUOUS
 62
    3
 10
669.99989
 20
1997.6247
 11
1055.0001
 21
1997.6247
  0
LINE
  8
0-2
  6
CONTINUOUS
 62
    3
 10
669.99989
 20
1955.3253
 11
1055.0001
 21
1955.3256
  0
LINE
  8
0-2
  6
CONTINUOUS
 62
    3
 10
1055.0001
 20
2443.3258
 11
1381.5683
 21
2261.0052
  0
LINE
  8
0-2
  6
CONTINUOUS
 62
    7
 10
1312.4999
 20
2229.5655
 11
1055.0001
 21
2229.5655
  0
LINE
  8
0-2
  6
CONTINUOUS
 62
    3
 10
1055.0001
 20
2229.5655
 11
1312.5014
 21
2229.5655
  0
LINE
  8
0-2
  6
CONTINUOUS
 62
    3
 10
1440.0004
 20
2283.0266
 11
1342.1239
 21
2283.0266
  0
LINE
  8
0-2
  6
CONTINUOUS
 62
    3
 10
1440.0002
 20
2325.3257
 11
1266.359
 21
2325.3257
  0
LINE
  8
0-2
  6
CONTINUOUS
 62
    3
 10
1440.0002
 20
2335.3257
 11
1248.4471
 21
2335.3257
  0
LINE
  8
0-2
  6
CONTINUOUS
 62
    3
 10
1440.0002
 20
2293.0266
 11
1324.2122
 21
2293.0266
  0
LINE
  8
0-2
  6
CONTINUOUS
 62
    3
 10
1440.0004
 20
1955.3253
 11
1312.5004
 21
1955.3254
  0
LINE
  8
0-2
  6
CONTINUOUS
 62
    3
 10
1440.0004
 20
1997.6247
 11
1312.5004
 21
1997.6247
  0
LINE
  8
0-2
  6
CONTINUOUS
 62
    3
 10
1440.0004
 20
1987.6246
 11
1312.5004
 21
1987.6246
  0
LINE
  8
0-2
  6
CONTINUOUS
 62
    3
 10
1440.0004
 20
1945.3253
 11
1312.5004
 21
1945.3254
  0
LINE
  8
0-2
  6
CONTINUOUS
 62
    3
 10
1312.5014
 20
2229.5655
 11
1196.7134
 21
2229.5655
  0
LINE
  8
0-2
  6
CONTINUOUS
 62
    3
 10
1312.5004
 20
2219.5655
 11
1055.0001
 21
2219.5655
  0
LINE
  8
0-5
  6
CONTINUOUS
 62
    3
 10
1312.4999
 20
2299.5652
 11
1312.4999
 21
2229.5655
  0
LINE
  8
0-5
  6
CONTINUOUS
 62
    7
 10
1312.4999
 20
2229.5655
 11
1055.0001
 21
2229.5655
  0
LINE
  8
0-5
  6
CONTINUOUS
 62
    3
 10
1055.0001
 20
2229.5655
 11
1312.5014
 21
2229.5655
  0
LINE
  8
0-5
  6
CONTINUOUS
 62
    7
 10
1312.4999
 20
2299.5652
 11
1055.0001
 21
2299.5652
  0
LINE
  8
0-5
  6
CONTINUOUS
 62
    4
 10
1307.4999
 20
2299.5652
 11
1307.4999
 21
2229.5655
  0
LINE
  8
0-5
  6
CONTINUOUS
 62
    4
 10
1302.4999
 20
2299.5652
 11
1302.4999
 21
2229.5655
  0
LINE
  8
0-5
  6
CONTINUOUS
 62
    4
 10
1297.4998
 20
2299.5652
 11
1297.4998
 21
2229.5655
  0
LINE
  8
0-5
  6
CONTINUOUS
 62
    4
 10
1292.4999
 20
2299.5652
 11
1292.4999
 21
2229.5655
  0
LINE
  8
0-5
  6
CONTINUOUS
 62
    4
 10
1287.4999
 20
2299.5652
 11
1287.4999
 21
2229.5655
  0
LINE
  8
0-5
  6
CONTINUOUS
 62
    4
 10
1282.4999
 20
2299.5652
 11
1282.4999
 21
2229.5655
  0
LINE
  8
0-5
  6
CONTINUOUS
 62
    4
 10
1277.4999
 20
2299.5652
 11
1277.4999
 21
2229.5655
  0
LINE
  8
0-5
  6
CONTINUOUS
 62
    4
 10
1272.4999
 20
2299.5652
 11
1272.4999
 21
2229.5655
  0
LINE
  8
0-5
  6
CONTINUOUS
 62
    4
 10
1267.4999
 20
2299.5652
 11
1267.4999
 21
2229.5655
  0
LINE
  8
0-5
  6
CONTINUOUS
 62
    4
 10
1262.4998
 20
2299.5652
 11
1262.4998
 21
2229.5655
  0
LINE
  8
0-5
  6
CONTINUOUS
 62
    4
 10
1257.4998
 20
2299.5652
 11
1257.4998
 21
2229.5655
  0
LINE
  8
0-5
  6
CONTINUOUS
 62
    4
 10
1252.4998
 20
2299.5652
 11
1252.4998
 21
2229.5655
  0
LINE
  8
0-5
  6
CONTINUOUS
 62
    4
 10
1247.4999
 20
2299.5652
 11
1247.4999
 21
2229.5655
  0
LINE
  8
0-5
  6
CONTINUOUS
 62
    4
 10
1242.4999
 20
2299.5652
 11
1242.4999
 21
2229.5655
  0
LINE
  8
0-5
  6
CONTINUOUS
 62
    4
 10
1237.4999
 20
2299.5652
 11
1237.4999
 21
2229.5655
  0
LINE
  8
0-5
  6
CONTINUOUS
 62
    4
 10
1232.4999
 20
2299.5652
 11
1232.4999
 21
2229.5655
  0
LINE
  8
0-5
  6
CONTINUOUS
 62
    4
 10
1227.4999
 20
2299.5652
 11
1227.4999
 21
2229.5655
  0
LINE
  8
0-5
  6
CONTINUOUS
 62
    4
 10
1222.4998
 20
2299.5652
 11
1222.4998
 21
2229.5655
  0
LINE
  8
0-5
  6
CONTINUOUS
 62
    4
 10
1217.4998
 20
2299.5652
 11
1217.4998
 21
2229.5655
  0
LINE
  8
0-5
  6
CONTINUOUS
 62
    4
 10
1212.4998
 20
2299.5652
 11
1212.4998
 21
2229.5655
  0
LINE
  8
0-5
  6
CONTINUOUS
 62
    4
 10
1207.4998
 20
2299.5652
 11
1207.4998
 21
2229.5655
  0
LINE
  8
0-5
  6
CONTINUOUS
 62
    4
 10
1202.4999
 20
2299.5652
 11
1202.4999
 21
2229.5655
  0
LINE
  8
0-5
  6
CONTINUOUS
 62
    4
 10
1197.4999
 20
2299.5652
 11
1197.4999
 21
2229.5655
  0
LINE
  8
0-5
  6
CONTINUOUS
 62
    4
 10
1192.4999
 20
2299.5652
 11
1192.4999
 21
2229.5655
  0
LINE
  8
0-5
  6
CONTINUOUS
 62
    4
 10
1187.4998
 20
2299.5652
 11
1187.4998
 21
2229.5655
  0
LINE
  8
0-5
  6
CONTINUOUS
 62
    4
 10
1182.4998
 20
2299.5652
 11
1182.4998
 21
2229.5655
  0
LINE
  8
0-5
  6
CONTINUOUS
 62
    4
 10
1177.4998
 20
2299.5652
 11
1177.4998
 21
2229.5655
  0
LINE
  8
0-5
  6
CONTINUOUS
 62
    4
 10
1172.4998
 20
2299.5652
 11
1172.4998
 21
2229.5655
  0
LINE
  8
0-5
  6
CONTINUOUS
 62
    4
 10
1167.4998
 20
2299.5652
 11
1167.4998
 21
2229.5655
  0
LINE
  8
0-5
  6
CONTINUOUS
 62
    4
 10
1162.4998
 20
2299.5652
 11
1162.4998
 21
2229.5655
  0
LINE
  8
0-5
  6
CONTINUOUS
 62
    4
 10
1157.4999
 20
2299.5652
 11
1157.4999
 21
2229.5655
  0
LINE
  8
0-5
  6
CONTINUOUS
 62
    4
 10
1152.4999
 20
2299.5652
 11
1152.4999
 21
2229.5655
  0
LINE
  8
0-5
  6
CONTINUOUS
 62
    4
 10
1147.4998
 20
2299.5652
 11
1147.4998
 21
2229.5655
  0
LINE
  8
0-5
  6
CONTINUOUS
 62
    4
 10
1142.4998
 20
2299.5652
 11
1142.4998
 21
2229.5655
  0
LINE
  8
0-5
  6
CONTINUOUS
 62
    4
 10
1137.4998
 20
2299.5652
 11
1137.4998
 21
2229.5655
  0
LINE
  8
0-5
  6
CONTINUOUS
 62
    4
 10
1132.4998
 20
2299.5652
 11
1132.4998
 21
2229.5655
  0
LINE
  8
0-5
  6
CONTINUOUS
 62
    4
 10
1127.4998
 20
2299.5652
 11
1127.4998
 21
2229.5655
  0
LINE
  8
0-5
  6
CONTINUOUS
 62
    4
 10
1122.4998
 20
2299.5652
 11
1122.4998
 21
2229.5655
  0
LINE
  8
0-5
  6
CONTINUOUS
 62
    4
 10
1117.4997
 20
2299.5652
 11
1117.4997
 21
2229.5655
  0
LINE
  8
0-5
  6
CONTINUOUS
 62
    4
 10
1112.4998
 20
2299.5652
 11
1112.4998
 21
2229.5655
  0
LINE
  8
0-5
  6
CONTINUOUS
 62
    4
 10
1107.4998
 20
2299.5652
 11
1107.4998
 21
2229.5655
  0
LINE
  8
0-5
  6
CONTINUOUS
 62
    4
 10
1102.4998
 20
2299.5652
 11
1102.4998
 21
2229.5655
  0
LINE
  8
0-5
  6
CONTINUOUS
 62
    4
 10
1097.4998
 20
2299.5652
 11
1097.4998
 21
2229.5655
  0
LINE
  8
0-5
  6
CONTINUOUS
 62
    4
 10
1092.4998
 20
2299.5652
 11
1092.4998
 21
2229.5655
  0
LINE
  8
0-5
  6
CONTINUOUS
 62
    4
 10
1087.4998
 20
2299.5652
 11
1087.4998
 21
2229.5655
  0
LINE
  8
0-5
  6
CONTINUOUS
 62
    4
 10
1082.4997
 20
2299.5652
 11
1082.4997
 21
2229.5655
  0
LINE
  8
0-5
  6
CONTINUOUS
 62
    4
 10
1077.4997
 20
2299.5652
 11
1077.4997
 21
2229.5655
  0
LINE
  8
0-5
  6
CONTINUOUS
 62
    4
 10
1072.4997
 20
2299.5652
 11
1072.4997
 21
2229.5655
  0
LINE
  8
0-5
  6
CONTINUOUS
 62
    4
 10
1067.4998
 20
2299.5652
 11
1067.4998
 21
2229.5655
  0
LINE
  8
0-5
  6
CONTINUOUS
 62
    4
 10
1062.4998
 20
2299.5652
 11
1062.4998
 21
2229.5655
  0
LINE
  8
0-5
  6
CONTINUOUS
 62
    4
 10
1057.4998
 20
2299.5652
 11
1057.4998
 21
2229.5655
  0
LINE
  8
0-5
  6
CONTINUOUS
 62
    4
 10
1312.4999
 20
2294.5652
 11
1055.0001
 21
2294.5652
  0
LINE
  8
0-5
  6
CONTINUOUS
 62
    4
 10
1312.4999
 20
2289.5652
 11
1055.0001
 21
2289.5652
  0
LINE
  8
0-5
  6
CONTINUOUS
 62
    4
 10
1312.4999
 20
2284.5652
 11
1055.0001
 21
2284.5652
  0
LINE
  8
0-5
  6
CONTINUOUS
 62
    4
 10
1312.4999
 20
2279.5652
 11
1055.0001
 21
2279.5652
  0
LINE
  8
0-5
  6
CONTINUOUS
 62
    4
 10
1312.4999
 20
2274.5651
 11
1055.0001
 21
2274.5651
  0
LINE
  8
0-5
  6
CONTINUOUS
 62
    4
 10
1312.4999
 20
2269.5651
 11
1055.0001
 21
2269.5651
  0
LINE
  8
0-5
  6
CONTINUOUS
 62
    4
 10
1312.4999
 20
2264.5651
 11
1055.0001
 21
2264.5651
  0
LINE
  8
0-5
  6
CONTINUOUS
 62
    4
 10
1312.4999
 20
2259.5653
 11
1055.0001
 21
2259.5653
  0
LINE
  8
0-5
  6
CONTINUOUS
 62
    4
 10
1312.4999
 20
2254.5653
 11
1055.0001
 21
2254.5653
  0
LINE
  8
0-5
  6
CONTINUOUS
 62
    4
 10
1312.4999
 20
2249.5653
 11
1055.0001
 21
2249.5653
  0
LINE
  8
0-5
  6
CONTINUOUS
 62
    4
 10
1312.4999
 20
2244.5653
 11
1055.0001
 21
2244.5653
  0
LINE
  8
0-5
  6
CONTINUOUS
 62
    4
 10
1312.4999
 20
2239.5653
 11
1055.0001
 21
2239.5653
  0
LINE
  8
0-5
  6
CONTINUOUS
 62
    4
 10
1312.4999
 20
2234.5653
 11
1055.0001
 21
2234.5653
  0
LINE
  8
0-2
  6
CONTINUOUS
 62
    3
 10
1381.5683
 20
2261.0052
 11
1312.4999
 21
2261.0052
  0
LINE
  8
0-2
  6
CONTINUOUS
 62
    3
 10
1312.5004
 20
1869.3359
 11
1415.0001
 21
1823.3257
  0
LINE
  8
0-2
  6
CONTINUOUS
 62
    3
 10
899.2185
 20
1879.3358
 11
1312.5004
 21
1879.3358
  0
LINE
  8
0-2
  6
CONTINUOUS
 62
    3
 10
899.2185
 20
1869.3358
 11
1312.5004
 21
1869.3358
  0
LINE
  8
0-2
  6
CONTINUOUS
 62
    3
 10
1312.5004
 20
2219.5655
 11
1312.5004
 21
1879.3357
  0
LINE
  8
0-2
  6
CONTINUOUS
 62
    3
 10
1312.5004
 20
1869.3358
 11
1312.5004
 21
1823.3257
  0
LINE
  8
0-2
  6
CONTINUOUS
 62
    3
 10
1312.5004
 20
1945.3258
 11
1312.5004
 21
1879.3358
  0
LINE
  8
0-2
  6
CENTER2
 62
    7
 10
1055.0001
 20
1763.326
 11
1055.0001
 21
2443.3258
  0
LINE
  8
0-2
  6
CONTINUOUS
 62
    3
 10
899.2185
 20
1914.9954
 11
695.00022
 21
1823.3257
  0
LINE
  8
0-2
  6
CONTINUOUS
 62
    3
 10
899.2185
 20
1914.9954
 11
899.2185
 21
1823.3257
  0
ARC
  8
0-2
  6
CONTINUOUS
 62
    3
 10
797.4997
 20
1874.3357
 40
5.0000167
 50
90
 51
270.00141
  0
ARC
  8
0-2
  6
CONTINUOUS
 62
    3
 10
669.99989
 20
1950.3253
 40
5.0000167
 50
90
 51
270.00141
  0
ARC
  8
0-2
  6
CONTINUOUS
 62
    3
 10
669.99989
 20
1992.6247
 40
5.0000167
 50
90
 51
270.00141
  0
ARC
  8
0-2
  6
CONTINUOUS
 62
    3
 10
670.00014
 20
2288.0266
 40
5.0000167
 50
90
 51
270.00141
  0
ARC
  8
0-2
  6
CONTINUOUS
 62
    3
 10
670.00014
 20
2330.3257
 40
5.0000167
 50
90
 51
270.00141
  0
ARC
  8
0-2
  6
CONTINUOUS
 62
    3
 10
1312.5009
 20
1874.3357
 40
5.0000167
 50
269.99858
 51
90
  0
ARC
  8
0-2
  6
CONTINUOUS
 62
    3
 10
1440.0007
 20
1950.3253
 40
5.0000167
 50
269.99858
 51
90
  0
ARC
  8
0-2
  6
CONTINUOUS
 62
    3
 10
1440.0007
 20
1992.6247
 40
5.0000167
 50
269.99858
 51
90
  0
ARC
  8
0-2
  6
CONTINUOUS
 62
    3
 10
1440.0002
 20
2288.0266
 40
5.0000167
 50
269.99858
 51
90
  0
ARC
  8
0-2
  6
CONTINUOUS
 62
    3
 10
1440.0002
 20
2330.3257
 40
5.0000167
 50
269.99858
 51
90
  0
ARC
  8
0-2
  6
CONTINUOUS
 62
    3
 10
1312.5014
 20
2224.5655
 40
5.0000167
 50
269.99858
 51
90
  0
TEXT
  8
0-d
 10
259.99975
 20
167.50018
 40
25
 41
1
 50
0
  1
図
  0
TEXT
  8
0-d
 10
259.99975
 20
107.50023
 40
25
 41
1
 50
0
  1
番
  0
TEXT
  8
0-d
 10
660.0006
 20
167.50018
 40
25
 41
1
 50
0
  1
承
  0
TEXT
  8
0-d
 10
660.0006
 20
107.50023
 40
25
 41
1
 50
0
  1
認
  0
TEXT
  8
0-d
 10
1025.0003
 20
247.50021
 40
25
 41
1
 50
0
  1
尺
  0
TEXT
  8
0-d
 10
1025.0003
 20
207.50007
 40
25
 41
1
 50
0.0000762
  1
度
  0
TEXT
  8
0-d
 10
860.00028
 20
167.50018
 40
25
 41
1
 50
0
  1
製
  0
TEXT
  8
0-d
 10
860.00028
 20
107.50023
 40
25
 41
1
 50
0
  1
図
  0
TEXT
  8
0-d
 10
1560.0001
 20
247.50021
 40
25
 41
1
 50
0
  1
日
  0
TEXT
  8
0-d
 10
1560.0001
 20
207.50007
 40
25
 41
1
 50
0.0000762
  1
付
  0
TEXT
  8
0-d
 10
1116.4263
 20
173.48254
 40
20
 41
1
 50
0
  1
株式
  0
TEXT
  8
0-d
 10
1116.4263
 20
151.85209
 40
20
 41
1
 50
0.0000152
  1
会社
  0
TEXT
  8
0-d
 10
1179.2248
 20
153.2474
 40
40
 41
1
 50
0
  1
スズキベンチレーター
  0
TEXT
  8
0-d
 10
1242.9183
 20
104.02444
 40
20
 41
1
 50
0
  1
TEL(054)296-7000  FAX(054)296-7001
  0
TEXT
  8
0-d
 10
1089.349
 20
220.10095
 40
40
 41
1
 50
0
  1
１／１０
  0
TEXT
  8
0-2
 10
996.14588
 20
1631.8498
 40
30
 41
1
 50
0
  1
720*720
  0
TEXT
  8
0-2
 10
315.60072
 20
2018.5239
 40
30
 41
1
 50
90
  1
680
  0
TEXT
  8
0-2
 10
1025.5845
 20
2517.7574
 40
30
 41
1
 50
0
  1
770
  0
TEXT
  8
0-2
 10
418.66337
 20
1774.8855
 40
30
 41
1
 50
90
  1
60
  0
TEXT
  8
0-d
 10
313.45925
 20
150.30237
 40
30
 41
1
 50
0
  1
50-C08b
  0
TEXT
  8
0-d
 10
264.45945
 20
2794.1893
 40
50
 41
1
 50
0
  1
ＤＳ－５００　自然換気  架台型（網付）断面
  0
TEXT
  8
0-d
 10
1240.6792
 20
128.64619
 40
20
 41
1
 50
0
  1
〒421-2114　静岡市葵区安倍口新田１５２番地
  0
TEXT
  8
0-d
 10
285.67572
 20
225.81111
 40
30
 41
1
 50
0
  1
ＤＳ－５００ 自然換気 架台型（網付）断面
  0
POINT
  8
0-2
 62
    2
 10
339.00049
 20
1763.326
  0
POINT
  8
0-2
 62
    2
 10
339.00061
 20
2443.3258
  0
POINT
  8
0-2
 62
    2
 10
670.00014
 20
2511.8797
  0
POINT
  8
0-2
 62
    2
 10
1439.9999
 20
2511.8797
  0
POINT
  8
0-2
 62
    2
 10
695.00022
 20
1627.7521
  0
POINT
  8
0-2
 62
    2
 10
1415.0001
 20
1627.7521
  0
POINT
  8
0-2
 62
    2
 10
428.66328
 20
1763.326
  0
POINT
  8
0-2
 62
    2
 10
428.6634
 20
1823.3257
  0
ENDSEC
  0
EOF
