  0
SECTION
  2
HEADER
  9
$EXTMIN
 10
0
 20
0
  9
$EXTMAX
 10
4200
 20
2970
  0
ENDSEC
  0
SECTION
  2
TABLES
  0
TABLE
  2
LTYPE
 70
     9
  0
LTYPE
  2
CONTINUOUS
 70
    64
  3
実線
 72
    65
 73
     0
 40
0.0
  0
LTYPE
  2
DASHED1
 70
    64
  3
--  --  --  --  --  --  --  --  
 72
    65
 73
     2
 40
2.5
 49
1.25
 49
-1.25
  0
LTYPE
  2
DASHED2
 70
    64
  3
----    ----    ----    ----    
 72
    65
 73
     2
 40
5.0
 49
2.5
 49
-2.5
  0
LTYPE
  2
DASHED3
 70
    64
  3
------  ------  ------  ------  
 72
    65
 73
     2
 40
5.0
 49
3.75
 49
-1.25
  0
LTYPE
  2
CENTER1
 70
    64
  3
----- - ----- - ----- - ----- - 
 72
    65
 73
     4
 40
10.0
 49
6.25
 49
-1.25
 49
1.25
 49
-1.25
  0
LTYPE
  2
CENTER2
 70
    64
  3
----------  --  ----------  --  
 72
    65
 73
     4
 40
20.0
 49
12.5
 49
-2.5
 49
2.5
 49
-2.5
  0
LTYPE
  2
PHANTOM1
 70
    64
  3
--- - - --- - - --- - - --- - - 
 72
    65
 73
     6
 40
10.0
 49
3.25
 49
-1.25
 49
1.25
 49
-1.25
 49
1.25
 49
-1.25
  0
LTYPE
  2
PHANTOM2
 70
    64
  3
--------  -  -  --------  -  -  
 72
    65
 73
     6
 40
20.0
 49
10.0
 49
-2.5
 49
1.25
 49
-2.5
 49
1.25
 49
-2.5
  0
LTYPE
  2
DOT
 70
    64
  3
-   -   -   -   -   -   -   -   
 72
    65
 73
     2
 40
2.5
 49
0.625
 49
-1.875
  0
ENDTAB
  0
TABLE
  2
STYLE
 70
    1
  0
STYLE
  2
STANDARD
 70
    64
 40
0.0
 41
1.0
 42
0.0
 50
0.0
 71
     0
  3
TXT
  4
BIGFONT
  0
ENDTAB
  0
TABLE
  2
LAYER
 70
    3
  0
LAYER
  2
0-2
 70
   64
 62
    7
  6
CONTINUOUS
  0
LAYER
  2
0-d
 70
   64
 62
    7
  6
CONTINUOUS
  0
LAYER
  2
ADD_LINE
 70
   64
 62
    7
  6
CONTINUOUS
  0
ENDTAB
  0
ENDSEC
  0
SECTION
  2
ENTITIES
  0
LINE
  8
0-d
  6
CONTINUOUS
 62
    7
 10
254.99974
 20
200.00017
 11
1855.0003
 21
200.00017
  0
LINE
  8
0-d
  6
CONTINUOUS
 62
    7
 10
254.99974
 20
100.00008
 11
254.99974
 21
280.00019
  0
LINE
  8
0-d
  6
CONTINUOUS
 62
    7
 10
254.99974
 20
100.00008
 11
1855.0003
 21
100.00008
  0
LINE
  8
0-d
  6
CONTINUOUS
 62
    7
 10
254.99974
 20
280.00019
 11
1855.0003
 21
280.00019
  0
LINE
  8
0-d
  6
CONTINUOUS
 62
    7
 10
1055.0001
 20
280.00019
 11
1055.0001
 21
100.00008
  0
LINE
  8
0-d
  6
CONTINUOUS
 62
    7
 10
655.00033
 20
100.00008
 11
655.00033
 21
200.00017
  0
LINE
  8
0-d
  6
CONTINUOUS
 62
    7
 10
1055.0001
 20
200.00017
 11
1055.0001
 21
280.00019
  0
LINE
  8
0-d
  6
CONTINUOUS
 62
    7
 10
854.99977
 20
100.00008
 11
854.99977
 21
200.00017
  0
LINE
  8
0-d
  6
CONTINUOUS
 62
    7
 10
290.0001
 20
100.00008
 11
290.0001
 21
200.00017
  0
LINE
  8
0-d
  6
CONTINUOUS
 62
    7
 10
690.0002
 20
100.00008
 11
690.0002
 21
200.00017
  0
LINE
  8
0-d
  6
CONTINUOUS
 62
    7
 10
890.00013
 20
100.00008
 11
890.00013
 21
200.00017
  0
LINE
  8
0-d
  6
CONTINUOUS
 62
    7
 10
1020
 20
200.00017
 11
1020
 21
280.00019
  0
LINE
  8
0-d
  6
CONTINUOUS
 62
    7
 10
1555.0003
 20
200.00017
 11
1555.0003
 21
280.00019
  0
LINE
  8
0-d
  6
CONTINUOUS
 62
    7
 10
1590.0002
 20
200.00017
 11
1590.0002
 21
280.00019
  0
LINE
  8
0-d
  6
CONTINUOUS
 62
    7
 10
1855.0003
 20
280.00019
 11
1855.0003
 21
100.00008
  0
LINE
  8
0-2
  6
CONTINUOUS
 62
    7
 10
249.99997
 20
2757.7013
 11
1850
 21
2757.7013
  0
LINE
  8
0-2
  6
CONTINUOUS
 62
    7
 10
249.99997
 20
2767.7014
 11
1850
 21
2767.7014
  0
LINE
  8
0-2
  6
CONTINUOUS
 62
    7
 10
614.30168
 20
1813.3258
 11
339.00061
 21
1813.3258
  0
LINE
  8
0-2
  6
CONTINUOUS
 62
    7
 10
670.00014
 20
2481.8796
 11
1440.0002
 21
2481.8796
  0
LINE
  8
0-2
  6
CONTINUOUS
 62
    7
 10
797.50019
 20
1688.8157
 11
1312.5001
 21
1688.8157
  0
LINE
  8
0-2
  6
CONTINUOUS
 62
    3
 10
669.99989
 20
1987.6248
 11
1440.0002
 21
1987.625
  0
LINE
  8
0-2
  6
CONTINUOUS
 62
    3
 10
797.50019
 20
1863.7262
 11
1312.5016
 21
1863.7262
  0
LINE
  8
0-2
  6
CONTINUOUS
 62
    3
 10
797.50019
 20
1813.3257
 11
1312.5016
 21
1813.3257
  0
LINE
  8
0-2
  6
CONTINUOUS
 62
    7
 10
670.00014
 20
2365.3258
 11
670.00014
 21
2481.8796
  0
LINE
  8
0-2
  6
CONTINUOUS
 62
    7
 10
1440.0002
 20
2365.3258
 11
1440.0002
 21
2481.8796
  0
LINE
  8
0-2
  6
CONTINUOUS
 62
    3
 10
669.99989
 20
1945.3257
 11
1440.0002
 21
1945.3259
  0
LINE
  8
0-2
  6
CONTINUOUS
 62
    7
 10
797.50019
 20
1794.3879
 11
797.50019
 21
1688.8157
  0
LINE
  8
0-2
  6
CONTINUOUS
 62
    7
 10
1312.5001
 20
1794.3879
 11
1312.5001
 21
1688.8157
  0
LINE
  8
0-2
  6
CONTINUOUS
 62
    3
 10
670.00014
 20
2335.3257
 11
1440.0002
 21
2335.326
  0
LINE
  8
0-2
  6
CONTINUOUS
 62
    3
 10
1055.0001
 20
2443.3258
 11
1242.0609
 21
2335.326
  0
LINE
  8
0-2
  6
CONTINUOUS
 62
    7
 10
339.00061
 20
1813.3258
 11
339.00061
 21
2443.3258
  0
LINE
  8
0-2
  6
CONTINUOUS
 62
    7
 10
614.30168
 20
2443.3258
 11
339.00061
 21
2443.3258
  0
LINE
  8
0-2
  6
CONTINUOUS
 62
    3
 10
669.99989
 20
1955.3257
 11
1440.0002
 21
1955.3259
  0
LINE
  8
0-2
  6
CONTINUOUS
 62
    3
 10
669.99989
 20
1987.6248
 11
669.99989
 21
1955.3257
  0
LINE
  8
0-2
  6
CONTINUOUS
 62
    3
 10
797.50019
 20
1873.7262
 11
1312.5016
 21
1873.7262
  0
LINE
  8
0-2
  6
CONTINUOUS
 62
    3
 10
797.50019
 20
1946.2637
 11
797.50019
 21
1873.7262
  0
LINE
  8
0-2
  6
CONTINUOUS
 62
    3
 10
797.50019
 20
1823.3257
 11
1312.5016
 21
1823.3257
  0
LINE
  8
0-2
  6
CONTINUOUS
 62
    3
 10
797.50019
 20
1863.7262
 11
797.50019
 21
1823.3257
  0
LINE
  8
0-2
  6
CONTINUOUS
 62
    3
 10
1440.0002
 20
1987.6248
 11
1440.0002
 21
1955.3257
  0
LINE
  8
0-2
  6
CONTINUOUS
 62
    3
 10
1312.5001
 20
1946.2637
 11
1312.5001
 21
1873.7262
  0
LINE
  8
0-2
  6
CONTINUOUS
 62
    3
 10
1312.5001
 20
1863.7262
 11
1312.5001
 21
1823.3257
  0
LINE
  8
0-2
  6
CONTINUOUS
 62
    3
 10
669.99989
 20
1997.6248
 11
1440.0002
 21
1997.625
  0
LINE
  8
0-2
  6
CONTINUOUS
 62
    3
 10
669.99989
 20
2293.0269
 11
1439.9999
 21
2293.0271
  0
LINE
  8
0-2
  6
CONTINUOUS
 62
    3
 10
669.99989
 20
2325.3259
 11
1439.9999
 21
2325.3262
  0
LINE
  8
0-2
  6
CONTINUOUS
 62
    3
 10
669.99989
 20
2293.0269
 11
669.99989
 21
2325.3259
  0
LINE
  8
0-2
  6
CONTINUOUS
 62
    3
 10
1440.0002
 20
2293.0274
 11
1440.0002
 21
2325.3264
  0
LINE
  8
0-2
  6
CONTINUOUS
 62
    3
 10
669.99989
 20
2283.0268
 11
669.99989
 21
1997.6248
  0
LINE
  8
0-2
  6
CONTINUOUS
 62
    3
 10
669.99989
 20
2283.0268
 11
1440.0002
 21
2283.0271
  0
LINE
  8
0-2
  6
CONTINUOUS
 62
    3
 10
1440.0002
 20
2283.0271
 11
1440.0002
 21
1997.625
  0
LINE
  8
0-2
  6
CONTINUOUS
 62
    3
 10
1055.0001
 20
2443.3258
 11
867.93914
 21
2335.326
  0
LINE
  8
0-2
  6
CENTER2
 62
    7
 10
1055.0001
 20
2443.3258
 11
1055.0001
 21
1813.3257
  0
ARC
  8
0-2
  6
CONTINUOUS
 62
    3
 10
797.50019
 20
1818.3256
 40
5.0000167
 50
90
 51
270
  0
ARC
  8
0-2
  6
CONTINUOUS
 62
    3
 10
797.50019
 20
1868.7265
 40
5.0000167
 50
90
 51
270
  0
ARC
  8
0-2
  6
CONTINUOUS
 62
    3
 10
669.99989
 20
1950.3259
 40
5.0000167
 50
90
 51
270
  0
ARC
  8
0-2
  6
CONTINUOUS
 62
    3
 10
669.99989
 20
1992.6253
 40
5.0000167
 50
90
 51
270
  0
ARC
  8
0-2
  6
CONTINUOUS
 62
    3
 10
1312.5001
 20
1818.3256
 40
5.0000167
 50
270
 51
90
  0
ARC
  8
0-2
  6
CONTINUOUS
 62
    3
 10
1312.5001
 20
1868.7265
 40
5.0000167
 50
270
 51
90
  0
ARC
  8
0-2
  6
CONTINUOUS
 62
    3
 10
1440.0002
 20
1950.3259
 40
5.0000167
 50
270
 51
90
  0
ARC
  8
0-2
  6
CONTINUOUS
 62
    3
 10
1440.0002
 20
1992.6253
 40
5.0000167
 50
270
 51
90
  0
ARC
  8
0-2
  6
CONTINUOUS
 62
    3
 10
669.99989
 20
2330.3257
 40
5.0000167
 50
90
 51
270
  0
ARC
  8
0-2
  6
CONTINUOUS
 62
    3
 10
669.99989
 20
2288.0264
 40
5.0000167
 50
90
 51
270
  0
ARC
  8
0-2
  6
CONTINUOUS
 62
    3
 10
1440.0002
 20
2330.3262
 40
5.0000167
 50
270
 51
90
  0
ARC
  8
0-2
  6
CONTINUOUS
 62
    3
 10
1440.0002
 20
2288.0269
 40
5.0000167
 50
270
 51
90
  0
TEXT
  8
0-d
 10
259.99975
 20
167.50018
 40
25
 41
1
 50
0
  1
図
  0
TEXT
  8
0-d
 10
259.99975
 20
107.50023
 40
25
 41
1
 50
0
  1
番
  0
TEXT
  8
0-d
 10
660.0006
 20
167.50018
 40
25
 41
1
 50
0
  1
承
  0
TEXT
  8
0-d
 10
660.0006
 20
107.50023
 40
25
 41
1
 50
0
  1
認
  0
TEXT
  8
0-d
 10
1025.0003
 20
247.50021
 40
25
 41
1
 50
0
  1
尺
  0
TEXT
  8
0-d
 10
1025.0003
 20
207.50007
 40
25
 41
1
 50
0.0000762
  1
度
  0
TEXT
  8
0-d
 10
860.00028
 20
167.50018
 40
25
 41
1
 50
0
  1
製
  0
TEXT
  8
0-d
 10
860.00028
 20
107.50023
 40
25
 41
1
 50
0
  1
図
  0
TEXT
  8
0-d
 10
1560.0001
 20
247.50021
 40
25
 41
1
 50
0
  1
日
  0
TEXT
  8
0-d
 10
1560.0001
 20
207.50007
 40
25
 41
1
 50
0.0000762
  1
付
  0
TEXT
  8
0-d
 10
1116.4263
 20
173.48254
 40
20
 41
1
 50
0
  1
株式
  0
TEXT
  8
0-d
 10
1116.4263
 20
151.85209
 40
20
 41
1
 50
0.0000152
  1
会社
  0
TEXT
  8
0-d
 10
1179.2248
 20
153.2474
 40
40
 41
1
 50
0
  1
スズキベンチレーター
  0
TEXT
  8
0-d
 10
1242.9183
 20
104.02444
 40
20
 41
1
 50
0
  1
TEL(054)296-7000  FAX(054)296-7001
  0
TEXT
  8
0-d
 10
1089.349
 20
220.10095
 40
40
 41
1
 50
0
  1
１／１０
  0
TEXT
  8
0-2
 10
1025.5847
 20
2487.7573
 40
30
 41
1
 50
0
  1
770
  0
TEXT
  8
0-2
 10
315.60047
 20
2018.5243
 40
30
 41
1
 50
90
  1
630
  0
TEXT
  8
0-2
 10
1018.1611
 20
1696.0929
 40
30
 41
1
 50
0.0000915
  1
515φ
  0
TEXT
  8
0-2
 10
255.00003
 20
2772.7016
 40
50
 41
1
 50
0
  1
ＤＳ－５００　自然換気　直付型立面
  0
TEXT
  8
0-d
 10
285.67572
 20
225.81111
 40
30
 41
1
 50
0
  1
ＤＳ－５００　自然換気　直付型立面
  0
TEXT
  8
0-d
 10
313.45925
 20
150.30237
 40
30
 41
1
 50
0
  1
50-C06a
  0
TEXT
  8
0-d
 10
1240.6792
 20
128.64619
 40
20
 41
1
 50
0
  1
〒421-2114　静岡市葵区安倍口新田１５２番地
  0
POINT
  8
0-2
 62
    2
 10
339.00061
 20
1813.3258
  0
POINT
  8
0-2
 62
    2
 10
339.00061
 20
2443.3258
  0
POINT
  8
0-2
 62
    2
 10
670.00014
 20
2481.8796
  0
POINT
  8
0-2
 62
    2
 10
1440.0002
 20
2481.8796
  0
POINT
  8
0-2
 62
    2
 10
797.50019
 20
1688.8157
  0
POINT
  8
0-2
 62
    2
 10
1312.5001
 20
1688.8157
  0
ENDSEC
  0
EOF
