  0
SECTION
  2
HEADER
  9
$EXTMIN
 10
0
 20
0
  9
$EXTMAX
 10
4200
 20
2970
  0
ENDSEC
  0
SECTION
  2
TABLES
  0
TABLE
  2
LTYPE
 70
     9
  0
LTYPE
  2
CONTINUOUS
 70
    64
  3
実線
 72
    65
 73
     0
 40
0.0
  0
LTYPE
  2
DASHED1
 70
    64
  3
--  --  --  --  --  --  --  --  
 72
    65
 73
     2
 40
2.5
 49
1.25
 49
-1.25
  0
LTYPE
  2
DASHED2
 70
    64
  3
----    ----    ----    ----    
 72
    65
 73
     2
 40
5.0
 49
2.5
 49
-2.5
  0
LTYPE
  2
DASHED3
 70
    64
  3
------  ------  ------  ------  
 72
    65
 73
     2
 40
5.0
 49
3.75
 49
-1.25
  0
LTYPE
  2
CENTER1
 70
    64
  3
----- - ----- - ----- - ----- - 
 72
    65
 73
     4
 40
10.0
 49
6.25
 49
-1.25
 49
1.25
 49
-1.25
  0
LTYPE
  2
CENTER2
 70
    64
  3
----------  --  ----------  --  
 72
    65
 73
     4
 40
20.0
 49
12.5
 49
-2.5
 49
2.5
 49
-2.5
  0
LTYPE
  2
PHANTOM1
 70
    64
  3
--- - - --- - - --- - - --- - - 
 72
    65
 73
     6
 40
10.0
 49
3.25
 49
-1.25
 49
1.25
 49
-1.25
 49
1.25
 49
-1.25
  0
LTYPE
  2
PHANTOM2
 70
    64
  3
--------  -  -  --------  -  -  
 72
    65
 73
     6
 40
20.0
 49
10.0
 49
-2.5
 49
1.25
 49
-2.5
 49
1.25
 49
-2.5
  0
LTYPE
  2
DOT
 70
    64
  3
-   -   -   -   -   -   -   -   
 72
    65
 73
     2
 40
2.5
 49
0.625
 49
-1.875
  0
ENDTAB
  0
TABLE
  2
STYLE
 70
    1
  0
STYLE
  2
STANDARD
 70
    64
 40
0.0
 41
1.0
 42
0.0
 50
0.0
 71
     0
  3
TXT
  4
BIGFONT
  0
ENDTAB
  0
TABLE
  2
LAYER
 70
    3
  0
LAYER
  2
0-2
 70
   64
 62
    7
  6
CONTINUOUS
  0
LAYER
  2
0-d
 70
   64
 62
    7
  6
CONTINUOUS
  0
LAYER
  2
ADD_LINE
 70
   64
 62
    7
  6
CONTINUOUS
  0
ENDTAB
  0
ENDSEC
  0
SECTION
  2
ENTITIES
  0
LINE
  8
0-d
  6
CONTINUOUS
 62
    7
 10
250.00004
 20
2757.7013
 11
1850.0001
 21
2757.7013
  0
LINE
  8
0-d
  6
CONTINUOUS
 62
    7
 10
250.00004
 20
2767.7016
 11
1850.0001
 21
2767.7016
  0
LINE
  8
0-d
  6
CONTINUOUS
 62
    7
 10
254.99974
 20
200.00017
 11
1855.0003
 21
200.00017
  0
LINE
  8
0-d
  6
CONTINUOUS
 62
    7
 10
254.99974
 20
100.00008
 11
254.99974
 21
280.00019
  0
LINE
  8
0-d
  6
CONTINUOUS
 62
    7
 10
254.99974
 20
100.00008
 11
1855.0003
 21
100.00008
  0
LINE
  8
0-d
  6
CONTINUOUS
 62
    7
 10
254.99974
 20
280.00019
 11
1855.0003
 21
280.00019
  0
LINE
  8
0-d
  6
CONTINUOUS
 62
    7
 10
1055.0001
 20
280.00019
 11
1055.0001
 21
100.00008
  0
LINE
  8
0-d
  6
CONTINUOUS
 62
    7
 10
655.00033
 20
100.00008
 11
655.00033
 21
200.00017
  0
LINE
  8
0-d
  6
CONTINUOUS
 62
    7
 10
1055.0001
 20
200.00017
 11
1055.0001
 21
280.00019
  0
LINE
  8
0-d
  6
CONTINUOUS
 62
    7
 10
854.99977
 20
100.00008
 11
854.99977
 21
200.00017
  0
LINE
  8
0-d
  6
CONTINUOUS
 62
    7
 10
290.0001
 20
100.00008
 11
290.0001
 21
200.00017
  0
LINE
  8
0-d
  6
CONTINUOUS
 62
    7
 10
690.0002
 20
100.00008
 11
690.0002
 21
200.00017
  0
LINE
  8
0-d
  6
CONTINUOUS
 62
    7
 10
890.00013
 20
100.00008
 11
890.00013
 21
200.00017
  0
LINE
  8
0-d
  6
CONTINUOUS
 62
    7
 10
1020
 20
200.00017
 11
1020
 21
280.00019
  0
LINE
  8
0-d
  6
CONTINUOUS
 62
    7
 10
1555.0003
 20
200.00017
 11
1555.0003
 21
280.00019
  0
LINE
  8
0-d
  6
CONTINUOUS
 62
    7
 10
1590.0002
 20
200.00017
 11
1590.0002
 21
280.00019
  0
LINE
  8
0-d
  6
CONTINUOUS
 62
    7
 10
1855.0003
 20
280.00019
 11
1855.0003
 21
100.00008
  0
LINE
  8
0-2
  6
CONTINUOUS
 62
    7
 10
614.30168
 20
2043.3256
 11
339.00061
 21
2043.3256
  0
LINE
  8
0-2
  6
CONTINUOUS
 62
    7
 10
670.0002
 20
2711.8794
 11
1440.0001
 21
2711.8794
  0
LINE
  8
0-2
  6
CONTINUOUS
 62
    7
 10
797.50019
 20
1998.8155
 11
1312.5001
 21
1998.8155
  0
LINE
  8
0-2
  6
CONTINUOUS
 62
    3
 10
669.99995
 20
2217.6245
 11
1440.0001
 21
2217.6248
  0
LINE
  8
0-2
  6
CONTINUOUS
 62
    3
 10
797.50019
 20
2093.726
 11
1312.5016
 21
2093.726
  0
LINE
  8
0-2
  6
CONTINUOUS
 62
    3
 10
797.50019
 20
2043.3254
 11
1312.5016
 21
2043.3254
  0
LINE
  8
0-2
  6
CONTINUOUS
 62
    7
 10
670.0002
 20
2595.3256
 11
670.0002
 21
2711.8794
  0
LINE
  8
0-2
  6
CONTINUOUS
 62
    7
 10
1440.0001
 20
2595.3256
 11
1440.0001
 21
2711.8794
  0
LINE
  8
0-2
  6
CONTINUOUS
 62
    3
 10
669.99995
 20
2175.3254
 11
1440.0001
 21
2175.3257
  0
LINE
  8
0-2
  6
CONTINUOUS
 62
    7
 10
797.50019
 20
2024.3876
 11
797.50019
 21
1998.8155
  0
LINE
  8
0-2
  6
CONTINUOUS
 62
    7
 10
1312.5001
 20
2024.3876
 11
1312.5001
 21
1998.8155
  0
LINE
  8
0-2
  6
CONTINUOUS
 62
    3
 10
670.0002
 20
2565.3255
 11
1440.0001
 21
2565.3258
  0
LINE
  8
0-2
  6
CONTINUOUS
 62
    3
 10
1055.0001
 20
2673.3256
 11
867.93914
 21
2565.3258
  0
LINE
  8
0-2
  6
CONTINUOUS
 62
    3
 10
1055.0001
 20
2673.3256
 11
1242.0609
 21
2565.3258
  0
LINE
  8
0-2
  6
CONTINUOUS
 62
    7
 10
339.00061
 20
2043.3256
 11
339.00061
 21
2673.3256
  0
LINE
  8
0-2
  6
CONTINUOUS
 62
    7
 10
614.30168
 20
1564.104
 11
339.00073
 21
1564.104
  0
LINE
  8
0-2
  6
CONTINUOUS
 62
    7
 10
614.30168
 20
1804.104
 11
339.00073
 21
1804.104
  0
LINE
  8
0-2
  6
CONTINUOUS
 62
    3
 10
754.99993
 20
573.15701
 11
754.99993
 21
1173.1567
  0
LINE
  8
0-2
  6
CONTINUOUS
 62
    3
 10
754.99993
 20
1173.1567
 11
1355.0004
 21
1173.1567
  0
LINE
  8
0-2
  6
CONTINUOUS
 62
    3
 10
1355.0004
 20
1173.1567
 11
1355.0004
 21
573.15701
  0
LINE
  8
0-2
  6
CONTINUOUS
 62
    3
 10
1355.0004
 20
573.15701
 11
754.99993
 21
573.15701
  0
LINE
  8
0-2
  6
CONTINUOUS
 62
    7
 10
754.99993
 20
1480.9708
 11
1355.0004
 21
1480.9708
  0
LINE
  8
0-2
  6
CONTINUOUS
 62
    3
 10
754.99993
 20
1173.1567
 11
837.73168
 21
1090.4252
  0
LINE
  8
0-2
  6
CONTINUOUS
 62
    3
 10
1355.0004
 20
1173.1567
 11
1272.2687
 21
1090.4252
  0
LINE
  8
0-2
  6
CONTINUOUS
 62
    3
 10
754.99993
 20
573.15701
 11
837.73168
 21
655.88827
  0
LINE
  8
0-2
  6
CONTINUOUS
 62
    3
 10
1355.0004
 20
573.15701
 11
1272.2687
 21
655.88827
  0
LINE
  8
0-2
  6
CONTINUOUS
 62
    3
 10
802.50021
 20
1802.1045
 11
1307.4999
 21
1802.1045
  0
LINE
  8
0-2
  6
CONTINUOUS
 62
    7
 10
754.99993
 20
1536.684
 11
754.99993
 21
1480.9708
  0
LINE
  8
0-2
  6
CONTINUOUS
 62
    7
 10
1355.0004
 20
1536.684
 11
1355.0004
 21
1480.9708
  0
LINE
  8
0-2
  6
CONTINUOUS
 62
    7
 10
530.50568
 20
1652.9954
 11
639.39406
 21
1652.9954
  0
LINE
  8
0-2
  6
CONTINUOUS
 62
    7
 10
530.50568
 20
1652.9954
 11
639.39406
 21
1690.0876
  0
LINE
  8
0-2
  6
CONTINUOUS
 62
    7
 10
639.39406
 20
1652.9954
 11
639.39406
 21
1690.0876
  0
LINE
  8
0-2
  6
CONTINUOUS
 62
    7
 10
802.50021
 20
1900.6565
 11
802.50021
 21
1952.4783
  0
LINE
  8
0-2
  6
CONTINUOUS
 62
    7
 10
1307.5001
 20
1900.6565
 11
1307.5001
 21
1952.4783
  0
LINE
  8
0-2
  6
CONTINUOUS
 62
    3
 10
802.50021
 20
1802.1045
 11
754.99974
 21
1564.104
  0
LINE
  8
0-2
  6
CONTINUOUS
 62
    3
 10
1307.4999
 20
1802.1045
 11
1355.0002
 21
1564.104
  0
LINE
  8
0-2
  6
CONTINUOUS
 62
    3
 10
505.00008
 20
323.15667
 11
505.00008
 21
1423.1566
  0
LINE
  8
0-2
  6
CONTINUOUS
 62
    3
 10
505.00008
 20
1423.1566
 11
1605.0003
 21
1423.1566
  0
LINE
  8
0-2
  6
CONTINUOUS
 62
    3
 10
1605.0003
 20
1423.1566
 11
1605.0003
 21
323.15667
  0
LINE
  8
0-2
  6
CONTINUOUS
 62
    3
 10
1605.0003
 20
323.15667
 11
505.00008
 21
323.15667
  0
LINE
  8
0-2
  6
CONTINUOUS
 62
    7
 10
816.69583
 20
789.68617
 11
1293.3045
 21
956.62727
  0
LINE
  8
0-2
  6
CONTINUOUS
 62
    7
 10
339.00073
 20
323.15667
 11
339.00073
 21
1423.1566
  0
LINE
  8
0-2
  6
CONTINUOUS
 62
    7
 10
445.13349
 20
323.15667
 11
339.00073
 21
323.15667
  0
LINE
  8
0-2
  6
CONTINUOUS
 62
    7
 10
445.13349
 20
1423.1566
 11
339.00073
 21
1423.1566
  0
LINE
  8
0-2
  6
CONTINUOUS
 62
    7
 10
1823.5119
 20
573.15701
 11
1823.5119
 21
1173.1567
  0
LINE
  8
0-2
  6
CONTINUOUS
 62
    7
 10
1693.7822
 20
573.15701
 11
1823.5119
 21
573.15701
  0
LINE
  8
0-2
  6
CONTINUOUS
 62
    7
 10
1693.7822
 20
1173.1567
 11
1823.5119
 21
1173.1567
  0
LINE
  8
0-2
  6
CENTER2
 62
    7
 10
505.00008
 20
873.15703
 11
1605.0003
 21
873.15703
  0
LINE
  8
0-2
  6
CONTINUOUS
 62
    7
 10
802.50021
 20
1952.4783
 11
1307.5001
 21
1952.4783
  0
LINE
  8
0-2
  6
CONTINUOUS
 62
    7
 10
1823.5119
 20
323.15667
 11
1823.5119
 21
573.15701
  0
LINE
  8
0-2
  6
CONTINUOUS
 62
    7
 10
1693.7822
 20
323.15667
 11
1823.5119
 21
323.15667
  0
LINE
  8
0-2
  6
CONTINUOUS
 62
    7
 10
1823.5119
 20
1173.1567
 11
1823.5119
 21
1423.1566
  0
LINE
  8
0-2
  6
CONTINUOUS
 62
    7
 10
1693.7822
 20
1423.1566
 11
1823.5119
 21
1423.1566
  0
LINE
  8
0-2
  6
CONTINUOUS
 62
    7
 10
614.30168
 20
2673.3256
 11
339.00061
 21
2673.3256
  0
LINE
  8
0-2
  6
CENTER2
 62
    7
 10
1055.0001
 20
2673.3256
 11
1055.0001
 21
280.00019
  0
LINE
  8
0-2
  6
CONTINUOUS
 62
    3
 10
1055.0001
 20
1654.1005
 11
505.0002
 21
1489.1072
  0
LINE
  8
0-2
  6
CONTINUOUS
 62
    7
 10
339.00073
 20
1564.104
 11
339.00073
 21
1874.1039
  0
LINE
  8
0-2
  6
CONTINUOUS
 62
    3
 10
802.50021
 20
1874.1038
 11
1307.5001
 21
1874.1038
  0
LINE
  8
0-2
  6
CONTINUOUS
 62
    7
 10
614.30168
 20
1874.1039
 11
339.00073
 21
1874.1039
  0
LINE
  8
0-2
  6
CONTINUOUS
 62
    3
 10
802.50021
 20
1854.104
 11
802.50021
 21
1802.1045
  0
LINE
  8
0-2
  6
CONTINUOUS
 62
    3
 10
802.50021
 20
1874.1038
 11
802.50021
 21
1864.1039
  0
LINE
  8
0-2
  6
CONTINUOUS
 62
    3
 10
1307.5001
 20
1854.104
 11
1307.5001
 21
1802.1045
  0
LINE
  8
0-2
  6
CONTINUOUS
 62
    3
 10
1307.5001
 20
1854.104
 11
802.50021
 21
1854.104
  0
LINE
  8
0-2
  6
CONTINUOUS
 62
    3
 10
1307.5001
 20
1864.1039
 11
802.50021
 21
1864.1039
  0
LINE
  8
0-2
  6
CONTINUOUS
 62
    3
 10
1307.5001
 20
1874.1038
 11
1307.5001
 21
1864.1039
  0
LINE
  8
0-2
  6
CONTINUOUS
 62
    3
 10
1605.0001
 20
1489.107
 11
1055.0001
 21
1654.1005
  0
LINE
  8
0-2
  6
CONTINUOUS
 62
    3
 10
669.99995
 20
2185.3255
 11
1440.0001
 21
2185.3257
  0
LINE
  8
0-2
  6
CONTINUOUS
 62
    3
 10
669.99995
 20
2217.6245
 11
669.99995
 21
2185.3255
  0
LINE
  8
0-2
  6
CONTINUOUS
 62
    3
 10
797.50019
 20
2103.726
 11
1312.5016
 21
2103.726
  0
LINE
  8
0-2
  6
CONTINUOUS
 62
    3
 10
797.50019
 20
2176.2635
 11
797.50019
 21
2103.726
  0
LINE
  8
0-2
  6
CONTINUOUS
 62
    3
 10
797.50019
 20
2053.3255
 11
1312.5016
 21
2053.3255
  0
LINE
  8
0-2
  6
CONTINUOUS
 62
    3
 10
797.50019
 20
2093.726
 11
797.50019
 21
2053.3255
  0
LINE
  8
0-2
  6
CONTINUOUS
 62
    3
 10
1440.0003
 20
2217.6245
 11
1440.0003
 21
2185.3255
  0
LINE
  8
0-2
  6
CONTINUOUS
 62
    3
 10
1312.5001
 20
2176.2635
 11
1312.5001
 21
2103.726
  0
LINE
  8
0-2
  6
CONTINUOUS
 62
    3
 10
1312.5001
 20
2093.726
 11
1312.5001
 21
2053.3255
  0
LINE
  8
0-2
  6
CONTINUOUS
 62
    3
 10
669.99995
 20
2227.6246
 11
1440.0001
 21
2227.6248
  0
LINE
  8
0-2
  6
CONTINUOUS
 62
    3
 10
669.99989
 20
2523.0267
 11
1439.9999
 21
2523.0269
  0
LINE
  8
0-2
  6
CONTINUOUS
 62
    3
 10
669.99989
 20
2555.3257
 11
1439.9999
 21
2555.326
  0
LINE
  8
0-2
  6
CONTINUOUS
 62
    3
 10
669.99989
 20
2523.0267
 11
669.99989
 21
2555.3257
  0
LINE
  8
0-2
  6
CONTINUOUS
 62
    3
 10
1440.0002
 20
2523.0272
 11
1440.0002
 21
2555.3262
  0
LINE
  8
0-2
  6
CONTINUOUS
 62
    3
 10
669.99995
 20
2513.0266
 11
669.99995
 21
2227.6246
  0
LINE
  8
0-2
  6
CONTINUOUS
 62
    3
 10
669.99995
 20
2513.0266
 11
1440.0001
 21
2513.0269
  0
LINE
  8
0-2
  6
CONTINUOUS
 62
    3
 10
1440.0001
 20
2513.0269
 11
1440.0001
 21
2227.6248
  0
CIRCLE
  8
0-2
  6
CONTINUOUS
 62
    3
 10
1055.0001
 20
873.1569
 40
252.49999
  0
ARC
  8
0-2
  6
CONTINUOUS
 62
    3
 10
802.50021
 20
1859.1039
 40
5.0000167
 50
270
 51
90
  0
ARC
  8
0-2
  6
CONTINUOUS
 62
    3
 10
1307.5001
 20
1859.1039
 40
5.0000167
 50
90
 51
270
  0
ARC
  8
0-2
  6
CONTINUOUS
 62
    3
 10
797.50019
 20
2048.3253
 40
5.0000167
 50
90
 51
270
  0
ARC
  8
0-2
  6
CONTINUOUS
 62
    3
 10
797.50019
 20
2098.7262
 40
5.0000167
 50
90
 51
270
  0
ARC
  8
0-2
  6
CONTINUOUS
 62
    3
 10
669.99995
 20
2180.3257
 40
5.0000167
 50
90
 51
270
  0
ARC
  8
0-2
  6
CONTINUOUS
 62
    3
 10
669.99995
 20
2222.6251
 40
5.0000167
 50
90
 51
270
  0
ARC
  8
0-2
  6
CONTINUOUS
 62
    3
 10
1312.5001
 20
2048.3253
 40
5.0000167
 50
270
 51
90
  0
ARC
  8
0-2
  6
CONTINUOUS
 62
    3
 10
1312.5001
 20
2098.7262
 40
5.0000167
 50
270
 51
90
  0
ARC
  8
0-2
  6
CONTINUOUS
 62
    3
 10
1440.0003
 20
2180.3257
 40
5.0000167
 50
270
 51
90
  0
ARC
  8
0-2
  6
CONTINUOUS
 62
    3
 10
1440.0003
 20
2222.6251
 40
5.0000167
 50
270
 51
90
  0
ARC
  8
0-2
  6
CONTINUOUS
 62
    3
 10
669.99989
 20
2560.3255
 40
5.0000167
 50
90
 51
270
  0
ARC
  8
0-2
  6
CONTINUOUS
 62
    3
 10
669.99989
 20
2518.0262
 40
5.0000167
 50
90
 51
270
  0
ARC
  8
0-2
  6
CONTINUOUS
 62
    3
 10
1440.0002
 20
2560.326
 40
5.0000167
 50
270
 51
90
  0
ARC
  8
0-2
  6
CONTINUOUS
 62
    3
 10
1440.0002
 20
2518.0266
 40
5.0000167
 50
270
 51
90
  0
TEXT
  8
0-d
 10
259.99975
 20
167.50018
 40
25
 41
1
 50
0
  1
図
  0
TEXT
  8
0-d
 10
259.99975
 20
107.50023
 40
25
 41
1
 50
0
  1
番
  0
TEXT
  8
0-d
 10
660.0006
 20
167.50018
 40
25
 41
1
 50
0
  1
承
  0
TEXT
  8
0-d
 10
660.0006
 20
107.50023
 40
25
 41
1
 50
0
  1
認
  0
TEXT
  8
0-d
 10
1025.0003
 20
247.50021
 40
25
 41
1
 50
0
  1
尺
  0
TEXT
  8
0-d
 10
1025.0003
 20
207.50007
 40
25
 41
1
 50
0.0000762
  1
度
  0
TEXT
  8
0-d
 10
860.00028
 20
167.50018
 40
25
 41
1
 50
0
  1
製
  0
TEXT
  8
0-d
 10
860.00028
 20
107.50023
 40
25
 41
1
 50
0
  1
図
  0
TEXT
  8
0-d
 10
1560.0001
 20
247.50021
 40
25
 41
1
 50
0
  1
日
  0
TEXT
  8
0-d
 10
1560.0001
 20
207.50007
 40
25
 41
1
 50
0.0000762
  1
付
  0
TEXT
  8
0-d
 10
1116.4263
 20
173.48254
 40
20
 41
1
 50
0
  1
株式
  0
TEXT
  8
0-d
 10
1116.4263
 20
151.85209
 40
20
 41
1
 50
0.0000152
  1
会社
  0
TEXT
  8
0-d
 10
1179.2248
 20
153.2474
 40
40
 41
1
 50
0
  1
スズキベンチレーター
  0
TEXT
  8
0-d
 10
1242.9183
 20
104.02444
 40
20
 41
1
 50
0
  1
TEL(054)296-7000  FAX(054)296-7001
  0
TEXT
  8
0-d
 10
1089.349
 20
220.10095
 40
40
 41
1
 50
0
  1
１／１０
  0
TEXT
  8
0-2
 10
1025.5847
 20
2717.7571
 40
30
 41
1
 50
0
  1
770
  0
TEXT
  8
0-2
 10
315.6006
 20
2248.5241
 40
30
 41
1
 50
90
  1
630
  0
TEXT
  8
0-2
 10
1000.4
 20
2013.4776
 40
30
 41
1
 50
0
  1
515φ
  0
TEXT
  8
0-2
 10
659.34117
 20
1653.2933
 40
30
 41
1
 50
0
  1
3
  0
TEXT
  8
0-2
 10
571.7492
 20
1610.3978
 40
30
 41
1
 50
0
  1
10
  0
TEXT
  8
0-2
 10
1013.6524
 20
1916.5686
 40
30
 41
1
 50
0
  1
505φ
  0
TEXT
  8
0-2
 10
315.6006
 20
1821.6536
 40
30
 41
1
 50
90
  1
70
  0
TEXT
  8
0-2
 10
315.6006
 20
1663.2539
 40
30
 41
1
 50
90
  1
240
  0
TEXT
  8
0-2
 10
1021.8241
 20
1496.5708
 40
30
 41
1
 50
0
  1
600
  0
TEXT
  8
0-2
 10
1813.5119
 20
851.90689
 40
30
 41
1
 50
90
  1
600
  0
TEXT
  8
0-2
 10
998.31315
 20
869.8302
 40
30
 41
1
 50
19.303771
  1
505φ
  0
TEXT
  8
0-2
 10
1813.5119
 20
426.90698
 40
30
 41
1
 50
90
  1
250
  0
TEXT
  8
0-2
 10
1813.5119
 20
1276.9068
 40
30
 41
1
 50
90
  1
250
  0
TEXT
  8
0-2
 10
329.0007
 20
836.90659
 40
30
 41
1
 50
90
  1
≒ 1,100
  0
TEXT
  8
0-d
 10
313.45925
 20
150.30237
 40
30
 41
1
 50
0
  1
50-C06
  0
TEXT
  8
0-2
 10
255.00011
 20
2772.7014
 40
50
 41
1
 50
0
  1
ＤＳ－５００　自然換気　直付型立面、直付袴立面・平面
  0
TEXT
  8
0-2
 10
273.58108
 20
245.70947
 40
30
 41
1
 50
0
  1
ＤＳ－５００　自然換気　直付型立面、
  0
TEXT
  8
0-d
 10
696.21626
 20
204.66217
 40
30
 41
1
 50
0
  1
直付袴立面・平面
  0
TEXT
  8
0-d
 10
1240.6792
 20
128.64619
 40
20
 41
1
 50
0
  1
〒421-2114　静岡市葵区安倍口新田１５２番地
  0
POINT
  8
0-2
 62
    2
 10
339.00061
 20
2043.3256
  0
POINT
  8
0-2
 62
    2
 10
339.00061
 20
2673.3256
  0
POINT
  8
0-2
 62
    2
 10
670.0002
 20
2711.8794
  0
POINT
  8
0-2
 62
    2
 10
1440.0001
 20
2711.8794
  0
POINT
  8
0-2
 62
    2
 10
797.50019
 20
1998.8155
  0
POINT
  8
0-2
 62
    2
 10
1312.5001
 20
1998.8155
  0
POINT
  8
0-2
 62
    2
 10
339.00073
 20
1564.104
  0
POINT
  8
0-2
 62
    2
 10
339.00073
 20
1804.104
  0
POINT
  8
0-2
 62
    2
 10
339.00073
 20
1874.1039
  0
POINT
  8
0-2
 62
    2
 10
754.99993
 20
1480.9708
  0
POINT
  8
0-2
 62
    2
 10
1355.0004
 20
1480.9708
  0
POINT
  8
0-2
 62
    2
 10
816.69583
 20
789.68617
  0
POINT
  8
0-2
 62
    2
 10
1293.3045
 20
956.62727
  0
POINT
  8
0-2
 62
    2
 10
802.50021
 20
1952.4783
  0
POINT
  8
0-2
 62
    2
 10
1307.5001
 20
1952.4783
  0
POINT
  8
0-2
 62
    2
 10
339.00073
 20
323.15667
  0
POINT
  8
0-2
 62
    2
 10
339.00073
 20
1423.1566
  0
POINT
  8
0-2
 62
    2
 10
1823.5119
 20
573.15701
  0
POINT
  8
0-2
 62
    2
 10
1823.5119
 20
1173.1567
  0
POINT
  8
0-2
 62
    2
 10
1823.5119
 20
323.15667
  0
POINT
  8
0-2
 62
    2
 10
1823.5119
 20
1423.1566
  0
ENDSEC
  0
EOF
