  0
SECTION
  2
HEADER
  9
$EXTMIN
 10
0
 20
0
  9
$EXTMAX
 10
4200
 20
2970
  0
ENDSEC
  0
SECTION
  2
TABLES
  0
TABLE
  2
LTYPE
 70
     9
  0
LTYPE
  2
CONTINUOUS
 70
    64
  3
実線
 72
    65
 73
     0
 40
0.0
  0
LTYPE
  2
DASHED1
 70
    64
  3
--  --  --  --  --  --  --  --  
 72
    65
 73
     2
 40
2.5
 49
1.25
 49
-1.25
  0
LTYPE
  2
DASHED2
 70
    64
  3
----    ----    ----    ----    
 72
    65
 73
     2
 40
5.0
 49
2.5
 49
-2.5
  0
LTYPE
  2
DASHED3
 70
    64
  3
------  ------  ------  ------  
 72
    65
 73
     2
 40
5.0
 49
3.75
 49
-1.25
  0
LTYPE
  2
CENTER1
 70
    64
  3
----- - ----- - ----- - ----- - 
 72
    65
 73
     4
 40
10.0
 49
6.25
 49
-1.25
 49
1.25
 49
-1.25
  0
LTYPE
  2
CENTER2
 70
    64
  3
----------  --  ----------  --  
 72
    65
 73
     4
 40
20.0
 49
12.5
 49
-2.5
 49
2.5
 49
-2.5
  0
LTYPE
  2
PHANTOM1
 70
    64
  3
--- - - --- - - --- - - --- - - 
 72
    65
 73
     6
 40
10.0
 49
3.25
 49
-1.25
 49
1.25
 49
-1.25
 49
1.25
 49
-1.25
  0
LTYPE
  2
PHANTOM2
 70
    64
  3
--------  -  -  --------  -  -  
 72
    65
 73
     6
 40
20.0
 49
10.0
 49
-2.5
 49
1.25
 49
-2.5
 49
1.25
 49
-2.5
  0
LTYPE
  2
DOT
 70
    64
  3
-   -   -   -   -   -   -   -   
 72
    65
 73
     2
 40
2.5
 49
0.625
 49
-1.875
  0
ENDTAB
  0
TABLE
  2
STYLE
 70
    1
  0
STYLE
  2
STANDARD
 70
    64
 40
0.0
 41
1.0
 42
0.0
 50
0.0
 71
     0
  3
TXT
  4
BIGFONT
  0
ENDTAB
  0
TABLE
  2
LAYER
 70
    3
  0
LAYER
  2
0-2
 70
   64
 62
    7
  6
CONTINUOUS
  0
LAYER
  2
0-d
 70
   64
 62
    7
  6
CONTINUOUS
  0
LAYER
  2
ADD_LINE
 70
   64
 62
    7
  6
CONTINUOUS
  0
ENDTAB
  0
ENDSEC
  0
SECTION
  2
ENTITIES
  0
LINE
  8
0-d
  6
CONTINUOUS
 62
    7
 10
250.00004
 20
2757.7013
 11
1850.0001
 21
2757.7013
  0
LINE
  8
0-d
  6
CONTINUOUS
 62
    7
 10
250.00004
 20
2767.7016
 11
1850.0001
 21
2767.7016
  0
LINE
  8
0-d
  6
CONTINUOUS
 62
    7
 10
249.99967
 20
189.99989
 11
1850.0003
 21
189.99989
  0
LINE
  8
0-d
  6
CONTINUOUS
 62
    7
 10
249.99967
 20
89.999806
 11
249.99967
 21
269.99991
  0
LINE
  8
0-d
  6
CONTINUOUS
 62
    7
 10
249.99967
 20
89.999806
 11
1850.0003
 21
89.999806
  0
LINE
  8
0-d
  6
CONTINUOUS
 62
    7
 10
1850.0003
 20
269.99991
 11
1850.0003
 21
89.999806
  0
LINE
  8
0-d
  6
CONTINUOUS
 62
    7
 10
249.99967
 20
269.99991
 11
1850.0003
 21
269.99991
  0
LINE
  8
0-d
  6
CONTINUOUS
 62
    7
 10
1050
 20
269.99991
 11
1050
 21
89.999806
  0
LINE
  8
0-d
  6
CONTINUOUS
 62
    7
 10
650.00019
 20
89.999806
 11
650.00019
 21
189.99989
  0
LINE
  8
0-d
  6
CONTINUOUS
 62
    7
 10
1050
 20
189.99989
 11
1050
 21
269.99991
  0
LINE
  8
0-d
  6
CONTINUOUS
 62
    7
 10
849.99975
 20
89.999806
 11
849.99975
 21
189.99989
  0
LINE
  8
0-d
  6
CONTINUOUS
 62
    7
 10
285.00002
 20
89.999806
 11
285.00002
 21
189.99989
  0
LINE
  8
0-d
  6
CONTINUOUS
 62
    7
 10
685.00006
 20
89.999806
 11
685.00006
 21
189.99989
  0
LINE
  8
0-d
  6
CONTINUOUS
 62
    7
 10
885.00011
 20
89.999806
 11
885.00011
 21
189.99989
  0
LINE
  8
0-d
  6
CONTINUOUS
 62
    7
 10
1015
 20
189.99989
 11
1015
 21
269.99991
  0
LINE
  8
0-d
  6
CONTINUOUS
 62
    7
 10
1550.0004
 20
189.99989
 11
1550.0004
 21
269.99991
  0
LINE
  8
0-d
  6
CONTINUOUS
 62
    7
 10
1585.0002
 20
189.99989
 11
1585.0002
 21
269.99991
  0
LINE
  8
0-2
  6
CONTINUOUS
 62
    3
 10
632.37208
 20
2360.9395
 11
1050
 21
2455.169
  0
LINE
  8
0-2
  6
CONTINUOUS
 62
    3
 10
1467.6272
 20
2360.6007
 11
1050
 21
2455.169
  0
LINE
  8
0-2
  6
CONTINUOUS
 62
    7
 10
609.30154
 20
1985.1687
 11
234.00063
 21
1985.1687
  0
LINE
  8
0-2
  6
CONTINUOUS
 62
    3
 10
649.99995
 20
2365.169
 11
1450.0001
 21
2364.8302
  0
LINE
  8
0-2
  6
CONTINUOUS
 62
    3
 10
649.99995
 20
2207.4681
 11
1450.0001
 21
2207.4681
  0
LINE
  8
0-2
  6
CONTINUOUS
 62
    3
 10
649.99995
 20
2223.068
 11
1450.0001
 21
2223.068
  0
LINE
  8
0-2
  6
CONTINUOUS
 62
    3
 10
649.99995
 20
2180.7689
 11
1450.0001
 21
2180.7689
  0
LINE
  8
0-2
  6
CONTINUOUS
 62
    3
 10
649.99995
 20
2365.169
 11
649.99995
 21
2223.068
  0
LINE
  8
0-2
  6
CONTINUOUS
 62
    3
 10
649.99995
 20
2207.4681
 11
649.99995
 21
2180.7684
  0
LINE
  8
0-2
  6
CONTINUOUS
 62
    3
 10
1450.0001
 20
2364.8302
 11
1450.0001
 21
2223.068
  0
LINE
  8
0-2
  6
CONTINUOUS
 62
    3
 10
792.50005
 20
2055.3685
 11
1307.501
 21
2055.3685
  0
LINE
  8
0-2
  6
CONTINUOUS
 62
    3
 10
792.50005
 20
2070.9681
 11
1307.501
 21
2070.9681
  0
LINE
  8
0-2
  6
CONTINUOUS
 62
    3
 10
792.50005
 20
2000.7684
 11
1307.501
 21
2000.7684
  0
LINE
  8
0-2
  6
CONTINUOUS
 62
    3
 10
792.50005
 20
1985.1688
 11
1307.501
 21
1985.1688
  0
LINE
  8
0-2
  6
CONTINUOUS
 62
    3
 10
792.50005
 20
2055.3685
 11
792.50005
 21
2000.7681
  0
LINE
  8
0-2
  6
CONTINUOUS
 62
    3
 10
1307.5
 20
2055.3685
 11
1307.5
 21
2000.7681
  0
LINE
  8
0-2
  6
CONTINUOUS
 62
    3
 10
792.50005
 20
2165.1688
 11
792.50005
 21
2070.9681
  0
LINE
  8
0-2
  6
CONTINUOUS
 62
    3
 10
1307.5
 20
2165.1688
 11
1307.5
 21
2070.9681
  0
LINE
  8
0-2
  6
CONTINUOUS
 62
    7
 10
650.00007
 20
2411.1475
 11
650.00007
 21
2597.7013
  0
LINE
  8
0-2
  6
CONTINUOUS
 62
    7
 10
738.0816
 20
2455.169
 11
234.00063
 21
2455.169
  0
LINE
  8
0-2
  6
CONTINUOUS
 62
    3
 10
1307.5
 20
2055.3685
 11
1307.5
 21
2000.7681
  0
LINE
  8
0-2
  6
CONTINUOUS
 62
    3
 10
1449.9989
 20
2207.4681
 11
1449.9989
 21
2180.7684
  0
LINE
  8
0-2
  6
CONTINUOUS
 62
    3
 10
649.99995
 20
2165.169
 11
1450.0001
 21
2165.169
  0
LINE
  8
0-2
  6
CONTINUOUS
 62
    7
 10
792.50005
 20
1909.7214
 11
1307.501
 21
1909.7214
  0
LINE
  8
0-2
  6
CONTINUOUS
 62
    7
 10
650.00007
 20
2597.7013
 11
1450
 21
2597.7013
  0
LINE
  8
0-2
  6
CONTINUOUS
 62
    7
 10
1450
 20
2411.1475
 11
1450
 21
2597.7013
  0
LINE
  8
0-2
  6
CENTER2
 62
    7
 10
1050
 20
1800
 11
1050
 21
2655.1687
  0
LINE
  8
0-2
  6
CONTINUOUS
 62
    7
 10
234.00063
 20
1985.1687
 11
234.00063
 21
2455.169
  0
LINE
  8
0-2
  6
CONTINUOUS
 62
    7
 10
792.50005
 20
1961.5518
 11
792.50005
 21
1909.7214
  0
LINE
  8
0-2
  6
CONTINUOUS
 62
    7
 10
1307.501
 20
1961.5518
 11
1307.501
 21
1909.7214
  0
ARC
  8
0-2
  6
CONTINUOUS
 62
    3
 10
792.50005
 20
1992.9683
 40
7.7996399
 50
90
 51
270
  0
ARC
  8
0-2
  6
CONTINUOUS
 62
    3
 10
792.50005
 20
2063.168
 40
7.7996399
 50
90
 51
270
  0
ARC
  8
0-2
  6
CONTINUOUS
 62
    3
 10
1307.5
 20
1992.9683
 40
7.7996399
 50
270
 51
90
  0
ARC
  8
0-2
  6
CONTINUOUS
 62
    3
 10
1307.5
 20
2063.168
 40
7.7996399
 50
270
 51
90
  0
ARC
  8
0-2
  6
CONTINUOUS
 62
    3
 10
649.99995
 20
2215.2682
 40
7.7996399
 50
90
 51
270
  0
ARC
  8
0-2
  6
CONTINUOUS
 62
    3
 10
649.99995
 20
2172.9688
 40
7.7996399
 50
90
 51
270
  0
ARC
  8
0-2
  6
CONTINUOUS
 62
    3
 10
1449.9989
 20
2215.2682
 40
7.7996399
 50
270
 51
90
  0
ARC
  8
0-2
  6
CONTINUOUS
 62
    3
 10
1449.9989
 20
2172.9688
 40
7.7996399
 50
270
 51
90
  0
TEXT
  8
0-d
 10
254.9998
 20
157.4999
 40
25
 41
1
 50
0
  1
図
  0
TEXT
  8
0-d
 10
254.9998
 20
97.499963
 40
25
 41
1
 50
0
  1
番
  0
TEXT
  8
0-d
 10
655.00046
 20
157.4999
 40
25
 41
1
 50
0
  1
承
  0
TEXT
  8
0-d
 10
655.00046
 20
97.499963
 40
25
 41
1
 50
0
  1
認
  0
TEXT
  8
0-d
 10
1020.0003
 20
237.49994
 40
25
 41
1
 50
0
  1
尺
  0
TEXT
  8
0-d
 10
1020.0003
 20
197.49978
 40
25
 41
1
 50
0.0000762
  1
度
  0
TEXT
  8
0-d
 10
855.00014
 20
157.4999
 40
25
 41
1
 50
0
  1
製
  0
TEXT
  8
0-d
 10
855.00014
 20
97.499963
 40
25
 41
1
 50
0
  1
図
  0
TEXT
  8
0-d
 10
1555.0001
 20
237.49994
 40
25
 41
1
 50
0
  1
日
  0
TEXT
  8
0-d
 10
1555.0001
 20
197.49978
 40
25
 41
1
 50
0.0000762
  1
付
  0
TEXT
  8
0-d
 10
1111.4263
 20
163.48226
 40
20
 41
1
 50
0
  1
株式
  0
TEXT
  8
0-d
 10
1111.4263
 20
141.85179
 40
20
 41
1
 50
0.0000152
  1
会社
  0
TEXT
  8
0-d
 10
1174.2247
 20
143.24712
 40
40
 41
1
 50
0
  1
スズキベンチレーター
  0
TEXT
  8
0-d
 10
1237.9182
 20
94.024183
 40
20
 41
1
 50
0
  1
TEL(054)296-7000  FAX(054)296-7001
  0
TEXT
  8
0-d
 10
1084.349
 20
210.10065
 40
40
 41
1
 50
0
  1
１／１０
  0
TEXT
  8
0-2
 10
1016.85
 20
2621.1022
 40
30
 41
1
 50
0
  1
800
  0
TEXT
  8
0-2
 10
210.60049
 20
2180.3675
 40
30
 41
1
 50
90
  1
470
  0
TEXT
  8
0-2
 10
995.39997
 20
1925.3215
 40
30
 41
1
 50
0
  1
515φ
  0
TEXT
  8
0-d
 10
255.00005
 20
2792.7014
 40
50
 41
1
 50
0
  1
ＳＴ－５０　直付型立面
  0
TEXT
  8
0-d
 10
280.67567
 20
215.81082
 40
30
 41
1
 50
0
  1
ＳＴ－５０　直付型立面
  0
TEXT
  8
0-d
 10
308.45927
 20
140.30214
 40
30
 41
1
 50
0
  1
50-C01a
  0
TEXT
  8
0-d
 10
1235.6792
 20
118.64593
 40
20
 41
1
 50
0
  1
〒421-2114　静岡市葵区安倍口新田１５２番地
  0
POINT
  8
0-2
 62
    2
 10
234.00063
 20
1985.1687
  0
POINT
  8
0-2
 62
    2
 10
234.00063
 20
2455.169
  0
POINT
  8
0-2
 62
    2
 10
650.00007
 20
2597.7013
  0
POINT
  8
0-2
 62
    2
 10
1450
 20
2597.7013
  0
POINT
  8
0-2
 62
    2
 10
792.50005
 20
1909.7214
  0
POINT
  8
0-2
 62
    2
 10
1307.501
 20
1909.7214
  0
ENDSEC
  0
EOF
