  0
SECTION
  2
HEADER
  9
$EXTMIN
 10
0
 20
0
  9
$EXTMAX
 10
4200
 20
2970
  0
ENDSEC
  0
SECTION
  2
TABLES
  0
TABLE
  2
LTYPE
 70
     9
  0
LTYPE
  2
CONTINUOUS
 70
    64
  3
実線
 72
    65
 73
     0
 40
0.0
  0
LTYPE
  2
DASHED1
 70
    64
  3
--  --  --  --  --  --  --  --  
 72
    65
 73
     2
 40
2.5
 49
1.25
 49
-1.25
  0
LTYPE
  2
DASHED2
 70
    64
  3
----    ----    ----    ----    
 72
    65
 73
     2
 40
5.0
 49
2.5
 49
-2.5
  0
LTYPE
  2
DASHED3
 70
    64
  3
------  ------  ------  ------  
 72
    65
 73
     2
 40
5.0
 49
3.75
 49
-1.25
  0
LTYPE
  2
CENTER1
 70
    64
  3
----- - ----- - ----- - ----- - 
 72
    65
 73
     4
 40
10.0
 49
6.25
 49
-1.25
 49
1.25
 49
-1.25
  0
LTYPE
  2
CENTER2
 70
    64
  3
----------  --  ----------  --  
 72
    65
 73
     4
 40
20.0
 49
12.5
 49
-2.5
 49
2.5
 49
-2.5
  0
LTYPE
  2
PHANTOM1
 70
    64
  3
--- - - --- - - --- - - --- - - 
 72
    65
 73
     6
 40
10.0
 49
3.25
 49
-1.25
 49
1.25
 49
-1.25
 49
1.25
 49
-1.25
  0
LTYPE
  2
PHANTOM2
 70
    64
  3
--------  -  -  --------  -  -  
 72
    65
 73
     6
 40
20.0
 49
10.0
 49
-2.5
 49
1.25
 49
-2.5
 49
1.25
 49
-2.5
  0
LTYPE
  2
DOT
 70
    64
  3
-   -   -   -   -   -   -   -   
 72
    65
 73
     2
 40
2.5
 49
0.625
 49
-1.875
  0
ENDTAB
  0
TABLE
  2
STYLE
 70
    1
  0
STYLE
  2
STANDARD
 70
    64
 40
0.0
 41
1.0
 42
0.0
 50
0.0
 71
     0
  3
TXT
  4
BIGFONT
  0
ENDTAB
  0
TABLE
  2
LAYER
 70
    5
  0
LAYER
  2
0-1
 70
   64
 62
    7
  6
CONTINUOUS
  0
LAYER
  2
0-2
 70
   64
 62
    7
  6
CONTINUOUS
  0
LAYER
  2
0-8
 70
   64
 62
    7
  6
CONTINUOUS
  0
LAYER
  2
0-d
 70
   64
 62
    7
  6
CONTINUOUS
  0
LAYER
  2
ADD_LINE
 70
   64
 62
    7
  6
CONTINUOUS
  0
ENDTAB
  0
ENDSEC
  0
SECTION
  2
ENTITIES
  0
LINE
  8
0-d
  6
CONTINUOUS
 62
    7
 10
250.00004
 20
2757.7013
 11
1850.0001
 21
2757.7013
  0
LINE
  8
0-d
  6
CONTINUOUS
 62
    7
 10
250.00004
 20
2767.7016
 11
1850.0001
 21
2767.7016
  0
LINE
  8
0-d
  6
CONTINUOUS
 62
    7
 10
249.99967
 20
189.99989
 11
1850.0003
 21
189.99989
  0
LINE
  8
0-d
  6
CONTINUOUS
 62
    7
 10
249.99967
 20
89.999806
 11
249.99967
 21
269.99991
  0
LINE
  8
0-d
  6
CONTINUOUS
 62
    7
 10
249.99967
 20
89.999806
 11
1850.0003
 21
89.999806
  0
LINE
  8
0-d
  6
CONTINUOUS
 62
    7
 10
1850.0003
 20
269.99991
 11
1850.0003
 21
89.999806
  0
LINE
  8
0-d
  6
CONTINUOUS
 62
    7
 10
249.99967
 20
269.99991
 11
1850.0003
 21
269.99991
  0
LINE
  8
0-d
  6
CONTINUOUS
 62
    7
 10
1050
 20
269.99991
 11
1050
 21
89.999806
  0
LINE
  8
0-d
  6
CONTINUOUS
 62
    7
 10
650.00019
 20
89.999806
 11
650.00019
 21
189.99989
  0
LINE
  8
0-d
  6
CONTINUOUS
 62
    7
 10
1050
 20
189.99989
 11
1050
 21
269.99991
  0
LINE
  8
0-d
  6
CONTINUOUS
 62
    7
 10
849.99975
 20
89.999806
 11
849.99975
 21
189.99989
  0
LINE
  8
0-d
  6
CONTINUOUS
 62
    7
 10
285.00002
 20
89.999806
 11
285.00002
 21
189.99989
  0
LINE
  8
0-d
  6
CONTINUOUS
 62
    7
 10
685.00006
 20
89.999806
 11
685.00006
 21
189.99989
  0
LINE
  8
0-d
  6
CONTINUOUS
 62
    7
 10
885.00011
 20
89.999806
 11
885.00011
 21
189.99989
  0
LINE
  8
0-d
  6
CONTINUOUS
 62
    7
 10
1015
 20
189.99989
 11
1015
 21
269.99991
  0
LINE
  8
0-d
  6
CONTINUOUS
 62
    7
 10
1550.0004
 20
189.99989
 11
1550.0004
 21
269.99991
  0
LINE
  8
0-d
  6
CONTINUOUS
 62
    7
 10
1585.0002
 20
189.99989
 11
1585.0002
 21
269.99991
  0
LINE
  8
0-8
  6
CONTINUOUS
 62
    7
 10
682.75133
 20
1392.2605
 11
370.00049
 21
1392.2605
  0
LINE
  8
0-8
  6
CONTINUOUS
 62
    7
 10
682.75133
 20
1602.2605
 11
370.00049
 21
1602.2605
  0
LINE
  8
0-8
  6
CONTINUOUS
 62
    7
 10
682.75133
 20
1662.2602
 11
370.00049
 21
1662.2602
  0
LINE
  8
0-2
  6
CONTINUOUS
 62
    3
 10
799.99995
 20
518.85142
 11
799.99995
 21
1018.8512
  0
LINE
  8
0-2
  6
CONTINUOUS
 62
    3
 10
799.99995
 20
1018.8512
 11
1300.0001
 21
1018.8512
  0
LINE
  8
0-2
  6
CONTINUOUS
 62
    3
 10
1300.0001
 20
1018.8512
 11
1300.0001
 21
518.85117
  0
LINE
  8
0-2
  6
CONTINUOUS
 62
    3
 10
1300.0001
 20
518.85117
 11
799.99995
 21
518.85142
  0
LINE
  8
0-2
  6
CONTINUOUS
 62
    3
 10
602.50016
 20
321.35138
 11
602.50016
 21
1216.3512
  0
LINE
  8
0-2
  6
CONTINUOUS
 62
    3
 10
602.50016
 20
1216.3512
 11
1497.4999
 21
1216.3512
  0
LINE
  8
0-2
  6
CONTINUOUS
 62
    3
 10
1497.4999
 20
1216.3512
 11
1497.4999
 21
321.35138
  0
LINE
  8
0-2
  6
CONTINUOUS
 62
    3
 10
1497.4999
 20
321.35138
 11
602.50016
 21
321.35138
  0
LINE
  8
0-8
  6
CONTINUOUS
 62
    7
 10
370.00049
 20
321.35138
 11
370.00049
 21
1216.3512
  0
LINE
  8
0-8
  6
CONTINUOUS
 62
    7
 10
1730.0005
 20
518.85142
 11
1730.0005
 21
1018.8512
  0
LINE
  8
0-8
  6
CONTINUOUS
 62
    7
 10
799.99995
 20
1260.3871
 11
1300.0001
 21
1260.3871
  0
LINE
  8
0-2
  6
CONTINUOUS
 62
    3
 10
799.99995
 20
1018.8512
 11
868.94288
 21
949.90804
  0
LINE
  8
0-2
  6
CONTINUOUS
 62
    3
 10
1300.0001
 20
1018.8512
 11
1231.0572
 21
949.90804
  0
LINE
  8
0-2
  6
CONTINUOUS
 62
    3
 10
799.99995
 20
518.85142
 11
868.94288
 21
587.79407
  0
LINE
  8
0-2
  6
CONTINUOUS
 62
    3
 10
1300.0001
 20
518.85117
 11
1231.0572
 21
587.79382
  0
LINE
  8
0-2
  6
CONTINUOUS
 62
    3
 10
847.49999
 20
1602.2605
 11
1252.5001
 21
1602.2605
  0
LINE
  8
0-2
  6
CONTINUOUS
 62
    3
 10
847.49999
 20
1662.2602
 11
1252.5001
 21
1662.2602
  0
LINE
  8
0-8
  6
CONTINUOUS
 62
    7
 10
847.49999
 20
1725.9059
 11
1252.5001
 21
1725.9059
  0
LINE
  8
0-8
  6
CONTINUOUS
 62
    7
 10
799.99995
 20
1326.8147
 11
799.99995
 21
1260.3871
  0
LINE
  8
0-8
  6
CONTINUOUS
 62
    7
 10
1300.0001
 20
1326.8147
 11
1300.0001
 21
1260.3871
  0
LINE
  8
0-8
  6
CONTINUOUS
 62
    7
 10
532.15029
 20
1216.3512
 11
370.00049
 21
1216.3512
  0
LINE
  8
0-8
  6
CONTINUOUS
 62
    7
 10
532.15029
 20
321.35138
 11
370.00049
 21
321.35138
  0
LINE
  8
0-8
  6
CONTINUOUS
 62
    7
 10
1567.2601
 20
1018.8512
 11
1730.0005
 21
1018.8512
  0
LINE
  8
0-8
  6
CONTINUOUS
 62
    7
 10
1567.2601
 20
518.85142
 11
1730.0005
 21
518.85142
  0
LINE
  8
0-2
  6
CONTINUOUS
 62
    3
 10
847.49999
 20
1649.2601
 11
1252.5001
 21
1649.2601
  0
LINE
  8
0-2
  6
CONTINUOUS
 62
    3
 10
847.49999
 20
1662.2602
 11
847.49999
 21
1649.2601
  0
LINE
  8
0-2
  6
CONTINUOUS
 62
    3
 10
847.49999
 20
1636.2599
 11
847.49999
 21
1602.2605
  0
LINE
  8
0-2
  6
CONTINUOUS
 62
    3
 10
847.49999
 20
1636.2601
 11
1252.5001
 21
1636.2601
  0
LINE
  8
0-2
  6
CONTINUOUS
 62
    3
 10
1252.5001
 20
1636.2601
 11
1252.5001
 21
1602.2605
  0
LINE
  8
0-2
  6
CONTINUOUS
 62
    3
 10
1252.5003
 20
1662.2602
 11
1252.5003
 21
1649.2601
  0
LINE
  8
0-d
  6
CONTINUOUS
 62
    7
 10
403.46178
 20
1335.6781
 11
494.20218
 21
1335.6781
  0
LINE
  8
0-d
  6
CONTINUOUS
 62
    7
 10
403.46178
 20
1335.6781
 11
494.20218
 21
1362.8991
  0
LINE
  8
0-d
  6
CONTINUOUS
 62
    7
 10
494.20218
 20
1335.6781
 11
494.20218
 21
1362.8991
  0
LINE
  8
0-8
  6
CONTINUOUS
 62
    7
 10
858.88494
 20
701.90936
 11
1241.1154
 21
835.79262
  0
LINE
  8
0-2
  6
CONTINUOUS
 62
    3
 10
847.49999
 20
1602.2605
 11
803.09635
 21
1392.2605
  0
LINE
  8
0-2
  6
CONTINUOUS
 62
    3
 10
1252.5001
 20
1602.2605
 11
1296.8715
 21
1392.1161
  0
LINE
  8
0-8
  6
CONTINUOUS
 62
    7
 10
847.49999
 20
1682.7211
 11
847.49999
 21
1725.9059
  0
LINE
  8
0-8
  6
CONTINUOUS
 62
    7
 10
1252.5001
 20
1682.7211
 11
1252.5001
 21
1725.9059
  0
LINE
  8
0-8
  6
CONTINUOUS
 62
    7
 10
710.00002
 20
2707.0368
 11
1390.0002
 21
2707.0368
  0
LINE
  8
0-8
  6
CONTINUOUS
 62
    7
 10
1390.0002
 20
2609.2028
 11
1390.0002
 21
2707.0368
  0
LINE
  8
0-8
  6
CONTINUOUS
 62
    7
 10
710.00002
 20
2707.0368
 11
710.00002
 21
2609.2028
  0
LINE
  8
0-2
  6
CONTINUOUS
 62
    3
 10
710.00101
 20
2162.4328
 11
1390.0019
 21
2162.4328
  0
LINE
  8
0-2
  6
CONTINUOUS
 62
    3
 10
710.00101
 20
2177.3443
 11
1390.0019
 21
2177.3443
  0
LINE
  8
0-2
  6
CONTINUOUS
 62
    3
 10
710.00008
 20
2087.8701
 11
1390.0011
 21
2087.8701
  0
LINE
  8
0-2
  6
CONTINUOUS
 62
    3
 10
710.00101
 20
2162.4328
 11
710.00008
 21
2087.8698
  0
LINE
  8
0-2
  6
CONTINUOUS
 62
    3
 10
839.9991
 20
1871.6432
 11
1260
 21
1871.643
  0
LINE
  8
0-2
  6
CONTINUOUS
 62
    3
 10
839.9991
 20
1886.5551
 11
1260
 21
1886.555
  0
LINE
  8
0-2
  6
CONTINUOUS
 62
    3
 10
840.00009
 20
1841.8179
 11
1260.001
 21
1841.8179
  0
LINE
  8
0-2
  6
CONTINUOUS
 62
    3
 10
839.9991
 20
1871.6432
 11
840.00009
 21
1841.8175
  0
LINE
  8
0-2
  6
CONTINUOUS
 62
    3
 10
1259.999
 20
1871.643
 11
1260
 21
1841.8175
  0
LINE
  8
0-2
  6
CONTINUOUS
 62
    3
 10
840.00009
 20
1998.3968
 11
839.9991
 21
1886.5551
  0
LINE
  8
0-2
  6
CONTINUOUS
 62
    3
 10
1260
 20
1998.3968
 11
1259.999
 21
1886.555
  0
LINE
  8
0-2
  6
CONTINUOUS
 62
    3
 10
1259.999
 20
1871.643
 11
1260
 21
1841.8175
  0
LINE
  8
0-2
  6
CONTINUOUS
 62
    3
 10
1390.0009
 20
2162.4328
 11
1390.0002
 21
2087.8698
  0
LINE
  8
0-2
  6
CONTINUOUS
 62
    3
 10
710.00008
 20
2072.9581
 11
1390.0011
 21
2072.9581
  0
LINE
  8
0-2
  6
CONTINUOUS
 62
    3
 10
710.00002
 20
2475.5902
 11
1390.0009
 21
2475.5902
  0
LINE
  8
0-2
  6
CONTINUOUS
 62
    3
 10
710.00002
 20
2490.5024
 11
1390.0009
 21
2490.5024
  0
LINE
  8
0-2
  6
CONTINUOUS
 62
    3
 10
710.00002
 20
2401.0284
 11
1390.0009
 21
2401.0284
  0
LINE
  8
0-2
  6
CONTINUOUS
 62
    3
 10
710.00002
 20
2475.5902
 11
710.00002
 21
2401.0282
  0
LINE
  8
0-2
  6
CONTINUOUS
 62
    3
 10
1389.9999
 20
2475.5902
 11
1389.9999
 21
2401.0282
  0
LINE
  8
0-2
  6
CONTINUOUS
 62
    3
 10
710.00002
 20
2386.1165
 11
1390.0009
 21
2386.1165
  0
LINE
  8
0-8
  6
CONTINUOUS
 62
    7
 10
718.63196
 20
1826.9055
 11
580.00021
 21
1826.9055
  0
LINE
  8
0-2
  6
CONTINUOUS
 62
    3
 10
710.00008
 20
2072.9581
 11
776.66675
 21
1998.3968
  0
LINE
  8
0-2
  6
CONTINUOUS
 62
    3
 10
1050
 20
2676.9063
 11
1223.2055
 21
2565.0637
  0
LINE
  8
0-2
  6
CONTINUOUS
 62
    3
 10
1050
 20
2676.9063
 11
882.88648
 21
2568.9975
  0
LINE
  8
0-2
  6
CONTINUOUS
 62
    3
 10
1389.9999
 20
2490.5024
 11
1323.3334
 21
2565.0637
  0
LINE
  8
0-2
  6
CONTINUOUS
 62
    3
 10
710.00002
 20
2490.5024
 11
776.66656
 21
2565.0637
  0
LINE
  8
0-2
  6
CONTINUOUS
 62
    3
 10
990.76852
 20
2558.901
 11
991.31722
 21
2559.065
  0
LINE
  8
0-2
  6
CONTINUOUS
 62
    3
 10
991.31722
 20
2559.065
 11
991.83263
 21
2559.2887
  0
LINE
  8
0-2
  6
CONTINUOUS
 62
    3
 10
991.83263
 20
2559.2887
 11
992.31514
 21
2559.5668
  0
LINE
  8
0-2
  6
CONTINUOUS
 62
    3
 10
992.31514
 20
2559.5668
 11
992.76548
 21
2559.8959
  0
LINE
  8
0-2
  6
CONTINUOUS
 62
    3
 10
992.76548
 20
2559.8959
 11
993.18427
 21
2560.2725
  0
LINE
  8
0-2
  6
CONTINUOUS
 62
    3
 10
993.18427
 20
2560.2725
 11
993.57189
 21
2560.691
  0
LINE
  8
0-2
  6
CONTINUOUS
 62
    3
 10
993.57189
 20
2560.691
 11
993.92919
 21
2561.1472
  0
LINE
  8
0-2
  6
CONTINUOUS
 62
    3
 10
993.92919
 20
2561.1472
 11
994.2568
 21
2561.6384
  0
LINE
  8
0-2
  6
CONTINUOUS
 62
    3
 10
994.2568
 20
2561.6384
 11
994.55509
 21
2562.1588
  0
LINE
  8
0-2
  6
CONTINUOUS
 62
    3
 10
994.55509
 20
2562.1588
 11
994.82486
 21
2562.7051
  0
LINE
  8
0-2
  6
CONTINUOUS
 62
    3
 10
994.82486
 20
2562.7051
 11
995.06655
 21
2563.273
  0
LINE
  8
0-2
  6
CONTINUOUS
 62
    3
 10
995.06655
 20
2563.273
 11
995.28089
 21
2563.8582
  0
LINE
  8
0-2
  6
CONTINUOUS
 62
    3
 10
995.28089
 20
2563.8582
 11
995.46845
 21
2564.4568
  0
LINE
  8
0-2
  6
CONTINUOUS
 62
    3
 10
995.46845
 20
2564.4568
 11
995.62985
 21
2565.0637
  0
LINE
  8
0-2
  6
CONTINUOUS
 62
    3
 10
987.75458
 20
2558.8681
 11
987.12008
 21
2559.0962
  0
LINE
  8
0-2
  6
CONTINUOUS
 62
    3
 10
987.12008
 20
2559.0962
 11
986.52474
 21
2559.3654
  0
LINE
  8
0-2
  6
CONTINUOUS
 62
    3
 10
986.52474
 20
2559.3654
 11
985.968
 21
2559.6742
  0
LINE
  8
0-2
  6
CONTINUOUS
 62
    3
 10
985.968
 20
2559.6742
 11
985.4498
 21
2560.0202
  0
LINE
  8
0-2
  6
CONTINUOUS
 62
    3
 10
985.4498
 20
2560.0202
 11
984.9694
 21
2560.4007
  0
LINE
  8
0-2
  6
CONTINUOUS
 62
    3
 10
984.9694
 20
2560.4007
 11
984.52648
 21
2560.8149
  0
LINE
  8
0-2
  6
CONTINUOUS
 62
    3
 10
984.52648
 20
2560.8149
 11
984.1208
 21
2561.2598
  0
LINE
  8
0-2
  6
CONTINUOUS
 62
    3
 10
984.1208
 20
2561.2598
 11
983.75168
 21
2561.7337
  0
LINE
  8
0-2
  6
CONTINUOUS
 62
    3
 10
983.75168
 20
2561.7337
 11
983.41869
 21
2562.234
  0
LINE
  8
0-2
  6
CONTINUOUS
 62
    3
 10
983.41869
 20
2562.234
 11
983.1217
 21
2562.7588
  0
LINE
  8
0-2
  6
CONTINUOUS
 62
    3
 10
983.1217
 20
2562.7588
 11
982.86009
 21
2563.3067
  0
LINE
  8
0-2
  6
CONTINUOUS
 62
    3
 10
982.86009
 20
2563.3067
 11
982.63332
 21
2563.8745
  0
LINE
  8
0-2
  6
CONTINUOUS
 62
    3
 10
982.63332
 20
2563.8745
 11
982.44124
 21
2564.4612
  0
LINE
  8
0-2
  6
CONTINUOUS
 62
    3
 10
982.44124
 20
2564.4612
 11
982.28319
 21
2565.0637
  0
LINE
  8
0-2
  6
CONTINUOUS
 62
    3
 10
956.11123
 20
2565.0637
 11
955.49659
 21
2564.0628
  0
LINE
  8
0-2
  6
CONTINUOUS
 62
    3
 10
955.49659
 20
2564.0628
 11
954.8749
 21
2563.1728
  0
LINE
  8
0-2
  6
CONTINUOUS
 62
    3
 10
954.8749
 20
2563.1728
 11
954.24844
 21
2562.3867
  0
LINE
  8
0-2
  6
CONTINUOUS
 62
    3
 10
954.24844
 20
2562.3867
 11
953.61976
 21
2561.699
  0
LINE
  8
0-2
  6
CONTINUOUS
 62
    3
 10
953.61976
 20
2561.699
 11
952.99138
 21
2561.103
  0
LINE
  8
0-2
  6
CONTINUOUS
 62
    3
 10
952.99138
 20
2561.103
 11
952.36549
 21
2560.5935
  0
LINE
  8
0-2
  6
CONTINUOUS
 62
    3
 10
952.36549
 20
2560.5935
 11
951.74478
 21
2560.1637
  0
LINE
  8
0-2
  6
CONTINUOUS
 62
    3
 10
951.74478
 20
2560.1637
 11
951.1315
 21
2559.8071
  0
LINE
  8
0-2
  6
CONTINUOUS
 62
    3
 10
951.1315
 20
2559.8071
 11
950.52824
 21
2559.5179
  0
LINE
  8
0-2
  6
CONTINUOUS
 62
    3
 10
950.52824
 20
2559.5179
 11
949.93736
 21
2559.2902
  0
LINE
  8
0-2
  6
CONTINUOUS
 62
    3
 10
949.93736
 20
2559.2902
 11
949.36132
 21
2559.1175
  0
LINE
  8
0-2
  6
CONTINUOUS
 62
    3
 10
949.36132
 20
2559.1175
 11
948.80272
 21
2558.9935
  0
LINE
  8
0-2
  6
CONTINUOUS
 62
    3
 10
948.80272
 20
2558.9935
 11
948.26368
 21
2558.9124
  0
LINE
  8
0-2
  6
CONTINUOUS
 62
    3
 10
948.26368
 20
2558.9124
 11
947.74696
 21
2558.8681
  0
LINE
  8
0-2
  6
CONTINUOUS
 62
    3
 10
943.34896
 20
2565.0637
 11
943.3674
 21
2564.3439
  0
LINE
  8
0-2
  6
CONTINUOUS
 62
    3
 10
943.3674
 20
2564.3439
 11
943.42295
 21
2563.6783
  0
LINE
  8
0-2
  6
CONTINUOUS
 62
    3
 10
943.42295
 20
2563.6783
 11
943.51772
 21
2563.0649
  0
LINE
  8
0-2
  6
CONTINUOUS
 62
    3
 10
943.51772
 20
2563.0649
 11
943.65393
 21
2562.4998
  0
LINE
  8
0-2
  6
CONTINUOUS
 62
    3
 10
943.65393
 20
2562.4998
 11
943.83364
 21
2561.9804
  0
LINE
  8
0-2
  6
CONTINUOUS
 62
    3
 10
943.83364
 20
2561.9804
 11
944.05868
 21
2561.5041
  0
LINE
  8
0-2
  6
CONTINUOUS
 62
    3
 10
944.05868
 20
2561.5041
 11
944.33136
 21
2561.0673
  0
LINE
  8
0-2
  6
CONTINUOUS
 62
    3
 10
944.33136
 20
2561.0673
 11
944.65371
 21
2560.667
  0
LINE
  8
0-2
  6
CONTINUOUS
 62
    3
 10
944.65371
 20
2560.667
 11
945.02778
 21
2560.3005
  0
LINE
  8
0-2
  6
CONTINUOUS
 62
    3
 10
945.02778
 20
2560.3005
 11
945.45567
 21
2559.9647
  0
LINE
  8
0-2
  6
CONTINUOUS
 62
    3
 10
945.45567
 20
2559.9647
 11
945.93947
 21
2559.6567
  0
LINE
  8
0-2
  6
CONTINUOUS
 62
    3
 10
945.93947
 20
2559.6567
 11
946.48124
 21
2559.3729
  0
LINE
  8
0-2
  6
CONTINUOUS
 62
    3
 10
946.48124
 20
2559.3729
 11
947.08308
 21
2559.1108
  0
LINE
  8
0-2
  6
CONTINUOUS
 62
    3
 10
947.08308
 20
2559.1108
 11
947.74696
 21
2558.8681
  0
LINE
  8
0-2
  6
CONTINUOUS
 62
    3
 10
906.72335
 20
2565.0637
 11
907.0368
 21
2564.2185
  0
LINE
  8
0-2
  6
CONTINUOUS
 62
    3
 10
907.0368
 20
2564.2185
 11
907.36323
 21
2563.4509
  0
LINE
  8
0-2
  6
CONTINUOUS
 62
    3
 10
907.36323
 20
2563.4509
 11
907.70241
 21
2562.7588
  0
LINE
  8
0-2
  6
CONTINUOUS
 62
    3
 10
907.70241
 20
2562.7588
 11
908.05396
 21
2562.1373
  0
LINE
  8
0-2
  6
CONTINUOUS
 62
    3
 10
908.05396
 20
2562.1373
 11
908.41751
 21
2561.5835
  0
LINE
  8
0-2
  6
CONTINUOUS
 62
    3
 10
908.41751
 20
2561.5835
 11
908.79282
 21
2561.0931
  0
LINE
  8
0-2
  6
CONTINUOUS
 62
    3
 10
908.79282
 20
2561.0931
 11
909.17938
 21
2560.662
  0
LINE
  8
0-2
  6
CONTINUOUS
 62
    3
 10
909.17938
 20
2560.662
 11
909.5772
 21
2560.2871
  0
LINE
  8
0-2
  6
CONTINUOUS
 62
    3
 10
909.5772
 20
2560.2871
 11
909.98554
 21
2559.964
  0
LINE
  8
0-2
  6
CONTINUOUS
 62
    3
 10
909.98554
 20
2559.964
 11
910.40445
 21
2559.6898
  0
LINE
  8
0-2
  6
CONTINUOUS
 62
    3
 10
910.40445
 20
2559.6898
 11
910.83345
 21
2559.46
  0
LINE
  8
0-2
  6
CONTINUOUS
 62
    3
 10
910.83345
 20
2559.46
 11
911.27222
 21
2559.2709
  0
LINE
  8
0-2
  6
CONTINUOUS
 62
    3
 10
911.27222
 20
2559.2709
 11
911.72034
 21
2559.119
  0
LINE
  8
0-2
  6
CONTINUOUS
 62
    3
 10
911.72034
 20
2559.119
 11
912.17767
 21
2559.0002
  0
LINE
  8
0-2
  6
CONTINUOUS
 62
    3
 10
913.18326
 20
2559.0002
 11
913.6602
 21
2559.1012
  0
LINE
  8
0-2
  6
CONTINUOUS
 62
    3
 10
913.6602
 20
2559.1012
 11
914.13331
 21
2559.263
  0
LINE
  8
0-2
  6
CONTINUOUS
 62
    3
 10
914.13331
 20
2559.263
 11
914.60246
 21
2559.4835
  0
LINE
  8
0-2
  6
CONTINUOUS
 62
    3
 10
914.60246
 20
2559.4835
 11
915.06789
 21
2559.7643
  0
LINE
  8
0-2
  6
CONTINUOUS
 62
    3
 10
915.06789
 20
2559.7643
 11
915.52924
 21
2560.1048
  0
LINE
  8
0-2
  6
CONTINUOUS
 62
    3
 10
915.52924
 20
2560.1048
 11
915.98688
 21
2560.5049
  0
LINE
  8
0-2
  6
CONTINUOUS
 62
    3
 10
915.98688
 20
2560.5049
 11
916.44056
 21
2560.9654
  0
LINE
  8
0-2
  6
CONTINUOUS
 62
    3
 10
916.44056
 20
2560.9654
 11
916.89047
 21
2561.4857
  0
LINE
  8
0-2
  6
CONTINUOUS
 62
    3
 10
916.89047
 20
2561.4857
 11
917.33648
 21
2562.065
  0
LINE
  8
0-2
  6
CONTINUOUS
 62
    3
 10
873.19921
 20
2565.0637
 11
873.28996
 21
2564.4191
  0
LINE
  8
0-2
  6
CONTINUOUS
 62
    3
 10
873.28996
 20
2564.4191
 11
873.41863
 21
2563.8191
  0
LINE
  8
0-2
  6
CONTINUOUS
 62
    3
 10
873.41863
 20
2563.8191
 11
873.58244
 21
2563.2616
  0
LINE
  8
0-2
  6
CONTINUOUS
 62
    3
 10
873.58244
 20
2563.2616
 11
873.77822
 21
2562.7455
  0
LINE
  8
0-2
  6
CONTINUOUS
 62
    3
 10
873.77822
 20
2562.7455
 11
874.00315
 21
2562.2679
  0
LINE
  8
0-2
  6
CONTINUOUS
 62
    3
 10
874.00315
 20
2562.2679
 11
874.25467
 21
2561.8282
  0
LINE
  8
0-2
  6
CONTINUOUS
 62
    3
 10
874.25467
 20
2561.8282
 11
874.53013
 21
2561.4244
  0
LINE
  8
0-2
  6
CONTINUOUS
 62
    3
 10
874.53013
 20
2561.4244
 11
874.82724
 21
2561.0554
  0
LINE
  8
0-2
  6
CONTINUOUS
 62
    3
 10
874.82724
 20
2561.0554
 11
875.14384
 21
2560.7197
  0
LINE
  8
0-2
  6
CONTINUOUS
 62
    3
 10
875.14384
 20
2560.7197
 11
875.47764
 21
2560.4163
  0
LINE
  8
0-2
  6
CONTINUOUS
 62
    3
 10
875.47764
 20
2560.4163
 11
875.8269
 21
2560.1444
  0
LINE
  8
0-2
  6
CONTINUOUS
 62
    3
 10
875.8269
 20
2560.1444
 11
876.18977
 21
2559.9029
  0
LINE
  8
0-2
  6
CONTINUOUS
 62
    3
 10
876.18977
 20
2559.9029
 11
876.56458
 21
2559.6901
  0
LINE
  8
0-2
  6
CONTINUOUS
 62
    3
 10
876.56458
 20
2559.6901
 11
876.94991
 21
2559.5065
  0
LINE
  8
0-2
  6
CONTINUOUS
 62
    3
 10
876.94991
 20
2559.5065
 11
877.34445
 21
2559.3506
  0
LINE
  8
0-2
  6
CONTINUOUS
 62
    3
 10
877.34445
 20
2559.3506
 11
877.74703
 21
2559.2224
  0
LINE
  8
0-2
  6
CONTINUOUS
 62
    3
 10
877.74703
 20
2559.2224
 11
878.15642
 21
2559.1215
  0
LINE
  8
0-2
  6
CONTINUOUS
 62
    3
 10
878.15642
 20
2559.1215
 11
878.572
 21
2559.0477
  0
LINE
  8
0-2
  6
CONTINUOUS
 62
    3
 10
878.572
 20
2559.0477
 11
878.99296
 21
2559.0002
  0
LINE
  8
0-2
  6
CONTINUOUS
 62
    3
 10
879.09917
 20
2559.0057
 11
879.33622
 21
2559.0319
  0
LINE
  8
0-2
  6
CONTINUOUS
 62
    3
 10
879.33622
 20
2559.0319
 11
879.56918
 21
2559.0695
  0
LINE
  8
0-2
  6
CONTINUOUS
 62
    3
 10
879.56918
 20
2559.0695
 11
879.79794
 21
2559.119
  0
LINE
  8
0-2
  6
CONTINUOUS
 62
    3
 10
879.79794
 20
2559.119
 11
880.02274
 21
2559.1794
  0
LINE
  8
0-2
  6
CONTINUOUS
 62
    3
 10
880.02274
 20
2559.1794
 11
880.24345
 21
2559.2511
  0
LINE
  8
0-2
  6
CONTINUOUS
 62
    3
 10
880.24345
 20
2559.2511
 11
880.46009
 21
2559.3345
  0
LINE
  8
0-2
  6
CONTINUOUS
 62
    3
 10
880.46009
 20
2559.3345
 11
880.67258
 21
2559.4293
  0
LINE
  8
0-2
  6
CONTINUOUS
 62
    3
 10
880.67258
 20
2559.4293
 11
880.88098
 21
2559.5357
  0
LINE
  8
0-2
  6
CONTINUOUS
 62
    3
 10
880.88098
 20
2559.5357
 11
881.08531
 21
2559.6532
  0
LINE
  8
0-2
  6
CONTINUOUS
 62
    3
 10
783.30766
 20
2565.0637
 11
783.38882
 21
2564.386
  0
LINE
  8
0-2
  6
CONTINUOUS
 62
    3
 10
783.38882
 20
2564.386
 11
783.47456
 21
2563.7659
  0
LINE
  8
0-2
  6
CONTINUOUS
 62
    3
 10
783.47456
 20
2563.7659
 11
783.56525
 21
2563.2052
  0
LINE
  8
0-2
  6
CONTINUOUS
 62
    3
 10
783.56525
 20
2563.2052
 11
783.66051
 21
2562.7022
  0
LINE
  8
0-2
  6
CONTINUOUS
 62
    3
 10
783.66051
 20
2562.7022
 11
783.76048
 21
2562.2585
  0
LINE
  8
0-2
  6
CONTINUOUS
 62
    3
 10
783.76048
 20
2562.2585
 11
783.86527
 21
2561.8727
  0
LINE
  8
0-2
  6
CONTINUOUS
 62
    3
 10
783.86527
 20
2561.8727
 11
783.97464
 21
2561.5454
  0
LINE
  8
0-2
  6
CONTINUOUS
 62
    3
 10
783.97464
 20
2561.5454
 11
784.08871
 21
2561.2772
  0
LINE
  8
0-2
  6
CONTINUOUS
 62
    3
 10
784.08871
 20
2561.2772
 11
784.20748
 21
2561.0673
  0
LINE
  8
0-2
  6
CONTINUOUS
 62
    3
 10
798.06473
 20
2565.0637
 11
798.1097
 21
2564.527
  0
LINE
  8
0-2
  6
CONTINUOUS
 62
    3
 10
798.1097
 20
2564.527
 11
798.18393
 21
2564.0193
  0
LINE
  8
0-2
  6
CONTINUOUS
 62
    3
 10
798.18393
 20
2564.0193
 11
798.28402
 21
2563.5407
  0
LINE
  8
0-2
  6
CONTINUOUS
 62
    3
 10
798.28402
 20
2563.5407
 11
798.40762
 21
2563.0914
  0
LINE
  8
0-2
  6
CONTINUOUS
 62
    3
 10
798.40762
 20
2563.0914
 11
798.55163
 21
2562.672
  0
LINE
  8
0-2
  6
CONTINUOUS
 62
    3
 10
798.55163
 20
2562.672
 11
798.71327
 21
2562.2827
  0
LINE
  8
0-2
  6
CONTINUOUS
 62
    3
 10
798.71327
 20
2562.2827
 11
798.88963
 21
2561.9225
  0
LINE
  8
0-2
  6
CONTINUOUS
 62
    3
 10
798.88963
 20
2561.9225
 11
799.07768
 21
2561.5931
  0
LINE
  8
0-2
  6
CONTINUOUS
 62
    3
 10
799.07768
 20
2561.5931
 11
799.27465
 21
2561.293
  0
LINE
  8
0-2
  6
CONTINUOUS
 62
    3
 10
799.27465
 20
2561.293
 11
799.47761
 21
2561.024
  0
LINE
  8
0-2
  6
CONTINUOUS
 62
    3
 10
799.47761
 20
2561.024
 11
799.68373
 21
2560.7857
  0
LINE
  8
0-2
  6
CONTINUOUS
 62
    3
 10
799.68373
 20
2560.7857
 11
799.89028
 21
2560.5776
  0
LINE
  8
0-2
  6
CONTINUOUS
 62
    3
 10
799.89028
 20
2560.5776
 11
800.09417
 21
2560.4005
  0
LINE
  8
0-2
  6
CONTINUOUS
 62
    3
 10
800.09417
 20
2560.4005
 11
800.29261
 21
2560.2542
  0
LINE
  8
0-2
  6
CONTINUOUS
 62
    3
 10
818.27549
 20
2565.0637
 11
818.40948
 21
2564.4662
  0
LINE
  8
0-2
  6
CONTINUOUS
 62
    3
 10
818.40948
 20
2564.4662
 11
818.57266
 21
2563.9067
  0
LINE
  8
0-2
  6
CONTINUOUS
 62
    3
 10
818.57266
 20
2563.9067
 11
818.76381
 21
2563.3846
  0
LINE
  8
0-2
  6
CONTINUOUS
 62
    3
 10
818.76381
 20
2563.3846
 11
818.98168
 21
2562.9004
  0
LINE
  8
0-2
  6
CONTINUOUS
 62
    3
 10
818.98168
 20
2562.9004
 11
819.22516
 21
2562.4527
  0
LINE
  8
0-2
  6
CONTINUOUS
 62
    3
 10
819.22516
 20
2562.4527
 11
819.49302
 21
2562.0422
  0
LINE
  8
0-2
  6
CONTINUOUS
 62
    3
 10
819.49302
 20
2562.0422
 11
819.78413
 21
2561.6686
  0
LINE
  8
0-2
  6
CONTINUOUS
 62
    3
 10
819.78413
 20
2561.6686
 11
820.09739
 21
2561.3306
  0
LINE
  8
0-2
  6
CONTINUOUS
 62
    3
 10
820.09739
 20
2561.3306
 11
820.43156
 21
2561.0297
  0
LINE
  8
0-2
  6
CONTINUOUS
 62
    3
 10
820.43156
 20
2561.0297
 11
820.78552
 21
2560.7632
  0
LINE
  8
0-2
  6
CONTINUOUS
 62
    3
 10
820.78552
 20
2560.7632
 11
821.15804
 21
2560.5329
  0
LINE
  8
0-2
  6
CONTINUOUS
 62
    3
 10
821.15804
 20
2560.5329
 11
821.548
 21
2560.3374
  0
LINE
  8
0-2
  6
CONTINUOUS
 62
    3
 10
821.548
 20
2560.3374
 11
821.95411
 21
2560.1773
  0
LINE
  8
0-2
  6
CONTINUOUS
 62
    3
 10
821.95411
 20
2560.1773
 11
822.37544
 21
2560.0511
  0
LINE
  8
0-2
  6
CONTINUOUS
 62
    3
 10
843.49097
 20
2565.0637
 11
843.69368
 21
2564.4375
  0
LINE
  8
0-2
  6
CONTINUOUS
 62
    3
 10
843.69368
 20
2564.4375
 11
843.93104
 21
2563.857
  0
LINE
  8
0-2
  6
CONTINUOUS
 62
    3
 10
843.93104
 20
2563.857
 11
844.20032
 21
2563.322
  0
LINE
  8
0-2
  6
CONTINUOUS
 62
    3
 10
844.20032
 20
2563.322
 11
844.49854
 21
2562.8333
  0
LINE
  8
0-2
  6
CONTINUOUS
 62
    3
 10
844.49854
 20
2562.8333
 11
844.82288
 21
2562.3909
  0
LINE
  8
0-2
  6
CONTINUOUS
 62
    3
 10
844.82288
 20
2562.3909
 11
845.1701
 21
2561.9942
  0
LINE
  8
0-2
  6
CONTINUOUS
 62
    3
 10
845.1701
 20
2561.9942
 11
845.53742
 21
2561.6429
  0
LINE
  8
0-2
  6
CONTINUOUS
 62
    3
 10
845.53742
 20
2561.6429
 11
845.92151
 21
2561.337
  0
LINE
  8
0-2
  6
CONTINUOUS
 62
    3
 10
845.92151
 20
2561.337
 11
846.31921
 21
2561.0752
  0
LINE
  8
0-2
  6
CONTINUOUS
 62
    3
 10
846.31921
 20
2561.0752
 11
846.72717
 21
2560.858
  0
LINE
  8
0-2
  6
CONTINUOUS
 62
    3
 10
846.72717
 20
2560.858
 11
847.14201
 21
2560.6835
  0
LINE
  8
0-2
  6
CONTINUOUS
 62
    3
 10
847.14201
 20
2560.6835
 11
847.56018
 21
2560.5499
  0
LINE
  8
0-2
  6
CONTINUOUS
 62
    3
 10
847.56018
 20
2560.5499
 11
847.97817
 21
2560.4576
  0
LINE
  8
0-2
  6
CONTINUOUS
 62
    3
 10
847.97817
 20
2560.4576
 11
848.3925
 21
2560.4047
  0
LINE
  8
0-2
  6
CONTINUOUS
 62
    3
 10
848.3925
 20
2560.4047
 11
848.79917
 21
2560.3883
  0
LINE
  8
0-2
  6
CONTINUOUS
 62
    3
 10
848.79917
 20
2560.3883
 11
849.19458
 21
2560.4081
  0
LINE
  8
0-2
  6
CONTINUOUS
 62
    3
 10
849.19458
 20
2560.4081
 11
849.57502
 21
2560.4613
  0
LINE
  8
0-2
  6
CONTINUOUS
 62
    3
 10
849.57502
 20
2560.4613
 11
849.93628
 21
2560.5462
  0
LINE
  8
0-2
  6
CONTINUOUS
 62
    3
 10
849.93628
 20
2560.5462
 11
850.27441
 21
2560.6605
  0
LINE
  8
0-2
  6
CONTINUOUS
 62
    3
 10
783.30766
 20
2565.0637
 11
776.66656
 21
2565.0637
  0
LINE
  8
0-2
  6
CONTINUOUS
 62
    3
 10
718.26068
 20
2490.5024
 11
783.30766
 21
2565.0637
  0
LINE
  8
0-2
  6
CONTINUOUS
 62
    3
 10
787.59864
 20
2565.0637
 11
723.59814
 21
2490.5024
  0
LINE
  8
0-2
  6
CONTINUOUS
 62
    3
 10
736.61713
 20
2490.5024
 11
798.06473
 21
2565.0637
  0
LINE
  8
0-2
  6
CONTINUOUS
 62
    3
 10
798.06473
 20
2565.0637
 11
787.59864
 21
2565.0637
  0
LINE
  8
0-2
  6
CONTINUOUS
 62
    3
 10
804.21503
 20
2565.0637
 11
744.26729
 21
2490.5024
  0
LINE
  8
0-2
  6
CONTINUOUS
 62
    3
 10
818.27549
 20
2565.0637
 11
804.21503
 21
2565.0637
  0
LINE
  8
0-2
  6
CONTINUOUS
 62
    3
 10
761.75732
 20
2490.5024
 11
818.27549
 21
2565.0637
  0
LINE
  8
0-2
  6
CONTINUOUS
 62
    3
 10
826.15199
 20
2565.0637
 11
771.55476
 21
2490.5024
  0
LINE
  8
0-2
  6
CONTINUOUS
 62
    3
 10
843.50223
 20
2565.0637
 11
826.15199
 21
2565.0637
  0
LINE
  8
0-2
  6
CONTINUOUS
 62
    3
 10
793.13702
 20
2490.5024
 11
843.50223
 21
2565.0637
  0
LINE
  8
0-2
  6
CONTINUOUS
 62
    3
 10
852.93451
 20
2565.0637
 11
804.86975
 21
2490.5024
  0
LINE
  8
0-2
  6
CONTINUOUS
 62
    3
 10
873.19921
 20
2565.0637
 11
852.93451
 21
2565.0637
  0
LINE
  8
0-2
  6
CONTINUOUS
 62
    3
 10
830.07707
 20
2490.5024
 11
873.19921
 21
2565.0637
  0
LINE
  8
0-2
  6
CONTINUOUS
 62
    3
 10
883.98301
 20
2565.0637
 11
843.49097
 21
2490.5024
  0
LINE
  8
0-2
  6
CONTINUOUS
 62
    3
 10
906.72335
 20
2565.0637
 11
883.98301
 21
2565.0637
  0
LINE
  8
0-2
  6
CONTINUOUS
 62
    3
 10
871.7778
 20
2490.5024
 11
906.72335
 21
2565.0637
  0
LINE
  8
0-2
  6
CONTINUOUS
 62
    3
 10
918.62515
 20
2565.0637
 11
886.58249
 21
2490.5024
  0
LINE
  8
0-2
  6
CONTINUOUS
 62
    3
 10
943.34896
 20
2565.0637
 11
918.62515
 21
2565.0637
  0
LINE
  8
0-2
  6
CONTINUOUS
 62
    3
 10
917.33648
 20
2490.5024
 11
943.34896
 21
2565.0637
  0
LINE
  8
0-2
  6
CONTINUOUS
 62
    3
 10
933.21148
 20
2490.5024
 11
956.11123
 21
2565.0637
  0
LINE
  8
0-2
  6
CONTINUOUS
 62
    3
 10
982.28319
 20
2565.0637
 11
956.11123
 21
2565.0637
  0
LINE
  8
0-2
  6
CONTINUOUS
 62
    3
 10
982.28319
 20
2565.0637
 11
965.76683
 21
2490.5024
  0
LINE
  8
0-2
  6
CONTINUOUS
 62
    3
 10
982.36874
 20
2490.5024
 11
995.62985
 21
2565.0637
  0
LINE
  8
0-2
  6
CONTINUOUS
 62
    3
 10
1022.6834
 20
2565.0637
 11
995.62985
 21
2565.0637
  0
LINE
  8
0-2
  6
CONTINUOUS
 62
    3
 10
1022.6834
 20
2565.0637
 11
1016.0208
 21
2490.5024
  0
LINE
  8
0-2
  6
CONTINUOUS
 62
    3
 10
1036.3252
 20
2565.0637
 11
1032.9899
 21
2490.5024
  0
LINE
  8
0-2
  6
CONTINUOUS
 62
    3
 10
1050
 20
2565.0637
 11
1036.3252
 21
2565.0637
  0
LINE
  8
0-2
  6
CONTINUOUS
 62
    3
 10
1390.0002
 20
2490.5024
 11
1323.3334
 21
2565.0637
  0
LINE
  8
0-2
  6
CONTINUOUS
 62
    3
 10
1109.2314
 20
2558.901
 11
1108.6828
 21
2559.065
  0
LINE
  8
0-2
  6
CONTINUOUS
 62
    3
 10
1108.6828
 20
2559.065
 11
1108.1673
 21
2559.2887
  0
LINE
  8
0-2
  6
CONTINUOUS
 62
    3
 10
1108.1673
 20
2559.2887
 11
1107.6848
 21
2559.5668
  0
LINE
  8
0-2
  6
CONTINUOUS
 62
    3
 10
1107.6848
 20
2559.5668
 11
1107.2344
 21
2559.8959
  0
LINE
  8
0-2
  6
CONTINUOUS
 62
    3
 10
1107.2344
 20
2559.8959
 11
1106.8158
 21
2560.2725
  0
LINE
  8
0-2
  6
CONTINUOUS
 62
    3
 10
1106.8158
 20
2560.2725
 11
1106.4282
 21
2560.691
  0
LINE
  8
0-2
  6
CONTINUOUS
 62
    3
 10
1106.4282
 20
2560.691
 11
1106.0709
 21
2561.1472
  0
LINE
  8
0-2
  6
CONTINUOUS
 62
    3
 10
1106.0709
 20
2561.1472
 11
1105.7432
 21
2561.6384
  0
LINE
  8
0-2
  6
CONTINUOUS
 62
    3
 10
1105.7432
 20
2561.6384
 11
1105.4451
 21
2562.1588
  0
LINE
  8
0-2
  6
CONTINUOUS
 62
    3
 10
1105.4451
 20
2562.1588
 11
1105.1751
 21
2562.7051
  0
LINE
  8
0-2
  6
CONTINUOUS
 62
    3
 10
1105.1751
 20
2562.7051
 11
1104.9336
 21
2563.273
  0
LINE
  8
0-2
  6
CONTINUOUS
 62
    3
 10
1104.9336
 20
2563.273
 11
1104.7192
 21
2563.8582
  0
LINE
  8
0-2
  6
CONTINUOUS
 62
    3
 10
1104.7192
 20
2563.8582
 11
1104.5314
 21
2564.4568
  0
LINE
  8
0-2
  6
CONTINUOUS
 62
    3
 10
1104.5314
 20
2564.4568
 11
1104.3701
 21
2565.0637
  0
LINE
  8
0-2
  6
CONTINUOUS
 62
    3
 10
1112.2455
 20
2558.8681
 11
1112.88
 21
2559.0962
  0
LINE
  8
0-2
  6
CONTINUOUS
 62
    3
 10
1112.88
 20
2559.0962
 11
1113.4752
 21
2559.3654
  0
LINE
  8
0-2
  6
CONTINUOUS
 62
    3
 10
1113.4752
 20
2559.3654
 11
1114.0321
 21
2559.6742
  0
LINE
  8
0-2
  6
CONTINUOUS
 62
    3
 10
1114.0321
 20
2559.6742
 11
1114.5503
 21
2560.0202
  0
LINE
  8
0-2
  6
CONTINUOUS
 62
    3
 10
1114.5503
 20
2560.0202
 11
1115.0304
 21
2560.4007
  0
LINE
  8
0-2
  6
CONTINUOUS
 62
    3
 10
1115.0304
 20
2560.4007
 11
1115.4736
 21
2560.8149
  0
LINE
  8
0-2
  6
CONTINUOUS
 62
    3
 10
1115.4736
 20
2560.8149
 11
1115.8794
 21
2561.2598
  0
LINE
  8
0-2
  6
CONTINUOUS
 62
    3
 10
1115.8794
 20
2561.2598
 11
1116.2483
 21
2561.7337
  0
LINE
  8
0-2
  6
CONTINUOUS
 62
    3
 10
1116.2483
 20
2561.7337
 11
1116.5812
 21
2562.234
  0
LINE
  8
0-2
  6
CONTINUOUS
 62
    3
 10
1116.5812
 20
2562.234
 11
1116.8783
 21
2562.7588
  0
LINE
  8
0-2
  6
CONTINUOUS
 62
    3
 10
1116.8783
 20
2562.7588
 11
1117.14
 21
2563.3067
  0
LINE
  8
0-2
  6
CONTINUOUS
 62
    3
 10
1117.14
 20
2563.3067
 11
1117.3666
 21
2563.8745
  0
LINE
  8
0-2
  6
CONTINUOUS
 62
    3
 10
1117.3666
 20
2563.8745
 11
1117.5586
 21
2564.4612
  0
LINE
  8
0-2
  6
CONTINUOUS
 62
    3
 10
1117.5586
 20
2564.4612
 11
1117.7166
 21
2565.0637
  0
LINE
  8
0-2
  6
CONTINUOUS
 62
    3
 10
1143.8887
 20
2565.0637
 11
1144.5033
 21
2564.0628
  0
LINE
  8
0-2
  6
CONTINUOUS
 62
    3
 10
1144.5033
 20
2564.0628
 11
1145.125
 21
2563.1728
  0
LINE
  8
0-2
  6
CONTINUOUS
 62
    3
 10
1145.125
 20
2563.1728
 11
1145.7515
 21
2562.3867
  0
LINE
  8
0-2
  6
CONTINUOUS
 62
    3
 10
1145.7515
 20
2562.3867
 11
1146.38
 21
2561.699
  0
LINE
  8
0-2
  6
CONTINUOUS
 62
    3
 10
1146.38
 20
2561.699
 11
1147.0085
 21
2561.103
  0
LINE
  8
0-2
  6
CONTINUOUS
 62
    3
 10
1147.0085
 20
2561.103
 11
1147.6344
 21
2560.5935
  0
LINE
  8
0-2
  6
CONTINUOUS
 62
    3
 10
1147.6344
 20
2560.5935
 11
1148.2554
 21
2560.1637
  0
LINE
  8
0-2
  6
CONTINUOUS
 62
    3
 10
1148.2554
 20
2560.1637
 11
1148.8685
 21
2559.8071
  0
LINE
  8
0-2
  6
CONTINUOUS
 62
    3
 10
1148.8685
 20
2559.8071
 11
1149.4718
 21
2559.5179
  0
LINE
  8
0-2
  6
CONTINUOUS
 62
    3
 10
1149.4718
 20
2559.5179
 11
1150.0627
 21
2559.2902
  0
LINE
  8
0-2
  6
CONTINUOUS
 62
    3
 10
1150.0627
 20
2559.2902
 11
1150.6387
 21
2559.1175
  0
LINE
  8
0-2
  6
CONTINUOUS
 62
    3
 10
1150.6387
 20
2559.1175
 11
1151.1972
 21
2558.9935
  0
LINE
  8
0-2
  6
CONTINUOUS
 62
    3
 10
1151.1972
 20
2558.9935
 11
1151.7364
 21
2558.9124
  0
LINE
  8
0-2
  6
CONTINUOUS
 62
    3
 10
1151.7364
 20
2558.9124
 11
1152.253
 21
2558.8681
  0
LINE
  8
0-2
  6
CONTINUOUS
 62
    3
 10
1156.6512
 20
2565.0637
 11
1156.6327
 21
2564.3439
  0
LINE
  8
0-2
  6
CONTINUOUS
 62
    3
 10
1156.6327
 20
2564.3439
 11
1156.5769
 21
2563.6783
  0
LINE
  8
0-2
  6
CONTINUOUS
 62
    3
 10
1156.5769
 20
2563.6783
 11
1156.4823
 21
2563.0649
  0
LINE
  8
0-2
  6
CONTINUOUS
 62
    3
 10
1156.4823
 20
2563.0649
 11
1156.3459
 21
2562.4998
  0
LINE
  8
0-2
  6
CONTINUOUS
 62
    3
 10
1156.3459
 20
2562.4998
 11
1156.1665
 21
2561.9804
  0
LINE
  8
0-2
  6
CONTINUOUS
 62
    3
 10
1156.1665
 20
2561.9804
 11
1155.9414
 21
2561.5041
  0
LINE
  8
0-2
  6
CONTINUOUS
 62
    3
 10
1155.9414
 20
2561.5041
 11
1155.6687
 21
2561.0673
  0
LINE
  8
0-2
  6
CONTINUOUS
 62
    3
 10
1155.6687
 20
2561.0673
 11
1155.3463
 21
2560.667
  0
LINE
  8
0-2
  6
CONTINUOUS
 62
    3
 10
1155.3463
 20
2560.667
 11
1154.9721
 21
2560.3005
  0
LINE
  8
0-2
  6
CONTINUOUS
 62
    3
 10
1154.9721
 20
2560.3005
 11
1154.5443
 21
2559.9647
  0
LINE
  8
0-2
  6
CONTINUOUS
 62
    3
 10
1154.5443
 20
2559.9647
 11
1154.0605
 21
2559.6567
  0
LINE
  8
0-2
  6
CONTINUOUS
 62
    3
 10
1154.0605
 20
2559.6567
 11
1153.5189
 21
2559.3729
  0
LINE
  8
0-2
  6
CONTINUOUS
 62
    3
 10
1153.5189
 20
2559.3729
 11
1152.9168
 21
2559.1108
  0
LINE
  8
0-2
  6
CONTINUOUS
 62
    3
 10
1152.9168
 20
2559.1108
 11
1152.253
 21
2558.8681
  0
LINE
  8
0-2
  6
CONTINUOUS
 62
    3
 10
1193.2767
 20
2565.0637
 11
1192.9631
 21
2564.2185
  0
LINE
  8
0-2
  6
CONTINUOUS
 62
    3
 10
1192.9631
 20
2564.2185
 11
1192.6368
 21
2563.4509
  0
LINE
  8
0-2
  6
CONTINUOUS
 62
    3
 10
1192.6368
 20
2563.4509
 11
1192.2977
 21
2562.7588
  0
LINE
  8
0-2
  6
CONTINUOUS
 62
    3
 10
1192.2977
 20
2562.7588
 11
1191.946
 21
2562.1373
  0
LINE
  8
0-2
  6
CONTINUOUS
 62
    3
 10
1191.946
 20
2562.1373
 11
1191.5826
 21
2561.5835
  0
LINE
  8
0-2
  6
CONTINUOUS
 62
    3
 10
1191.5826
 20
2561.5835
 11
1191.2072
 21
2561.0931
  0
LINE
  8
0-2
  6
CONTINUOUS
 62
    3
 10
1191.2072
 20
2561.0931
 11
1190.8206
 21
2560.662
  0
LINE
  8
0-2
  6
CONTINUOUS
 62
    3
 10
1190.8206
 20
2560.662
 11
1190.4227
 21
2560.2871
  0
LINE
  8
0-2
  6
CONTINUOUS
 62
    3
 10
1190.4227
 20
2560.2871
 11
1190.0145
 21
2559.964
  0
LINE
  8
0-2
  6
CONTINUOUS
 62
    3
 10
1190.0145
 20
2559.964
 11
1189.5957
 21
2559.6898
  0
LINE
  8
0-2
  6
CONTINUOUS
 62
    3
 10
1189.5957
 20
2559.6898
 11
1189.1667
 21
2559.46
  0
LINE
  8
0-2
  6
CONTINUOUS
 62
    3
 10
1189.1667
 20
2559.46
 11
1188.7278
 21
2559.2709
  0
LINE
  8
0-2
  6
CONTINUOUS
 62
    3
 10
1188.7278
 20
2559.2709
 11
1188.2795
 21
2559.119
  0
LINE
  8
0-2
  6
CONTINUOUS
 62
    3
 10
1188.2795
 20
2559.119
 11
1187.8223
 21
2559.0002
  0
LINE
  8
0-2
  6
CONTINUOUS
 62
    3
 10
1186.8167
 20
2559.0002
 11
1186.34
 21
2559.1012
  0
LINE
  8
0-2
  6
CONTINUOUS
 62
    3
 10
1186.34
 20
2559.1012
 11
1185.8669
 21
2559.263
  0
LINE
  8
0-2
  6
CONTINUOUS
 62
    3
 10
1185.8669
 20
2559.263
 11
1185.3978
 21
2559.4835
  0
LINE
  8
0-2
  6
CONTINUOUS
 62
    3
 10
1185.3978
 20
2559.4835
 11
1184.9322
 21
2559.7643
  0
LINE
  8
0-2
  6
CONTINUOUS
 62
    3
 10
1184.9322
 20
2559.7643
 11
1184.4708
 21
2560.1048
  0
LINE
  8
0-2
  6
CONTINUOUS
 62
    3
 10
1184.4708
 20
2560.1048
 11
1184.013
 21
2560.5049
  0
LINE
  8
0-2
  6
CONTINUOUS
 62
    3
 10
1184.013
 20
2560.5049
 11
1183.5594
 21
2560.9654
  0
LINE
  8
0-2
  6
CONTINUOUS
 62
    3
 10
1183.5594
 20
2560.9654
 11
1183.1094
 21
2561.4857
  0
LINE
  8
0-2
  6
CONTINUOUS
 62
    3
 10
1183.1094
 20
2561.4857
 11
1182.6635
 21
2562.065
  0
LINE
  8
0-2
  6
CONTINUOUS
 62
    3
 10
1226.8007
 20
2565.0637
 11
1226.7102
 21
2564.4191
  0
LINE
  8
0-2
  6
CONTINUOUS
 62
    3
 10
1226.7102
 20
2564.4191
 11
1226.5812
 21
2563.8191
  0
LINE
  8
0-2
  6
CONTINUOUS
 62
    3
 10
1226.5812
 20
2563.8191
 11
1226.4178
 21
2563.2616
  0
LINE
  8
0-2
  6
CONTINUOUS
 62
    3
 10
1226.4178
 20
2563.2616
 11
1226.2218
 21
2562.7455
  0
LINE
  8
0-2
  6
CONTINUOUS
 62
    3
 10
1226.2218
 20
2562.7455
 11
1225.997
 21
2562.2679
  0
LINE
  8
0-2
  6
CONTINUOUS
 62
    3
 10
1225.997
 20
2562.2679
 11
1225.7453
 21
2561.8282
  0
LINE
  8
0-2
  6
CONTINUOUS
 62
    3
 10
1225.7453
 20
2561.8282
 11
1225.4697
 21
2561.4244
  0
LINE
  8
0-2
  6
CONTINUOUS
 62
    3
 10
1225.4697
 20
2561.4244
 11
1225.1728
 21
2561.0554
  0
LINE
  8
0-2
  6
CONTINUOUS
 62
    3
 10
1225.1728
 20
2561.0554
 11
1224.8561
 21
2560.7197
  0
LINE
  8
0-2
  6
CONTINUOUS
 62
    3
 10
1224.8561
 20
2560.7197
 11
1224.5223
 21
2560.4163
  0
LINE
  8
0-2
  6
CONTINUOUS
 62
    3
 10
1224.5223
 20
2560.4163
 11
1224.173
 21
2560.1444
  0
LINE
  8
0-2
  6
CONTINUOUS
 62
    3
 10
1224.173
 20
2560.1444
 11
1223.8103
 21
2559.9029
  0
LINE
  8
0-2
  6
CONTINUOUS
 62
    3
 10
1223.8103
 20
2559.9029
 11
1223.4355
 21
2559.6901
  0
LINE
  8
0-2
  6
CONTINUOUS
 62
    3
 10
1223.4355
 20
2559.6901
 11
1223.0501
 21
2559.5065
  0
LINE
  8
0-2
  6
CONTINUOUS
 62
    3
 10
1223.0501
 20
2559.5065
 11
1222.6556
 21
2559.3506
  0
LINE
  8
0-2
  6
CONTINUOUS
 62
    3
 10
1222.6556
 20
2559.3506
 11
1222.253
 21
2559.2224
  0
LINE
  8
0-2
  6
CONTINUOUS
 62
    3
 10
1222.253
 20
2559.2224
 11
1221.8436
 21
2559.1215
  0
LINE
  8
0-2
  6
CONTINUOUS
 62
    3
 10
1221.8436
 20
2559.1215
 11
1221.4279
 21
2559.0477
  0
LINE
  8
0-2
  6
CONTINUOUS
 62
    3
 10
1221.4279
 20
2559.0477
 11
1221.0072
 21
2559.0002
  0
LINE
  8
0-2
  6
CONTINUOUS
 62
    3
 10
1220.9009
 20
2559.0057
 11
1220.6638
 21
2559.0319
  0
LINE
  8
0-2
  6
CONTINUOUS
 62
    3
 10
1220.6638
 20
2559.0319
 11
1220.4309
 21
2559.0695
  0
LINE
  8
0-2
  6
CONTINUOUS
 62
    3
 10
1220.4309
 20
2559.0695
 11
1220.202
 21
2559.119
  0
LINE
  8
0-2
  6
CONTINUOUS
 62
    3
 10
1220.202
 20
2559.119
 11
1219.9773
 21
2559.1794
  0
LINE
  8
0-2
  6
CONTINUOUS
 62
    3
 10
1219.9773
 20
2559.1794
 11
1219.7566
 21
2559.2511
  0
LINE
  8
0-2
  6
CONTINUOUS
 62
    3
 10
1219.7566
 20
2559.2511
 11
1219.54
 21
2559.3345
  0
LINE
  8
0-2
  6
CONTINUOUS
 62
    3
 10
1219.54
 20
2559.3345
 11
1219.3275
 21
2559.4293
  0
LINE
  8
0-2
  6
CONTINUOUS
 62
    3
 10
1219.3275
 20
2559.4293
 11
1219.1192
 21
2559.5357
  0
LINE
  8
0-2
  6
CONTINUOUS
 62
    3
 10
1219.1192
 20
2559.5357
 11
1218.9146
 21
2559.6532
  0
LINE
  8
0-2
  6
CONTINUOUS
 62
    3
 10
1316.6924
 20
2565.0637
 11
1316.6112
 21
2564.386
  0
LINE
  8
0-2
  6
CONTINUOUS
 62
    3
 10
1316.6112
 20
2564.386
 11
1316.5254
 21
2563.7659
  0
LINE
  8
0-2
  6
CONTINUOUS
 62
    3
 10
1316.5254
 20
2563.7659
 11
1316.4351
 21
2563.2052
  0
LINE
  8
0-2
  6
CONTINUOUS
 62
    3
 10
1316.4351
 20
2563.2052
 11
1316.3395
 21
2562.7022
  0
LINE
  8
0-2
  6
CONTINUOUS
 62
    3
 10
1316.3395
 20
2562.7022
 11
1316.2396
 21
2562.2585
  0
LINE
  8
0-2
  6
CONTINUOUS
 62
    3
 10
1316.2396
 20
2562.2585
 11
1316.1349
 21
2561.8727
  0
LINE
  8
0-2
  6
CONTINUOUS
 62
    3
 10
1316.1349
 20
2561.8727
 11
1316.0255
 21
2561.5454
  0
LINE
  8
0-2
  6
CONTINUOUS
 62
    3
 10
1316.0255
 20
2561.5454
 11
1315.9115
 21
2561.2772
  0
LINE
  8
0-2
  6
CONTINUOUS
 62
    3
 10
1315.9115
 20
2561.2772
 11
1315.7927
 21
2561.0673
  0
LINE
  8
0-2
  6
CONTINUOUS
 62
    3
 10
1301.9353
 20
2565.0637
 11
1301.8905
 21
2564.527
  0
LINE
  8
0-2
  6
CONTINUOUS
 62
    3
 10
1301.8905
 20
2564.527
 11
1301.8163
 21
2564.0193
  0
LINE
  8
0-2
  6
CONTINUOUS
 62
    3
 10
1301.8163
 20
2564.0193
 11
1301.7158
 21
2563.5407
  0
LINE
  8
0-2
  6
CONTINUOUS
 62
    3
 10
1301.7158
 20
2563.5407
 11
1301.5926
 21
2563.0914
  0
LINE
  8
0-2
  6
CONTINUOUS
 62
    3
 10
1301.5926
 20
2563.0914
 11
1301.4484
 21
2562.672
  0
LINE
  8
0-2
  6
CONTINUOUS
 62
    3
 10
1301.4484
 20
2562.672
 11
1301.2868
 21
2562.2827
  0
LINE
  8
0-2
  6
CONTINUOUS
 62
    3
 10
1301.2868
 20
2562.2827
 11
1301.1106
 21
2561.9225
  0
LINE
  8
0-2
  6
CONTINUOUS
 62
    3
 10
1301.1106
 20
2561.9225
 11
1300.9226
 21
2561.5931
  0
LINE
  8
0-2
  6
CONTINUOUS
 62
    3
 10
1300.9226
 20
2561.5931
 11
1300.7256
 21
2561.293
  0
LINE
  8
0-2
  6
CONTINUOUS
 62
    3
 10
1300.7256
 20
2561.293
 11
1300.5228
 21
2561.024
  0
LINE
  8
0-2
  6
CONTINUOUS
 62
    3
 10
1300.5228
 20
2561.024
 11
1300.3163
 21
2560.7857
  0
LINE
  8
0-2
  6
CONTINUOUS
 62
    3
 10
1300.3163
 20
2560.7857
 11
1300.11
 21
2560.5776
  0
LINE
  8
0-2
  6
CONTINUOUS
 62
    3
 10
1300.11
 20
2560.5776
 11
1299.9061
 21
2560.4005
  0
LINE
  8
0-2
  6
CONTINUOUS
 62
    3
 10
1299.9061
 20
2560.4005
 11
1299.7076
 21
2560.2542
  0
LINE
  8
0-2
  6
CONTINUOUS
 62
    3
 10
1281.7247
 20
2565.0637
 11
1281.5906
 21
2564.4662
  0
LINE
  8
0-2
  6
CONTINUOUS
 62
    3
 10
1281.5906
 20
2564.4662
 11
1281.4274
 21
2563.9067
  0
LINE
  8
0-2
  6
CONTINUOUS
 62
    3
 10
1281.4274
 20
2563.9067
 11
1281.2362
 21
2563.3846
  0
LINE
  8
0-2
  6
CONTINUOUS
 62
    3
 10
1281.2362
 20
2563.3846
 11
1281.0185
 21
2562.9004
  0
LINE
  8
0-2
  6
CONTINUOUS
 62
    3
 10
1281.0185
 20
2562.9004
 11
1280.7749
 21
2562.4527
  0
LINE
  8
0-2
  6
CONTINUOUS
 62
    3
 10
1280.7749
 20
2562.4527
 11
1280.507
 21
2562.0422
  0
LINE
  8
0-2
  6
CONTINUOUS
 62
    3
 10
1280.507
 20
2562.0422
 11
1280.2159
 21
2561.6686
  0
LINE
  8
0-2
  6
CONTINUOUS
 62
    3
 10
1280.2159
 20
2561.6686
 11
1279.9027
 21
2561.3306
  0
LINE
  8
0-2
  6
CONTINUOUS
 62
    3
 10
1279.9027
 20
2561.3306
 11
1279.5685
 21
2561.0297
  0
LINE
  8
0-2
  6
CONTINUOUS
 62
    3
 10
1279.5685
 20
2561.0297
 11
1279.2147
 21
2560.7632
  0
LINE
  8
0-2
  6
CONTINUOUS
 62
    3
 10
1279.2147
 20
2560.7632
 11
1278.842
 21
2560.5329
  0
LINE
  8
0-2
  6
CONTINUOUS
 62
    3
 10
1278.842
 20
2560.5329
 11
1278.452
 21
2560.3374
  0
LINE
  8
0-2
  6
CONTINUOUS
 62
    3
 10
1278.452
 20
2560.3374
 11
1278.0458
 21
2560.1773
  0
LINE
  8
0-2
  6
CONTINUOUS
 62
    3
 10
1278.0458
 20
2560.1773
 11
1277.6246
 21
2560.0511
  0
LINE
  8
0-2
  6
CONTINUOUS
 62
    3
 10
1256.5091
 20
2565.0637
 11
1256.3064
 21
2564.4375
  0
LINE
  8
0-2
  6
CONTINUOUS
 62
    3
 10
1256.3064
 20
2564.4375
 11
1256.069
 21
2563.857
  0
LINE
  8
0-2
  6
CONTINUOUS
 62
    3
 10
1256.069
 20
2563.857
 11
1255.7998
 21
2563.322
  0
LINE
  8
0-2
  6
CONTINUOUS
 62
    3
 10
1255.7998
 20
2563.322
 11
1255.5015
 21
2562.8333
  0
LINE
  8
0-2
  6
CONTINUOUS
 62
    3
 10
1255.5015
 20
2562.8333
 11
1255.1772
 21
2562.3909
  0
LINE
  8
0-2
  6
CONTINUOUS
 62
    3
 10
1255.1772
 20
2562.3909
 11
1254.83
 21
2561.9942
  0
LINE
  8
0-2
  6
CONTINUOUS
 62
    3
 10
1254.83
 20
2561.9942
 11
1254.4626
 21
2561.6429
  0
LINE
  8
0-2
  6
CONTINUOUS
 62
    3
 10
1254.4626
 20
2561.6429
 11
1254.0785
 21
2561.337
  0
LINE
  8
0-2
  6
CONTINUOUS
 62
    3
 10
1254.0785
 20
2561.337
 11
1253.6807
 21
2561.0752
  0
LINE
  8
0-2
  6
CONTINUOUS
 62
    3
 10
1253.6807
 20
2561.0752
 11
1253.2728
 21
2560.858
  0
LINE
  8
0-2
  6
CONTINUOUS
 62
    3
 10
1253.2728
 20
2560.858
 11
1252.8582
 21
2560.6835
  0
LINE
  8
0-2
  6
CONTINUOUS
 62
    3
 10
1252.8582
 20
2560.6835
 11
1252.4397
 21
2560.5499
  0
LINE
  8
0-2
  6
CONTINUOUS
 62
    3
 10
1252.4397
 20
2560.5499
 11
1252.0218
 21
2560.4576
  0
LINE
  8
0-2
  6
CONTINUOUS
 62
    3
 10
1252.0218
 20
2560.4576
 11
1251.6077
 21
2560.4047
  0
LINE
  8
0-2
  6
CONTINUOUS
 62
    3
 10
1251.6077
 20
2560.4047
 11
1251.2009
 21
2560.3883
  0
LINE
  8
0-2
  6
CONTINUOUS
 62
    3
 10
1251.2009
 20
2560.3883
 11
1250.8053
 21
2560.4081
  0
LINE
  8
0-2
  6
CONTINUOUS
 62
    3
 10
1250.8053
 20
2560.4081
 11
1250.425
 21
2560.4613
  0
LINE
  8
0-2
  6
CONTINUOUS
 62
    3
 10
1250.425
 20
2560.4613
 11
1250.0638
 21
2560.5462
  0
LINE
  8
0-2
  6
CONTINUOUS
 62
    3
 10
1250.0638
 20
2560.5462
 11
1249.7256
 21
2560.6605
  0
LINE
  8
0-2
  6
CONTINUOUS
 62
    3
 10
1316.6924
 20
2565.0637
 11
1323.3334
 21
2565.0637
  0
LINE
  8
0-2
  6
CONTINUOUS
 62
    3
 10
1381.7394
 20
2490.5024
 11
1316.6924
 21
2565.0637
  0
LINE
  8
0-2
  6
CONTINUOUS
 62
    3
 10
1312.4015
 20
2565.0637
 11
1376.4018
 21
2490.5024
  0
LINE
  8
0-2
  6
CONTINUOUS
 62
    3
 10
1363.383
 20
2490.5024
 11
1301.9353
 21
2565.0637
  0
LINE
  8
0-2
  6
CONTINUOUS
 62
    3
 10
1301.9353
 20
2565.0637
 11
1312.4015
 21
2565.0637
  0
LINE
  8
0-2
  6
CONTINUOUS
 62
    3
 10
1295.7852
 20
2565.0637
 11
1355.7327
 21
2490.5024
  0
LINE
  8
0-2
  6
CONTINUOUS
 62
    3
 10
1281.7247
 20
2565.0637
 11
1295.7852
 21
2565.0637
  0
LINE
  8
0-2
  6
CONTINUOUS
 62
    3
 10
1338.2427
 20
2490.5024
 11
1281.7247
 21
2565.0637
  0
LINE
  8
0-2
  6
CONTINUOUS
 62
    3
 10
1273.8481
 20
2565.0637
 11
1328.445
 21
2490.5024
  0
LINE
  8
0-2
  6
CONTINUOUS
 62
    3
 10
1256.4977
 20
2565.0637
 11
1273.8481
 21
2565.0637
  0
LINE
  8
0-2
  6
CONTINUOUS
 62
    3
 10
1306.8631
 20
2490.5024
 11
1256.4977
 21
2565.0637
  0
LINE
  8
0-2
  6
CONTINUOUS
 62
    3
 10
1247.0657
 20
2565.0637
 11
1295.1305
 21
2490.5024
  0
LINE
  8
0-2
  6
CONTINUOUS
 62
    3
 10
1226.8007
 20
2565.0637
 11
1247.0657
 21
2565.0637
  0
LINE
  8
0-2
  6
CONTINUOUS
 62
    3
 10
1269.9228
 20
2490.5024
 11
1226.8007
 21
2565.0637
  0
LINE
  8
0-2
  6
CONTINUOUS
 62
    3
 10
1216.0169
 20
2565.0637
 11
1256.5091
 21
2490.5024
  0
LINE
  8
0-2
  6
CONTINUOUS
 62
    3
 10
1193.2767
 20
2565.0637
 11
1216.0169
 21
2565.0637
  0
LINE
  8
0-2
  6
CONTINUOUS
 62
    3
 10
1228.2223
 20
2490.5024
 11
1193.2767
 21
2565.0637
  0
LINE
  8
0-2
  6
CONTINUOUS
 62
    3
 10
1181.3748
 20
2565.0637
 11
1213.4174
 21
2490.5024
  0
LINE
  8
0-2
  6
CONTINUOUS
 62
    3
 10
1156.6512
 20
2565.0637
 11
1181.3748
 21
2565.0637
  0
LINE
  8
0-2
  6
CONTINUOUS
 62
    3
 10
1182.6635
 20
2490.5024
 11
1156.6512
 21
2565.0637
  0
LINE
  8
0-2
  6
CONTINUOUS
 62
    3
 10
1166.7886
 20
2490.5024
 11
1143.8887
 21
2565.0637
  0
LINE
  8
0-2
  6
CONTINUOUS
 62
    3
 10
1117.7166
 20
2565.0637
 11
1143.8887
 21
2565.0637
  0
LINE
  8
0-2
  6
CONTINUOUS
 62
    3
 10
1117.7166
 20
2565.0637
 11
1134.2331
 21
2490.5024
  0
LINE
  8
0-2
  6
CONTINUOUS
 62
    3
 10
1117.6312
 20
2490.5024
 11
1104.3701
 21
2565.0637
  0
LINE
  8
0-2
  6
CONTINUOUS
 62
    3
 10
1077.3165
 20
2565.0637
 11
1104.3701
 21
2565.0637
  0
LINE
  8
0-2
  6
CONTINUOUS
 62
    3
 10
1077.3165
 20
2565.0637
 11
1083.9791
 21
2490.5024
  0
LINE
  8
0-2
  6
CONTINUOUS
 62
    3
 10
1063.6746
 20
2565.0637
 11
1067.01
 21
2490.5024
  0
LINE
  8
0-2
  6
CONTINUOUS
 62
    3
 10
1050
 20
2565.0637
 11
1063.6746
 21
2565.0637
  0
LINE
  8
0-2
  6
CONTINUOUS
 62
    3
 10
1016.0208
 20
2386.1165
 11
1016.0208
 21
2177.3446
  0
LINE
  8
0-2
  6
CONTINUOUS
 62
    3
 10
982.3688
 20
2386.1165
 11
982.3688
 21
2177.3446
  0
LINE
  8
0-2
  6
CONTINUOUS
 62
    3
 10
917.33648
 20
2386.1165
 11
917.33648
 21
2177.3446
  0
LINE
  8
0-2
  6
CONTINUOUS
 62
    3
 10
886.58249
 20
2386.1165
 11
886.58249
 21
2177.3446
  0
LINE
  8
0-2
  6
CONTINUOUS
 62
    3
 10
830.07707
 20
2386.1165
 11
830.07707
 21
2177.3446
  0
LINE
  8
0-2
  6
CONTINUOUS
 62
    3
 10
804.86975
 20
2386.1165
 11
804.86975
 21
2177.3446
  0
LINE
  8
0-2
  6
CONTINUOUS
 62
    3
 10
761.75732
 20
2386.1165
 11
761.75732
 21
2177.3446
  0
LINE
  8
0-2
  6
CONTINUOUS
 62
    3
 10
982.3688
 20
2177.3446
 11
917.33648
 21
2195.4193
  0
LINE
  8
0-2
  6
CONTINUOUS
 62
    3
 10
804.86975
 20
2177.3446
 11
761.75732
 21
2195.4193
  0
LINE
  8
0-2
  6
CONTINUOUS
 62
    3
 10
841.48361
 20
2386.1165
 11
841.48361
 21
2177.3446
  0
LINE
  8
0-2
  6
CONTINUOUS
 62
    3
 10
854.81691
 20
2386.1165
 11
854.81691
 21
2177.3446
  0
LINE
  8
0-2
  6
CONTINUOUS
 62
    3
 10
886.58249
 20
2177.3446
 11
854.81691
 21
2187.5054
  0
LINE
  8
0-2
  6
CONTINUOUS
 62
    3
 10
841.48361
 20
2191.7708
 11
830.07713
 21
2195.4193
  0
LINE
  8
0-2
  6
CONTINUOUS
 62
    3
 10
710.00002
 20
2087.8706
 11
710.00002
 21
2162.4331
  0
LINE
  8
0-2
  6
CONTINUOUS
 62
    3
 10
1083.9791
 20
2386.1165
 11
1083.9791
 21
2177.3446
  0
LINE
  8
0-2
  6
CONTINUOUS
 62
    3
 10
1117.6312
 20
2386.1165
 11
1117.6312
 21
2177.3446
  0
LINE
  8
0-2
  6
CONTINUOUS
 62
    3
 10
1182.6635
 20
2386.1165
 11
1182.6635
 21
2177.3446
  0
LINE
  8
0-2
  6
CONTINUOUS
 62
    3
 10
1213.4174
 20
2386.1165
 11
1213.4174
 21
2177.3446
  0
LINE
  8
0-2
  6
CONTINUOUS
 62
    3
 10
1269.9228
 20
2386.1165
 11
1269.9228
 21
2177.3446
  0
LINE
  8
0-2
  6
CONTINUOUS
 62
    3
 10
1295.1305
 20
2386.1165
 11
1295.1305
 21
2177.3446
  0
LINE
  8
0-2
  6
CONTINUOUS
 62
    3
 10
1338.2427
 20
2386.1165
 11
1338.2427
 21
2177.3446
  0
LINE
  8
0-2
  6
CONTINUOUS
 62
    3
 10
1258.5166
 20
2386.1165
 11
1258.5166
 21
2177.3446
  0
LINE
  8
0-2
  6
CONTINUOUS
 62
    3
 10
1245.1831
 20
2386.1165
 11
1245.1831
 21
2177.3446
  0
LINE
  8
0-2
  6
CONTINUOUS
 62
    3
 10
1117.6312
 20
2195.4193
 11
1182.6635
 21
2177.3446
  0
LINE
  8
0-2
  6
CONTINUOUS
 62
    3
 10
1083.9791
 20
2177.3446
 11
1016.0208
 21
2195.4193
  0
LINE
  8
0-2
  6
CONTINUOUS
 62
    3
 10
710.00002
 20
2072.9581
 11
1390.0009
 21
2072.9581
  0
LINE
  8
0-2
  6
CONTINUOUS
 62
    3
 10
1389.9999
 20
2072.9581
 11
1323.3334
 21
1998.3968
  0
LINE
  8
0-2
  6
CONTINUOUS
 62
    3
 10
710.00002
 20
2072.9581
 11
776.66656
 21
1998.3968
  0
LINE
  8
0-2
  6
CONTINUOUS
 62
    3
 10
990.76852
 20
2004.5597
 11
991.31722
 21
2004.3954
  0
LINE
  8
0-2
  6
CONTINUOUS
 62
    3
 10
991.31722
 20
2004.3954
 11
991.83263
 21
2004.1722
  0
LINE
  8
0-2
  6
CONTINUOUS
 62
    3
 10
991.83263
 20
2004.1722
 11
992.31514
 21
2003.8936
  0
LINE
  8
0-2
  6
CONTINUOUS
 62
    3
 10
992.31514
 20
2003.8936
 11
992.76548
 21
2003.5645
  0
LINE
  8
0-2
  6
CONTINUOUS
 62
    3
 10
992.76548
 20
2003.5645
 11
993.18427
 21
2003.1884
  0
LINE
  8
0-2
  6
CONTINUOUS
 62
    3
 10
993.18427
 20
2003.1884
 11
993.57189
 21
2002.7699
  0
LINE
  8
0-2
  6
CONTINUOUS
 62
    3
 10
993.57189
 20
2002.7699
 11
993.92919
 21
2002.3132
  0
LINE
  8
0-2
  6
CONTINUOUS
 62
    3
 10
993.92919
 20
2002.3132
 11
994.2568
 21
2001.8225
  0
LINE
  8
0-2
  6
CONTINUOUS
 62
    3
 10
994.2568
 20
2001.8225
 11
994.55509
 21
2001.3019
  0
LINE
  8
0-2
  6
CONTINUOUS
 62
    3
 10
994.55509
 20
2001.3019
 11
994.82486
 21
2000.7558
  0
LINE
  8
0-2
  6
CONTINUOUS
 62
    3
 10
994.82486
 20
2000.7558
 11
995.06655
 21
2000.1875
  0
LINE
  8
0-2
  6
CONTINUOUS
 62
    3
 10
995.06655
 20
2000.1875
 11
995.28089
 21
1999.6023
  0
LINE
  8
0-2
  6
CONTINUOUS
 62
    3
 10
995.28089
 20
1999.6023
 11
995.46845
 21
1999.0043
  0
LINE
  8
0-2
  6
CONTINUOUS
 62
    3
 10
995.46845
 20
1999.0043
 11
995.62985
 21
1998.3968
  0
LINE
  8
0-2
  6
CONTINUOUS
 62
    3
 10
987.75458
 20
2004.5928
 11
987.12008
 21
2004.3647
  0
LINE
  8
0-2
  6
CONTINUOUS
 62
    3
 10
987.12008
 20
2004.3647
 11
986.52474
 21
2004.095
  0
LINE
  8
0-2
  6
CONTINUOUS
 62
    3
 10
986.52474
 20
2004.095
 11
985.968
 21
2003.7867
  0
LINE
  8
0-2
  6
CONTINUOUS
 62
    3
 10
985.968
 20
2003.7867
 11
985.4498
 21
2003.4405
  0
LINE
  8
0-2
  6
CONTINUOUS
 62
    3
 10
985.4498
 20
2003.4405
 11
984.9694
 21
2003.0597
  0
LINE
  8
0-2
  6
CONTINUOUS
 62
    3
 10
984.9694
 20
2003.0597
 11
984.52648
 21
2002.6457
  0
LINE
  8
0-2
  6
CONTINUOUS
 62
    3
 10
984.52648
 20
2002.6457
 11
984.1208
 21
2002.2006
  0
LINE
  8
0-2
  6
CONTINUOUS
 62
    3
 10
984.1208
 20
2002.2006
 11
983.75168
 21
2001.7272
  0
LINE
  8
0-2
  6
CONTINUOUS
 62
    3
 10
983.75168
 20
2001.7272
 11
983.41869
 21
2001.2269
  0
LINE
  8
0-2
  6
CONTINUOUS
 62
    3
 10
983.41869
 20
2001.2269
 11
983.1217
 21
2000.7018
  0
LINE
  8
0-2
  6
CONTINUOUS
 62
    3
 10
983.1217
 20
2000.7018
 11
982.86009
 21
2000.1541
  0
LINE
  8
0-2
  6
CONTINUOUS
 62
    3
 10
982.86009
 20
2000.1541
 11
982.63332
 21
1999.5862
  0
LINE
  8
0-2
  6
CONTINUOUS
 62
    3
 10
982.63332
 20
1999.5862
 11
982.44124
 21
1998.9998
  0
LINE
  8
0-2
  6
CONTINUOUS
 62
    3
 10
982.44124
 20
1998.9998
 11
982.28319
 21
1998.3968
  0
LINE
  8
0-2
  6
CONTINUOUS
 62
    3
 10
956.11123
 20
1998.3968
 11
955.49659
 21
1999.3979
  0
LINE
  8
0-2
  6
CONTINUOUS
 62
    3
 10
955.49659
 20
1999.3979
 11
954.8749
 21
2000.2882
  0
LINE
  8
0-2
  6
CONTINUOUS
 62
    3
 10
954.8749
 20
2000.2882
 11
954.24844
 21
2001.0742
  0
LINE
  8
0-2
  6
CONTINUOUS
 62
    3
 10
954.24844
 20
2001.0742
 11
953.61976
 21
2001.7619
  0
LINE
  8
0-2
  6
CONTINUOUS
 62
    3
 10
953.61976
 20
2001.7619
 11
952.99138
 21
2002.3575
  0
LINE
  8
0-2
  6
CONTINUOUS
 62
    3
 10
952.99138
 20
2002.3575
 11
952.36549
 21
2002.8672
  0
LINE
  8
0-2
  6
CONTINUOUS
 62
    3
 10
952.36549
 20
2002.8672
 11
951.74478
 21
2003.2972
  0
LINE
  8
0-2
  6
CONTINUOUS
 62
    3
 10
951.74478
 20
2003.2972
 11
951.1315
 21
2003.6538
  0
LINE
  8
0-2
  6
CONTINUOUS
 62
    3
 10
951.1315
 20
2003.6538
 11
950.52824
 21
2003.9428
  0
LINE
  8
0-2
  6
CONTINUOUS
 62
    3
 10
950.52824
 20
2003.9428
 11
949.93736
 21
2004.1704
  0
LINE
  8
0-2
  6
CONTINUOUS
 62
    3
 10
949.93736
 20
2004.1704
 11
949.36132
 21
2004.3434
  0
LINE
  8
0-2
  6
CONTINUOUS
 62
    3
 10
949.36132
 20
2004.3434
 11
948.80272
 21
2004.4671
  0
LINE
  8
0-2
  6
CONTINUOUS
 62
    3
 10
948.80272
 20
2004.4671
 11
948.26368
 21
2004.5485
  0
LINE
  8
0-2
  6
CONTINUOUS
 62
    3
 10
948.26368
 20
2004.5485
 11
947.74696
 21
2004.5928
  0
LINE
  8
0-2
  6
CONTINUOUS
 62
    3
 10
943.34896
 20
1998.3968
 11
943.3674
 21
1999.1169
  0
LINE
  8
0-2
  6
CONTINUOUS
 62
    3
 10
943.3674
 20
1999.1169
 11
943.42295
 21
1999.7825
  0
LINE
  8
0-2
  6
CONTINUOUS
 62
    3
 10
943.42295
 20
1999.7825
 11
943.51772
 21
2000.3961
  0
LINE
  8
0-2
  6
CONTINUOUS
 62
    3
 10
943.51772
 20
2000.3961
 11
943.65393
 21
2000.9609
  0
LINE
  8
0-2
  6
CONTINUOUS
 62
    3
 10
943.65393
 20
2000.9609
 11
943.83364
 21
2001.48
  0
LINE
  8
0-2
  6
CONTINUOUS
 62
    3
 10
943.83364
 20
2001.48
 11
944.05868
 21
2001.9568
  0
LINE
  8
0-2
  6
CONTINUOUS
 62
    3
 10
944.05868
 20
2001.9568
 11
944.33136
 21
2002.3933
  0
LINE
  8
0-2
  6
CONTINUOUS
 62
    3
 10
944.33136
 20
2002.3933
 11
944.65371
 21
2002.7937
  0
LINE
  8
0-2
  6
CONTINUOUS
 62
    3
 10
944.65371
 20
2002.7937
 11
945.02778
 21
2003.1601
  0
LINE
  8
0-2
  6
CONTINUOUS
 62
    3
 10
945.02778
 20
2003.1601
 11
945.45567
 21
2003.4959
  0
LINE
  8
0-2
  6
CONTINUOUS
 62
    3
 10
945.45567
 20
2003.4959
 11
945.93947
 21
2003.8042
  0
LINE
  8
0-2
  6
CONTINUOUS
 62
    3
 10
945.93947
 20
2003.8042
 11
946.48124
 21
2004.0878
  0
LINE
  8
0-2
  6
CONTINUOUS
 62
    3
 10
946.48124
 20
2004.0878
 11
947.08308
 21
2004.3501
  0
LINE
  8
0-2
  6
CONTINUOUS
 62
    3
 10
947.08308
 20
2004.3501
 11
947.74696
 21
2004.5928
  0
LINE
  8
0-2
  6
CONTINUOUS
 62
    3
 10
906.72335
 20
1998.3968
 11
907.0368
 21
1999.2426
  0
LINE
  8
0-2
  6
CONTINUOUS
 62
    3
 10
907.0368
 20
1999.2426
 11
907.36323
 21
2000.0099
  0
LINE
  8
0-2
  6
CONTINUOUS
 62
    3
 10
907.36323
 20
2000.0099
 11
907.70241
 21
2000.7018
  0
LINE
  8
0-2
  6
CONTINUOUS
 62
    3
 10
907.70241
 20
2000.7018
 11
908.05396
 21
2001.3232
  0
LINE
  8
0-2
  6
CONTINUOUS
 62
    3
 10
908.05396
 20
2001.3232
 11
908.41751
 21
2001.8772
  0
LINE
  8
0-2
  6
CONTINUOUS
 62
    3
 10
908.41751
 20
2001.8772
 11
908.79282
 21
2002.3678
  0
LINE
  8
0-2
  6
CONTINUOUS
 62
    3
 10
908.79282
 20
2002.3678
 11
909.17938
 21
2002.7989
  0
LINE
  8
0-2
  6
CONTINUOUS
 62
    3
 10
909.17938
 20
2002.7989
 11
909.5772
 21
2003.1738
  0
LINE
  8
0-2
  6
CONTINUOUS
 62
    3
 10
909.5772
 20
2003.1738
 11
909.98554
 21
2003.4967
  0
LINE
  8
0-2
  6
CONTINUOUS
 62
    3
 10
909.98554
 20
2003.4967
 11
910.40445
 21
2003.7711
  0
LINE
  8
0-2
  6
CONTINUOUS
 62
    3
 10
910.40445
 20
2003.7711
 11
910.83345
 21
2004.0007
  0
LINE
  8
0-2
  6
CONTINUOUS
 62
    3
 10
910.83345
 20
2004.0007
 11
911.27222
 21
2004.19
  0
LINE
  8
0-2
  6
CONTINUOUS
 62
    3
 10
911.27222
 20
2004.19
 11
911.72034
 21
2004.3417
  0
LINE
  8
0-2
  6
CONTINUOUS
 62
    3
 10
911.72034
 20
2004.3417
 11
912.17767
 21
2004.4604
  0
LINE
  8
0-2
  6
CONTINUOUS
 62
    3
 10
913.18326
 20
2004.4604
 11
913.6602
 21
2004.3592
  0
LINE
  8
0-2
  6
CONTINUOUS
 62
    3
 10
913.6602
 20
2004.3592
 11
914.13331
 21
2004.1979
  0
LINE
  8
0-2
  6
CONTINUOUS
 62
    3
 10
914.13331
 20
2004.1979
 11
914.60246
 21
2003.9769
  0
LINE
  8
0-2
  6
CONTINUOUS
 62
    3
 10
914.60246
 20
2003.9769
 11
915.06789
 21
2003.6961
  0
LINE
  8
0-2
  6
CONTINUOUS
 62
    3
 10
915.06789
 20
2003.6961
 11
915.52924
 21
2003.3561
  0
LINE
  8
0-2
  6
CONTINUOUS
 62
    3
 10
915.52924
 20
2003.3561
 11
915.98688
 21
2002.9558
  0
LINE
  8
0-2
  6
CONTINUOUS
 62
    3
 10
915.98688
 20
2002.9558
 11
916.44056
 21
2002.495
  0
LINE
  8
0-2
  6
CONTINUOUS
 62
    3
 10
916.44056
 20
2002.495
 11
916.89047
 21
2001.9752
  0
LINE
  8
0-2
  6
CONTINUOUS
 62
    3
 10
916.89047
 20
2001.9752
 11
917.33648
 21
2001.3957
  0
LINE
  8
0-2
  6
CONTINUOUS
 62
    3
 10
873.19921
 20
1998.3968
 11
873.28996
 21
1999.0416
  0
LINE
  8
0-2
  6
CONTINUOUS
 62
    3
 10
873.28996
 20
1999.0416
 11
873.41863
 21
1999.6414
  0
LINE
  8
0-2
  6
CONTINUOUS
 62
    3
 10
873.41863
 20
1999.6414
 11
873.58244
 21
2000.1992
  0
LINE
  8
0-2
  6
CONTINUOUS
 62
    3
 10
873.58244
 20
2000.1992
 11
873.77822
 21
2000.7154
  0
LINE
  8
0-2
  6
CONTINUOUS
 62
    3
 10
873.77822
 20
2000.7154
 11
874.00315
 21
2001.1925
  0
LINE
  8
0-2
  6
CONTINUOUS
 62
    3
 10
874.00315
 20
2001.1925
 11
874.25467
 21
2001.6325
  0
LINE
  8
0-2
  6
CONTINUOUS
 62
    3
 10
874.25467
 20
2001.6325
 11
874.53013
 21
2002.0365
  0
LINE
  8
0-2
  6
CONTINUOUS
 62
    3
 10
874.53013
 20
2002.0365
 11
874.82724
 21
2002.4052
  0
LINE
  8
0-2
  6
CONTINUOUS
 62
    3
 10
874.82724
 20
2002.4052
 11
875.14384
 21
2002.741
  0
LINE
  8
0-2
  6
CONTINUOUS
 62
    3
 10
875.14384
 20
2002.741
 11
875.47764
 21
2003.0441
  0
LINE
  8
0-2
  6
CONTINUOUS
 62
    3
 10
875.47764
 20
2003.0441
 11
875.8269
 21
2003.316
  0
LINE
  8
0-2
  6
CONTINUOUS
 62
    3
 10
875.8269
 20
2003.316
 11
876.18977
 21
2003.5583
  0
LINE
  8
0-2
  6
CONTINUOUS
 62
    3
 10
876.18977
 20
2003.5583
 11
876.56458
 21
2003.7708
  0
LINE
  8
0-2
  6
CONTINUOUS
 62
    3
 10
876.56458
 20
2003.7708
 11
876.94991
 21
2003.9544
  0
LINE
  8
0-2
  6
CONTINUOUS
 62
    3
 10
876.94991
 20
2003.9544
 11
877.34445
 21
2004.1098
  0
LINE
  8
0-2
  6
CONTINUOUS
 62
    3
 10
877.34445
 20
2004.1098
 11
877.74703
 21
2004.2382
  0
LINE
  8
0-2
  6
CONTINUOUS
 62
    3
 10
877.74703
 20
2004.2382
 11
878.15642
 21
2004.339
  0
LINE
  8
0-2
  6
CONTINUOUS
 62
    3
 10
878.15642
 20
2004.339
 11
878.572
 21
2004.4132
  0
LINE
  8
0-2
  6
CONTINUOUS
 62
    3
 10
878.572
 20
2004.4132
 11
878.99296
 21
2004.4604
  0
LINE
  8
0-2
  6
CONTINUOUS
 62
    3
 10
879.09917
 20
2004.4552
 11
879.33622
 21
2004.4285
  0
LINE
  8
0-2
  6
CONTINUOUS
 62
    3
 10
879.33622
 20
2004.4285
 11
879.56918
 21
2004.3909
  0
LINE
  8
0-2
  6
CONTINUOUS
 62
    3
 10
879.56918
 20
2004.3909
 11
879.79794
 21
2004.3419
  0
LINE
  8
0-2
  6
CONTINUOUS
 62
    3
 10
879.79794
 20
2004.3419
 11
880.02274
 21
2004.2815
  0
LINE
  8
0-2
  6
CONTINUOUS
 62
    3
 10
880.02274
 20
2004.2815
 11
880.24345
 21
2004.2095
  0
LINE
  8
0-2
  6
CONTINUOUS
 62
    3
 10
880.24345
 20
2004.2095
 11
880.46009
 21
2004.1262
  0
LINE
  8
0-2
  6
CONTINUOUS
 62
    3
 10
880.46009
 20
2004.1262
 11
880.67258
 21
2004.0311
  0
LINE
  8
0-2
  6
CONTINUOUS
 62
    3
 10
880.67258
 20
2004.0311
 11
880.88098
 21
2003.925
  0
LINE
  8
0-2
  6
CONTINUOUS
 62
    3
 10
880.88098
 20
2003.925
 11
881.08531
 21
2003.8072
  0
LINE
  8
0-2
  6
CONTINUOUS
 62
    3
 10
783.30766
 20
1998.3968
 11
783.38882
 21
1999.075
  0
LINE
  8
0-2
  6
CONTINUOUS
 62
    3
 10
783.38882
 20
1999.075
 11
783.47456
 21
1999.6946
  0
LINE
  8
0-2
  6
CONTINUOUS
 62
    3
 10
783.47456
 20
1999.6946
 11
783.56525
 21
2000.2558
  0
LINE
  8
0-2
  6
CONTINUOUS
 62
    3
 10
783.56525
 20
2000.2558
 11
783.66051
 21
2000.7582
  0
LINE
  8
0-2
  6
CONTINUOUS
 62
    3
 10
783.66051
 20
2000.7582
 11
783.76048
 21
2001.2027
  0
LINE
  8
0-2
  6
CONTINUOUS
 62
    3
 10
783.76048
 20
2001.2027
 11
783.86527
 21
2001.5882
  0
LINE
  8
0-2
  6
CONTINUOUS
 62
    3
 10
783.86527
 20
2001.5882
 11
783.97464
 21
2001.915
  0
LINE
  8
0-2
  6
CONTINUOUS
 62
    3
 10
783.97464
 20
2001.915
 11
784.08871
 21
2002.1837
  0
LINE
  8
0-2
  6
CONTINUOUS
 62
    3
 10
784.08871
 20
2002.1837
 11
784.20748
 21
2002.3933
  0
LINE
  8
0-2
  6
CONTINUOUS
 62
    3
 10
798.06473
 20
1998.3968
 11
798.1097
 21
1998.9342
  0
LINE
  8
0-2
  6
CONTINUOUS
 62
    3
 10
798.1097
 20
1998.9342
 11
798.18393
 21
1999.442
  0
LINE
  8
0-2
  6
CONTINUOUS
 62
    3
 10
798.18393
 20
1999.442
 11
798.28402
 21
1999.92
  0
LINE
  8
0-2
  6
CONTINUOUS
 62
    3
 10
798.28402
 20
1999.92
 11
798.40762
 21
2000.3696
  0
LINE
  8
0-2
  6
CONTINUOUS
 62
    3
 10
798.40762
 20
2000.3696
 11
798.55163
 21
2000.7889
  0
LINE
  8
0-2
  6
CONTINUOUS
 62
    3
 10
798.55163
 20
2000.7889
 11
798.71327
 21
2001.1782
  0
LINE
  8
0-2
  6
CONTINUOUS
 62
    3
 10
798.71327
 20
2001.1782
 11
798.88963
 21
2001.5379
  0
LINE
  8
0-2
  6
CONTINUOUS
 62
    3
 10
798.88963
 20
2001.5379
 11
799.07768
 21
2001.8675
  0
LINE
  8
0-2
  6
CONTINUOUS
 62
    3
 10
799.07768
 20
2001.8675
 11
799.27465
 21
2002.1674
  0
LINE
  8
0-2
  6
CONTINUOUS
 62
    3
 10
799.27465
 20
2002.1674
 11
799.47761
 21
2002.4364
  0
LINE
  8
0-2
  6
CONTINUOUS
 62
    3
 10
799.47761
 20
2002.4364
 11
799.68373
 21
2002.6752
  0
LINE
  8
0-2
  6
CONTINUOUS
 62
    3
 10
799.68373
 20
2002.6752
 11
799.89028
 21
2002.8833
  0
LINE
  8
0-2
  6
CONTINUOUS
 62
    3
 10
799.89028
 20
2002.8833
 11
800.09417
 21
2003.0604
  0
LINE
  8
0-2
  6
CONTINUOUS
 62
    3
 10
800.09417
 20
2003.0604
 11
800.29261
 21
2003.2067
  0
LINE
  8
0-2
  6
CONTINUOUS
 62
    3
 10
818.27549
 20
1998.3968
 11
818.40948
 21
1998.9946
  0
LINE
  8
0-2
  6
CONTINUOUS
 62
    3
 10
818.40948
 20
1998.9946
 11
818.57266
 21
1999.5541
  0
LINE
  8
0-2
  6
CONTINUOUS
 62
    3
 10
818.57266
 20
1999.5541
 11
818.76381
 21
2000.0762
  0
LINE
  8
0-2
  6
CONTINUOUS
 62
    3
 10
818.76381
 20
2000.0762
 11
818.98168
 21
2000.5605
  0
LINE
  8
0-2
  6
CONTINUOUS
 62
    3
 10
818.98168
 20
2000.5605
 11
819.22516
 21
2001.0082
  0
LINE
  8
0-2
  6
CONTINUOUS
 62
    3
 10
819.22516
 20
2001.0082
 11
819.49302
 21
2001.4184
  0
LINE
  8
0-2
  6
CONTINUOUS
 62
    3
 10
819.49302
 20
2001.4184
 11
819.78413
 21
2001.7923
  0
LINE
  8
0-2
  6
CONTINUOUS
 62
    3
 10
819.78413
 20
2001.7923
 11
820.09739
 21
2002.1298
  0
LINE
  8
0-2
  6
CONTINUOUS
 62
    3
 10
820.09739
 20
2002.1298
 11
820.43156
 21
2002.4312
  0
LINE
  8
0-2
  6
CONTINUOUS
 62
    3
 10
820.43156
 20
2002.4312
 11
820.78552
 21
2002.6974
  0
LINE
  8
0-2
  6
CONTINUOUS
 62
    3
 10
820.78552
 20
2002.6974
 11
821.15804
 21
2002.9276
  0
LINE
  8
0-2
  6
CONTINUOUS
 62
    3
 10
821.15804
 20
2002.9276
 11
821.548
 21
2003.123
  0
LINE
  8
0-2
  6
CONTINUOUS
 62
    3
 10
821.548
 20
2003.123
 11
821.95411
 21
2003.2836
  0
LINE
  8
0-2
  6
CONTINUOUS
 62
    3
 10
821.95411
 20
2003.2836
 11
822.37544
 21
2003.4098
  0
LINE
  8
0-2
  6
CONTINUOUS
 62
    3
 10
843.49097
 20
1998.3968
 11
843.69368
 21
1999.0236
  0
LINE
  8
0-2
  6
CONTINUOUS
 62
    3
 10
843.69368
 20
1999.0236
 11
843.93104
 21
1999.6038
  0
LINE
  8
0-2
  6
CONTINUOUS
 62
    3
 10
843.93104
 20
1999.6038
 11
844.20032
 21
2000.1385
  0
LINE
  8
0-2
  6
CONTINUOUS
 62
    3
 10
844.20032
 20
2000.1385
 11
844.49854
 21
2000.6274
  0
LINE
  8
0-2
  6
CONTINUOUS
 62
    3
 10
844.49854
 20
2000.6274
 11
844.82288
 21
2001.07
  0
LINE
  8
0-2
  6
CONTINUOUS
 62
    3
 10
844.82288
 20
2001.07
 11
845.1701
 21
2001.4667
  0
LINE
  8
0-2
  6
CONTINUOUS
 62
    3
 10
845.1701
 20
2001.4667
 11
845.53742
 21
2001.8178
  0
LINE
  8
0-2
  6
CONTINUOUS
 62
    3
 10
845.53742
 20
2001.8178
 11
845.92151
 21
2002.1239
  0
LINE
  8
0-2
  6
CONTINUOUS
 62
    3
 10
845.92151
 20
2002.1239
 11
846.31921
 21
2002.3852
  0
LINE
  8
0-2
  6
CONTINUOUS
 62
    3
 10
846.31921
 20
2002.3852
 11
846.72717
 21
2002.6024
  0
LINE
  8
0-2
  6
CONTINUOUS
 62
    3
 10
846.72717
 20
2002.6024
 11
847.14201
 21
2002.7774
  0
LINE
  8
0-2
  6
CONTINUOUS
 62
    3
 10
847.14201
 20
2002.7774
 11
847.56018
 21
2002.9107
  0
LINE
  8
0-2
  6
CONTINUOUS
 62
    3
 10
847.56018
 20
2002.9107
 11
847.97817
 21
2003.0028
  0
LINE
  8
0-2
  6
CONTINUOUS
 62
    3
 10
847.97817
 20
2003.0028
 11
848.3925
 21
2003.0565
  0
LINE
  8
0-2
  6
CONTINUOUS
 62
    3
 10
848.3925
 20
2003.0565
 11
848.79917
 21
2003.0723
  0
LINE
  8
0-2
  6
CONTINUOUS
 62
    3
 10
848.79917
 20
2003.0723
 11
849.19458
 21
2003.0528
  0
LINE
  8
0-2
  6
CONTINUOUS
 62
    3
 10
849.19458
 20
2003.0528
 11
849.57502
 21
2002.9996
  0
LINE
  8
0-2
  6
CONTINUOUS
 62
    3
 10
849.57502
 20
2002.9996
 11
849.93628
 21
2002.9142
  0
LINE
  8
0-2
  6
CONTINUOUS
 62
    3
 10
849.93628
 20
2002.9142
 11
850.27441
 21
2002.7999
  0
LINE
  8
0-2
  6
CONTINUOUS
 62
    3
 10
783.30766
 20
1998.3968
 11
776.66656
 21
1998.3968
  0
LINE
  8
0-2
  6
CONTINUOUS
 62
    3
 10
718.26068
 20
2072.9581
 11
783.30766
 21
1998.3968
  0
LINE
  8
0-2
  6
CONTINUOUS
 62
    3
 10
787.59864
 20
1998.3968
 11
723.59814
 21
2072.9581
  0
LINE
  8
0-2
  6
CONTINUOUS
 62
    3
 10
736.61713
 20
2072.9581
 11
798.06473
 21
1998.3968
  0
LINE
  8
0-2
  6
CONTINUOUS
 62
    3
 10
798.06473
 20
1998.3968
 11
787.59864
 21
1998.3968
  0
LINE
  8
0-2
  6
CONTINUOUS
 62
    3
 10
804.21503
 20
1998.3968
 11
744.26729
 21
2072.9581
  0
LINE
  8
0-2
  6
CONTINUOUS
 62
    3
 10
818.27549
 20
1998.3968
 11
804.21503
 21
1998.3968
  0
LINE
  8
0-2
  6
CONTINUOUS
 62
    3
 10
761.75732
 20
2072.9581
 11
818.27549
 21
1998.3968
  0
LINE
  8
0-2
  6
CONTINUOUS
 62
    3
 10
826.15199
 20
1998.3968
 11
771.55476
 21
2072.9581
  0
LINE
  8
0-2
  6
CONTINUOUS
 62
    3
 10
843.50223
 20
1998.3968
 11
826.15199
 21
1998.3968
  0
LINE
  8
0-2
  6
CONTINUOUS
 62
    3
 10
793.13702
 20
2072.9581
 11
843.50223
 21
1998.3968
  0
LINE
  8
0-2
  6
CONTINUOUS
 62
    3
 10
852.93451
 20
1998.3968
 11
804.86975
 21
2072.9581
  0
LINE
  8
0-2
  6
CONTINUOUS
 62
    3
 10
873.19921
 20
1998.3968
 11
852.93451
 21
1998.3968
  0
LINE
  8
0-2
  6
CONTINUOUS
 62
    3
 10
830.07707
 20
2072.9581
 11
873.19921
 21
1998.3968
  0
LINE
  8
0-2
  6
CONTINUOUS
 62
    3
 10
883.98301
 20
1998.3968
 11
843.49097
 21
2072.9581
  0
LINE
  8
0-2
  6
CONTINUOUS
 62
    3
 10
906.72335
 20
1998.3968
 11
883.98301
 21
1998.3968
  0
LINE
  8
0-2
  6
CONTINUOUS
 62
    3
 10
918.62515
 20
1998.3968
 11
886.58249
 21
2072.9581
  0
LINE
  8
0-2
  6
CONTINUOUS
 62
    3
 10
943.34896
 20
1998.3968
 11
918.62515
 21
1998.3968
  0
LINE
  8
0-2
  6
CONTINUOUS
 62
    3
 10
917.33648
 20
2072.9581
 11
943.34896
 21
1998.3968
  0
LINE
  8
0-2
  6
CONTINUOUS
 62
    3
 10
933.21148
 20
2072.9581
 11
956.11123
 21
1998.3968
  0
LINE
  8
0-2
  6
CONTINUOUS
 62
    3
 10
982.28319
 20
1998.3968
 11
956.11123
 21
1998.3968
  0
LINE
  8
0-2
  6
CONTINUOUS
 62
    3
 10
982.28319
 20
1998.3968
 11
965.76683
 21
2072.9581
  0
LINE
  8
0-2
  6
CONTINUOUS
 62
    3
 10
982.36874
 20
2072.9581
 11
995.62985
 21
1998.3968
  0
LINE
  8
0-2
  6
CONTINUOUS
 62
    3
 10
1022.6834
 20
1998.3968
 11
995.62985
 21
1998.3968
  0
LINE
  8
0-2
  6
CONTINUOUS
 62
    3
 10
1022.6834
 20
1998.3968
 11
1016.0208
 21
2072.9581
  0
LINE
  8
0-2
  6
CONTINUOUS
 62
    3
 10
1036.3252
 20
1998.3968
 11
1032.9899
 21
2072.9581
  0
LINE
  8
0-2
  6
CONTINUOUS
 62
    3
 10
1050
 20
1998.3968
 11
1036.3252
 21
1998.3968
  0
LINE
  8
0-2
  6
CONTINUOUS
 62
    3
 10
1390.0002
 20
2072.9581
 11
1323.3334
 21
1998.3968
  0
LINE
  8
0-2
  6
CONTINUOUS
 62
    3
 10
1109.2314
 20
2004.5597
 11
1108.6828
 21
2004.3954
  0
LINE
  8
0-2
  6
CONTINUOUS
 62
    3
 10
1108.6828
 20
2004.3954
 11
1108.1673
 21
2004.1722
  0
LINE
  8
0-2
  6
CONTINUOUS
 62
    3
 10
1108.1673
 20
2004.1722
 11
1107.6848
 21
2003.8936
  0
LINE
  8
0-2
  6
CONTINUOUS
 62
    3
 10
1107.6848
 20
2003.8936
 11
1107.2344
 21
2003.5645
  0
LINE
  8
0-2
  6
CONTINUOUS
 62
    3
 10
1107.2344
 20
2003.5645
 11
1106.8158
 21
2003.1884
  0
LINE
  8
0-2
  6
CONTINUOUS
 62
    3
 10
1106.8158
 20
2003.1884
 11
1106.4282
 21
2002.7699
  0
LINE
  8
0-2
  6
CONTINUOUS
 62
    3
 10
1106.4282
 20
2002.7699
 11
1106.0709
 21
2002.3132
  0
LINE
  8
0-2
  6
CONTINUOUS
 62
    3
 10
1106.0709
 20
2002.3132
 11
1105.7432
 21
2001.8225
  0
LINE
  8
0-2
  6
CONTINUOUS
 62
    3
 10
1105.7432
 20
2001.8225
 11
1105.4451
 21
2001.3019
  0
LINE
  8
0-2
  6
CONTINUOUS
 62
    3
 10
1105.4451
 20
2001.3019
 11
1105.1751
 21
2000.7558
  0
LINE
  8
0-2
  6
CONTINUOUS
 62
    3
 10
1105.1751
 20
2000.7558
 11
1104.9336
 21
2000.1875
  0
LINE
  8
0-2
  6
CONTINUOUS
 62
    3
 10
1104.9336
 20
2000.1875
 11
1104.7192
 21
1999.6023
  0
LINE
  8
0-2
  6
CONTINUOUS
 62
    3
 10
1104.7192
 20
1999.6023
 11
1104.5314
 21
1999.0043
  0
LINE
  8
0-2
  6
CONTINUOUS
 62
    3
 10
1104.5314
 20
1999.0043
 11
1104.3701
 21
1998.3968
  0
LINE
  8
0-2
  6
CONTINUOUS
 62
    3
 10
1112.2455
 20
2004.5928
 11
1112.88
 21
2004.3647
  0
LINE
  8
0-2
  6
CONTINUOUS
 62
    3
 10
1112.88
 20
2004.3647
 11
1113.4752
 21
2004.095
  0
LINE
  8
0-2
  6
CONTINUOUS
 62
    3
 10
1113.4752
 20
2004.095
 11
1114.0321
 21
2003.7867
  0
LINE
  8
0-2
  6
CONTINUOUS
 62
    3
 10
1114.0321
 20
2003.7867
 11
1114.5503
 21
2003.4405
  0
LINE
  8
0-2
  6
CONTINUOUS
 62
    3
 10
1114.5503
 20
2003.4405
 11
1115.0304
 21
2003.0597
  0
LINE
  8
0-2
  6
CONTINUOUS
 62
    3
 10
1115.0304
 20
2003.0597
 11
1115.4736
 21
2002.6457
  0
LINE
  8
0-2
  6
CONTINUOUS
 62
    3
 10
1115.4736
 20
2002.6457
 11
1115.8794
 21
2002.2006
  0
LINE
  8
0-2
  6
CONTINUOUS
 62
    3
 10
1115.8794
 20
2002.2006
 11
1116.2483
 21
2001.7272
  0
LINE
  8
0-2
  6
CONTINUOUS
 62
    3
 10
1116.2483
 20
2001.7272
 11
1116.5812
 21
2001.2269
  0
LINE
  8
0-2
  6
CONTINUOUS
 62
    3
 10
1116.5812
 20
2001.2269
 11
1116.8783
 21
2000.7018
  0
LINE
  8
0-2
  6
CONTINUOUS
 62
    3
 10
1116.8783
 20
2000.7018
 11
1117.14
 21
2000.1541
  0
LINE
  8
0-2
  6
CONTINUOUS
 62
    3
 10
1117.14
 20
2000.1541
 11
1117.3666
 21
1999.5862
  0
LINE
  8
0-2
  6
CONTINUOUS
 62
    3
 10
1117.3666
 20
1999.5862
 11
1117.5586
 21
1998.9998
  0
LINE
  8
0-2
  6
CONTINUOUS
 62
    3
 10
1117.5586
 20
1998.9998
 11
1117.7166
 21
1998.3968
  0
LINE
  8
0-2
  6
CONTINUOUS
 62
    3
 10
1143.8887
 20
1998.3968
 11
1144.5033
 21
1999.3979
  0
LINE
  8
0-2
  6
CONTINUOUS
 62
    3
 10
1144.5033
 20
1999.3979
 11
1145.125
 21
2000.2882
  0
LINE
  8
0-2
  6
CONTINUOUS
 62
    3
 10
1145.125
 20
2000.2882
 11
1145.7515
 21
2001.0742
  0
LINE
  8
0-2
  6
CONTINUOUS
 62
    3
 10
1145.7515
 20
2001.0742
 11
1146.38
 21
2001.7619
  0
LINE
  8
0-2
  6
CONTINUOUS
 62
    3
 10
1146.38
 20
2001.7619
 11
1147.0085
 21
2002.3575
  0
LINE
  8
0-2
  6
CONTINUOUS
 62
    3
 10
1147.0085
 20
2002.3575
 11
1147.6344
 21
2002.8672
  0
LINE
  8
0-2
  6
CONTINUOUS
 62
    3
 10
1147.6344
 20
2002.8672
 11
1148.2554
 21
2003.2972
  0
LINE
  8
0-2
  6
CONTINUOUS
 62
    3
 10
1148.2554
 20
2003.2972
 11
1148.8685
 21
2003.6538
  0
LINE
  8
0-2
  6
CONTINUOUS
 62
    3
 10
1148.8685
 20
2003.6538
 11
1149.4718
 21
2003.9428
  0
LINE
  8
0-2
  6
CONTINUOUS
 62
    3
 10
1149.4718
 20
2003.9428
 11
1150.0627
 21
2004.1704
  0
LINE
  8
0-2
  6
CONTINUOUS
 62
    3
 10
1150.0627
 20
2004.1704
 11
1150.6387
 21
2004.3434
  0
LINE
  8
0-2
  6
CONTINUOUS
 62
    3
 10
1150.6387
 20
2004.3434
 11
1151.1972
 21
2004.4671
  0
LINE
  8
0-2
  6
CONTINUOUS
 62
    3
 10
1151.1972
 20
2004.4671
 11
1151.7364
 21
2004.5485
  0
LINE
  8
0-2
  6
CONTINUOUS
 62
    3
 10
1151.7364
 20
2004.5485
 11
1152.253
 21
2004.5928
  0
LINE
  8
0-2
  6
CONTINUOUS
 62
    3
 10
1156.6512
 20
1998.3968
 11
1156.6327
 21
1999.1169
  0
LINE
  8
0-2
  6
CONTINUOUS
 62
    3
 10
1156.6327
 20
1999.1169
 11
1156.5769
 21
1999.7825
  0
LINE
  8
0-2
  6
CONTINUOUS
 62
    3
 10
1156.5769
 20
1999.7825
 11
1156.4823
 21
2000.3961
  0
LINE
  8
0-2
  6
CONTINUOUS
 62
    3
 10
1156.4823
 20
2000.3961
 11
1156.3459
 21
2000.9609
  0
LINE
  8
0-2
  6
CONTINUOUS
 62
    3
 10
1156.3459
 20
2000.9609
 11
1156.1665
 21
2001.48
  0
LINE
  8
0-2
  6
CONTINUOUS
 62
    3
 10
1156.1665
 20
2001.48
 11
1155.9414
 21
2001.9568
  0
LINE
  8
0-2
  6
CONTINUOUS
 62
    3
 10
1155.9414
 20
2001.9568
 11
1155.6687
 21
2002.3933
  0
LINE
  8
0-2
  6
CONTINUOUS
 62
    3
 10
1155.6687
 20
2002.3933
 11
1155.3463
 21
2002.7937
  0
LINE
  8
0-2
  6
CONTINUOUS
 62
    3
 10
1155.3463
 20
2002.7937
 11
1154.9721
 21
2003.1601
  0
LINE
  8
0-2
  6
CONTINUOUS
 62
    3
 10
1154.9721
 20
2003.1601
 11
1154.5443
 21
2003.4959
  0
LINE
  8
0-2
  6
CONTINUOUS
 62
    3
 10
1154.5443
 20
2003.4959
 11
1154.0605
 21
2003.8042
  0
LINE
  8
0-2
  6
CONTINUOUS
 62
    3
 10
1154.0605
 20
2003.8042
 11
1153.5189
 21
2004.0878
  0
LINE
  8
0-2
  6
CONTINUOUS
 62
    3
 10
1153.5189
 20
2004.0878
 11
1152.9168
 21
2004.3501
  0
LINE
  8
0-2
  6
CONTINUOUS
 62
    3
 10
1152.9168
 20
2004.3501
 11
1152.253
 21
2004.5928
  0
LINE
  8
0-2
  6
CONTINUOUS
 62
    3
 10
1193.2767
 20
1998.3968
 11
1192.9631
 21
1999.2426
  0
LINE
  8
0-2
  6
CONTINUOUS
 62
    3
 10
1192.9631
 20
1999.2426
 11
1192.6368
 21
2000.0099
  0
LINE
  8
0-2
  6
CONTINUOUS
 62
    3
 10
1192.6368
 20
2000.0099
 11
1192.2977
 21
2000.7018
  0
LINE
  8
0-2
  6
CONTINUOUS
 62
    3
 10
1192.2977
 20
2000.7018
 11
1191.946
 21
2001.3232
  0
LINE
  8
0-2
  6
CONTINUOUS
 62
    3
 10
1191.946
 20
2001.3232
 11
1191.5826
 21
2001.8772
  0
LINE
  8
0-2
  6
CONTINUOUS
 62
    3
 10
1191.5826
 20
2001.8772
 11
1191.2072
 21
2002.3678
  0
LINE
  8
0-2
  6
CONTINUOUS
 62
    3
 10
1191.2072
 20
2002.3678
 11
1190.8206
 21
2002.7989
  0
LINE
  8
0-2
  6
CONTINUOUS
 62
    3
 10
1190.8206
 20
2002.7989
 11
1190.4227
 21
2003.1738
  0
LINE
  8
0-2
  6
CONTINUOUS
 62
    3
 10
1190.4227
 20
2003.1738
 11
1190.0145
 21
2003.4967
  0
LINE
  8
0-2
  6
CONTINUOUS
 62
    3
 10
1190.0145
 20
2003.4967
 11
1189.5957
 21
2003.7711
  0
LINE
  8
0-2
  6
CONTINUOUS
 62
    3
 10
1189.5957
 20
2003.7711
 11
1189.1667
 21
2004.0007
  0
LINE
  8
0-2
  6
CONTINUOUS
 62
    3
 10
1189.1667
 20
2004.0007
 11
1188.7278
 21
2004.19
  0
LINE
  8
0-2
  6
CONTINUOUS
 62
    3
 10
1188.7278
 20
2004.19
 11
1188.2795
 21
2004.3417
  0
LINE
  8
0-2
  6
CONTINUOUS
 62
    3
 10
1188.2795
 20
2004.3417
 11
1187.8223
 21
2004.4604
  0
LINE
  8
0-2
  6
CONTINUOUS
 62
    3
 10
1186.8167
 20
2004.4604
 11
1186.34
 21
2004.3592
  0
LINE
  8
0-2
  6
CONTINUOUS
 62
    3
 10
1186.34
 20
2004.3592
 11
1185.8669
 21
2004.1979
  0
LINE
  8
0-2
  6
CONTINUOUS
 62
    3
 10
1185.8669
 20
2004.1979
 11
1185.3978
 21
2003.9769
  0
LINE
  8
0-2
  6
CONTINUOUS
 62
    3
 10
1185.3978
 20
2003.9769
 11
1184.9322
 21
2003.6961
  0
LINE
  8
0-2
  6
CONTINUOUS
 62
    3
 10
1184.9322
 20
2003.6961
 11
1184.4708
 21
2003.3561
  0
LINE
  8
0-2
  6
CONTINUOUS
 62
    3
 10
1184.4708
 20
2003.3561
 11
1184.013
 21
2002.9558
  0
LINE
  8
0-2
  6
CONTINUOUS
 62
    3
 10
1184.013
 20
2002.9558
 11
1183.5594
 21
2002.495
  0
LINE
  8
0-2
  6
CONTINUOUS
 62
    3
 10
1183.5594
 20
2002.495
 11
1183.1094
 21
2001.9752
  0
LINE
  8
0-2
  6
CONTINUOUS
 62
    3
 10
1183.1094
 20
2001.9752
 11
1182.6635
 21
2001.3957
  0
LINE
  8
0-2
  6
CONTINUOUS
 62
    3
 10
1226.8007
 20
1998.3968
 11
1226.7102
 21
1999.0416
  0
LINE
  8
0-2
  6
CONTINUOUS
 62
    3
 10
1226.7102
 20
1999.0416
 11
1226.5812
 21
1999.6414
  0
LINE
  8
0-2
  6
CONTINUOUS
 62
    3
 10
1226.5812
 20
1999.6414
 11
1226.4178
 21
2000.1992
  0
LINE
  8
0-2
  6
CONTINUOUS
 62
    3
 10
1226.4178
 20
2000.1992
 11
1226.2218
 21
2000.7154
  0
LINE
  8
0-2
  6
CONTINUOUS
 62
    3
 10
1226.2218
 20
2000.7154
 11
1225.997
 21
2001.1925
  0
LINE
  8
0-2
  6
CONTINUOUS
 62
    3
 10
1225.997
 20
2001.1925
 11
1225.7453
 21
2001.6325
  0
LINE
  8
0-2
  6
CONTINUOUS
 62
    3
 10
1225.7453
 20
2001.6325
 11
1225.4697
 21
2002.0365
  0
LINE
  8
0-2
  6
CONTINUOUS
 62
    3
 10
1225.4697
 20
2002.0365
 11
1225.1728
 21
2002.4052
  0
LINE
  8
0-2
  6
CONTINUOUS
 62
    3
 10
1225.1728
 20
2002.4052
 11
1224.8561
 21
2002.741
  0
LINE
  8
0-2
  6
CONTINUOUS
 62
    3
 10
1224.8561
 20
2002.741
 11
1224.5223
 21
2003.0441
  0
LINE
  8
0-2
  6
CONTINUOUS
 62
    3
 10
1224.5223
 20
2003.0441
 11
1224.173
 21
2003.316
  0
LINE
  8
0-2
  6
CONTINUOUS
 62
    3
 10
1224.173
 20
2003.316
 11
1223.8103
 21
2003.5583
  0
LINE
  8
0-2
  6
CONTINUOUS
 62
    3
 10
1223.8103
 20
2003.5583
 11
1223.4355
 21
2003.7708
  0
LINE
  8
0-2
  6
CONTINUOUS
 62
    3
 10
1223.4355
 20
2003.7708
 11
1223.0501
 21
2003.9544
  0
LINE
  8
0-2
  6
CONTINUOUS
 62
    3
 10
1223.0501
 20
2003.9544
 11
1222.6556
 21
2004.1098
  0
LINE
  8
0-2
  6
CONTINUOUS
 62
    3
 10
1222.6556
 20
2004.1098
 11
1222.253
 21
2004.2382
  0
LINE
  8
0-2
  6
CONTINUOUS
 62
    3
 10
1222.253
 20
2004.2382
 11
1221.8436
 21
2004.339
  0
LINE
  8
0-2
  6
CONTINUOUS
 62
    3
 10
1221.8436
 20
2004.339
 11
1221.4279
 21
2004.4132
  0
LINE
  8
0-2
  6
CONTINUOUS
 62
    3
 10
1221.4279
 20
2004.4132
 11
1221.0072
 21
2004.4604
  0
LINE
  8
0-2
  6
CONTINUOUS
 62
    3
 10
1220.9009
 20
2004.4552
 11
1220.6638
 21
2004.4285
  0
LINE
  8
0-2
  6
CONTINUOUS
 62
    3
 10
1220.6638
 20
2004.4285
 11
1220.4309
 21
2004.3909
  0
LINE
  8
0-2
  6
CONTINUOUS
 62
    3
 10
1220.4309
 20
2004.3909
 11
1220.202
 21
2004.3419
  0
LINE
  8
0-2
  6
CONTINUOUS
 62
    3
 10
1220.202
 20
2004.3419
 11
1219.9773
 21
2004.2815
  0
LINE
  8
0-2
  6
CONTINUOUS
 62
    3
 10
1219.9773
 20
2004.2815
 11
1219.7566
 21
2004.2095
  0
LINE
  8
0-2
  6
CONTINUOUS
 62
    3
 10
1219.7566
 20
2004.2095
 11
1219.54
 21
2004.1262
  0
LINE
  8
0-2
  6
CONTINUOUS
 62
    3
 10
1219.54
 20
2004.1262
 11
1219.3275
 21
2004.0311
  0
LINE
  8
0-2
  6
CONTINUOUS
 62
    3
 10
1219.3275
 20
2004.0311
 11
1219.1192
 21
2003.925
  0
LINE
  8
0-2
  6
CONTINUOUS
 62
    3
 10
1219.1192
 20
2003.925
 11
1218.9146
 21
2003.8072
  0
LINE
  8
0-2
  6
CONTINUOUS
 62
    3
 10
1316.6924
 20
1998.3968
 11
1316.6112
 21
1999.075
  0
LINE
  8
0-2
  6
CONTINUOUS
 62
    3
 10
1316.6112
 20
1999.075
 11
1316.5254
 21
1999.6946
  0
LINE
  8
0-2
  6
CONTINUOUS
 62
    3
 10
1316.5254
 20
1999.6946
 11
1316.4351
 21
2000.2558
  0
LINE
  8
0-2
  6
CONTINUOUS
 62
    3
 10
1316.4351
 20
2000.2558
 11
1316.3395
 21
2000.7582
  0
LINE
  8
0-2
  6
CONTINUOUS
 62
    3
 10
1316.3395
 20
2000.7582
 11
1316.2396
 21
2001.2027
  0
LINE
  8
0-2
  6
CONTINUOUS
 62
    3
 10
1316.2396
 20
2001.2027
 11
1316.1349
 21
2001.5882
  0
LINE
  8
0-2
  6
CONTINUOUS
 62
    3
 10
1316.1349
 20
2001.5882
 11
1316.0255
 21
2001.915
  0
LINE
  8
0-2
  6
CONTINUOUS
 62
    3
 10
1316.0255
 20
2001.915
 11
1315.9115
 21
2002.1837
  0
LINE
  8
0-2
  6
CONTINUOUS
 62
    3
 10
1315.9115
 20
2002.1837
 11
1315.7927
 21
2002.3933
  0
LINE
  8
0-2
  6
CONTINUOUS
 62
    3
 10
1301.9353
 20
1998.3968
 11
1301.8905
 21
1998.9342
  0
LINE
  8
0-2
  6
CONTINUOUS
 62
    3
 10
1301.8905
 20
1998.9342
 11
1301.8163
 21
1999.442
  0
LINE
  8
0-2
  6
CONTINUOUS
 62
    3
 10
1301.8163
 20
1999.442
 11
1301.7158
 21
1999.92
  0
LINE
  8
0-2
  6
CONTINUOUS
 62
    3
 10
1301.7158
 20
1999.92
 11
1301.5926
 21
2000.3696
  0
LINE
  8
0-2
  6
CONTINUOUS
 62
    3
 10
1301.5926
 20
2000.3696
 11
1301.4484
 21
2000.7889
  0
LINE
  8
0-2
  6
CONTINUOUS
 62
    3
 10
1301.4484
 20
2000.7889
 11
1301.2868
 21
2001.1782
  0
LINE
  8
0-2
  6
CONTINUOUS
 62
    3
 10
1301.2868
 20
2001.1782
 11
1301.1106
 21
2001.5379
  0
LINE
  8
0-2
  6
CONTINUOUS
 62
    3
 10
1301.1106
 20
2001.5379
 11
1300.9226
 21
2001.8675
  0
LINE
  8
0-2
  6
CONTINUOUS
 62
    3
 10
1300.9226
 20
2001.8675
 11
1300.7256
 21
2002.1674
  0
LINE
  8
0-2
  6
CONTINUOUS
 62
    3
 10
1300.7256
 20
2002.1674
 11
1300.5228
 21
2002.4364
  0
LINE
  8
0-2
  6
CONTINUOUS
 62
    3
 10
1300.5228
 20
2002.4364
 11
1300.3163
 21
2002.6752
  0
LINE
  8
0-2
  6
CONTINUOUS
 62
    3
 10
1300.3163
 20
2002.6752
 11
1300.11
 21
2002.8833
  0
LINE
  8
0-2
  6
CONTINUOUS
 62
    3
 10
1300.11
 20
2002.8833
 11
1299.9061
 21
2003.0604
  0
LINE
  8
0-2
  6
CONTINUOUS
 62
    3
 10
1299.9061
 20
2003.0604
 11
1299.7076
 21
2003.2067
  0
LINE
  8
0-2
  6
CONTINUOUS
 62
    3
 10
1281.7247
 20
1998.3968
 11
1281.5906
 21
1998.9946
  0
LINE
  8
0-2
  6
CONTINUOUS
 62
    3
 10
1281.5906
 20
1998.9946
 11
1281.4274
 21
1999.5541
  0
LINE
  8
0-2
  6
CONTINUOUS
 62
    3
 10
1281.4274
 20
1999.5541
 11
1281.2362
 21
2000.0762
  0
LINE
  8
0-2
  6
CONTINUOUS
 62
    3
 10
1281.2362
 20
2000.0762
 11
1281.0185
 21
2000.5605
  0
LINE
  8
0-2
  6
CONTINUOUS
 62
    3
 10
1281.0185
 20
2000.5605
 11
1280.7749
 21
2001.0082
  0
LINE
  8
0-2
  6
CONTINUOUS
 62
    3
 10
1280.7749
 20
2001.0082
 11
1280.507
 21
2001.4184
  0
LINE
  8
0-2
  6
CONTINUOUS
 62
    3
 10
1280.507
 20
2001.4184
 11
1280.2159
 21
2001.7923
  0
LINE
  8
0-2
  6
CONTINUOUS
 62
    3
 10
1280.2159
 20
2001.7923
 11
1279.9027
 21
2002.1298
  0
LINE
  8
0-2
  6
CONTINUOUS
 62
    3
 10
1279.9027
 20
2002.1298
 11
1279.5685
 21
2002.4312
  0
LINE
  8
0-2
  6
CONTINUOUS
 62
    3
 10
1279.5685
 20
2002.4312
 11
1279.2147
 21
2002.6974
  0
LINE
  8
0-2
  6
CONTINUOUS
 62
    3
 10
1279.2147
 20
2002.6974
 11
1278.842
 21
2002.9276
  0
LINE
  8
0-2
  6
CONTINUOUS
 62
    3
 10
1278.842
 20
2002.9276
 11
1278.452
 21
2003.123
  0
LINE
  8
0-2
  6
CONTINUOUS
 62
    3
 10
1278.452
 20
2003.123
 11
1278.0458
 21
2003.2836
  0
LINE
  8
0-2
  6
CONTINUOUS
 62
    3
 10
1278.0458
 20
2003.2836
 11
1277.6246
 21
2003.4098
  0
LINE
  8
0-2
  6
CONTINUOUS
 62
    3
 10
1256.5091
 20
1998.3968
 11
1256.3064
 21
1999.0236
  0
LINE
  8
0-2
  6
CONTINUOUS
 62
    3
 10
1256.3064
 20
1999.0236
 11
1256.069
 21
1999.6038
  0
LINE
  8
0-2
  6
CONTINUOUS
 62
    3
 10
1256.069
 20
1999.6038
 11
1255.7998
 21
2000.1385
  0
LINE
  8
0-2
  6
CONTINUOUS
 62
    3
 10
1255.7998
 20
2000.1385
 11
1255.5015
 21
2000.6274
  0
LINE
  8
0-2
  6
CONTINUOUS
 62
    3
 10
1255.5015
 20
2000.6274
 11
1255.1772
 21
2001.07
  0
LINE
  8
0-2
  6
CONTINUOUS
 62
    3
 10
1255.1772
 20
2001.07
 11
1254.83
 21
2001.4667
  0
LINE
  8
0-2
  6
CONTINUOUS
 62
    3
 10
1254.83
 20
2001.4667
 11
1254.4626
 21
2001.8178
  0
LINE
  8
0-2
  6
CONTINUOUS
 62
    3
 10
1254.4626
 20
2001.8178
 11
1254.0785
 21
2002.1239
  0
LINE
  8
0-2
  6
CONTINUOUS
 62
    3
 10
1254.0785
 20
2002.1239
 11
1253.6807
 21
2002.3852
  0
LINE
  8
0-2
  6
CONTINUOUS
 62
    3
 10
1253.6807
 20
2002.3852
 11
1253.2728
 21
2002.6024
  0
LINE
  8
0-2
  6
CONTINUOUS
 62
    3
 10
1253.2728
 20
2002.6024
 11
1252.8582
 21
2002.7774
  0
LINE
  8
0-2
  6
CONTINUOUS
 62
    3
 10
1252.8582
 20
2002.7774
 11
1252.4397
 21
2002.9107
  0
LINE
  8
0-2
  6
CONTINUOUS
 62
    3
 10
1252.4397
 20
2002.9107
 11
1252.0218
 21
2003.0028
  0
LINE
  8
0-2
  6
CONTINUOUS
 62
    3
 10
1252.0218
 20
2003.0028
 11
1251.6077
 21
2003.0565
  0
LINE
  8
0-2
  6
CONTINUOUS
 62
    3
 10
1251.6077
 20
2003.0565
 11
1251.2009
 21
2003.0723
  0
LINE
  8
0-2
  6
CONTINUOUS
 62
    3
 10
1251.2009
 20
2003.0723
 11
1250.8053
 21
2003.0528
  0
LINE
  8
0-2
  6
CONTINUOUS
 62
    3
 10
1250.8053
 20
2003.0528
 11
1250.425
 21
2002.9996
  0
LINE
  8
0-2
  6
CONTINUOUS
 62
    3
 10
1250.425
 20
2002.9996
 11
1250.0638
 21
2002.9142
  0
LINE
  8
0-2
  6
CONTINUOUS
 62
    3
 10
1250.0638
 20
2002.9142
 11
1249.7256
 21
2002.7999
  0
LINE
  8
0-2
  6
CONTINUOUS
 62
    3
 10
1316.6924
 20
1998.3968
 11
1323.3334
 21
1998.3968
  0
LINE
  8
0-2
  6
CONTINUOUS
 62
    3
 10
1381.7394
 20
2072.9581
 11
1316.6924
 21
1998.3968
  0
LINE
  8
0-2
  6
CONTINUOUS
 62
    3
 10
1312.4015
 20
1998.3968
 11
1376.4018
 21
2072.9581
  0
LINE
  8
0-2
  6
CONTINUOUS
 62
    3
 10
1363.383
 20
2072.9581
 11
1301.9353
 21
1998.3968
  0
LINE
  8
0-2
  6
CONTINUOUS
 62
    3
 10
1301.9353
 20
1998.3968
 11
1312.4015
 21
1998.3968
  0
LINE
  8
0-2
  6
CONTINUOUS
 62
    3
 10
1295.7852
 20
1998.3968
 11
1355.7327
 21
2072.9581
  0
LINE
  8
0-2
  6
CONTINUOUS
 62
    3
 10
1281.7247
 20
1998.3968
 11
1295.7852
 21
1998.3968
  0
LINE
  8
0-2
  6
CONTINUOUS
 62
    3
 10
1338.2427
 20
2072.9581
 11
1281.7247
 21
1998.3968
  0
LINE
  8
0-2
  6
CONTINUOUS
 62
    3
 10
1273.8481
 20
1998.3968
 11
1328.445
 21
2072.9581
  0
LINE
  8
0-2
  6
CONTINUOUS
 62
    3
 10
1256.4977
 20
1998.3968
 11
1273.8481
 21
1998.3968
  0
LINE
  8
0-2
  6
CONTINUOUS
 62
    3
 10
1306.8631
 20
2072.9581
 11
1256.4977
 21
1998.3968
  0
LINE
  8
0-2
  6
CONTINUOUS
 62
    3
 10
1247.0657
 20
1998.3968
 11
1295.1305
 21
2072.9581
  0
LINE
  8
0-2
  6
CONTINUOUS
 62
    3
 10
1226.8007
 20
1998.3968
 11
1247.0657
 21
1998.3968
  0
LINE
  8
0-2
  6
CONTINUOUS
 62
    3
 10
1269.9228
 20
2072.9581
 11
1226.8007
 21
1998.3968
  0
LINE
  8
0-2
  6
CONTINUOUS
 62
    3
 10
1216.0169
 20
1998.3968
 11
1256.5091
 21
2072.9581
  0
LINE
  8
0-2
  6
CONTINUOUS
 62
    3
 10
1193.2767
 20
1998.3968
 11
1216.0169
 21
1998.3968
  0
LINE
  8
0-2
  6
CONTINUOUS
 62
    3
 10
1181.3748
 20
1998.3968
 11
1213.4174
 21
2072.9581
  0
LINE
  8
0-2
  6
CONTINUOUS
 62
    3
 10
1156.6512
 20
1998.3968
 11
1181.3748
 21
1998.3968
  0
LINE
  8
0-2
  6
CONTINUOUS
 62
    3
 10
1182.6635
 20
2072.9581
 11
1156.6512
 21
1998.3968
  0
LINE
  8
0-2
  6
CONTINUOUS
 62
    3
 10
1166.7886
 20
2072.9581
 11
1143.8887
 21
1998.3968
  0
LINE
  8
0-2
  6
CONTINUOUS
 62
    3
 10
1117.7166
 20
1998.3968
 11
1143.8887
 21
1998.3968
  0
LINE
  8
0-2
  6
CONTINUOUS
 62
    3
 10
1117.7166
 20
1998.3968
 11
1134.2331
 21
2072.9581
  0
LINE
  8
0-2
  6
CONTINUOUS
 62
    3
 10
1117.6312
 20
2072.9581
 11
1104.3701
 21
1998.3968
  0
LINE
  8
0-2
  6
CONTINUOUS
 62
    3
 10
1077.3165
 20
1998.3968
 11
1104.3701
 21
1998.3968
  0
LINE
  8
0-2
  6
CONTINUOUS
 62
    3
 10
1077.3165
 20
1998.3968
 11
1083.9791
 21
2072.9581
  0
LINE
  8
0-2
  6
CONTINUOUS
 62
    3
 10
1063.6746
 20
1998.3968
 11
1067.01
 21
2072.9581
  0
LINE
  8
0-2
  6
CONTINUOUS
 62
    3
 10
1050
 20
1998.3968
 11
1063.6746
 21
1998.3968
  0
LINE
  8
0-2
  6
CONTINUOUS
 62
    3
 10
871.7778
 20
2072.9581
 11
906.72348
 21
1998.3968
  0
LINE
  8
0-2
  6
CONTINUOUS
 62
    3
 10
1228.2223
 20
2072.9581
 11
1193.2766
 21
1998.3968
  0
LINE
  8
0-2
  6
CONTINUOUS
 62
    3
 10
912.62343
 20
1998.3968
 11
912.62343
 21
1886.5551
  0
LINE
  8
0-2
  6
CONTINUOUS
 62
    3
 10
885.95672
 20
1998.3968
 11
885.95672
 21
1886.5551
  0
LINE
  8
0-2
  6
CONTINUOUS
 62
    3
 10
1187.3766
 20
1998.3968
 11
1187.3766
 21
1886.5551
  0
LINE
  8
0-2
  6
CONTINUOUS
 62
    3
 10
1214.0433
 20
1998.3968
 11
1214.0433
 21
1886.5551
  0
LINE
  8
0-8
  6
CONTINUOUS
 62
    7
 10
580.00021
 20
1826.9055
 11
580.00021
 21
2676.9063
  0
LINE
  8
0-8
  6
CONTINUOUS
 62
    7
 10
718.63196
 20
1826.906
 11
580.00021
 21
1826.906
  0
LINE
  8
0-2
  6
CONTINUOUS
 62
    3
 10
912.17767
 20
2559.0002
 11
912.29959
 21
2558.9906
  0
LINE
  8
0-2
  6
CONTINUOUS
 62
    3
 10
912.29959
 20
2558.9906
 11
912.41905
 21
2558.9836
  0
LINE
  8
0-2
  6
CONTINUOUS
 62
    3
 10
912.41905
 20
2558.9836
 11
912.53584
 21
2558.9787
  0
LINE
  8
0-2
  6
CONTINUOUS
 62
    3
 10
912.53584
 20
2558.9787
 11
912.65003
 21
2558.9762
  0
LINE
  8
0-2
  6
CONTINUOUS
 62
    3
 10
912.65003
 20
2558.9762
 11
912.76181
 21
2558.9762
  0
LINE
  8
0-2
  6
CONTINUOUS
 62
    3
 10
912.76181
 20
2558.9762
 11
912.87093
 21
2558.9787
  0
LINE
  8
0-2
  6
CONTINUOUS
 62
    3
 10
912.87093
 20
2558.9787
 11
912.97764
 21
2558.9836
  0
LINE
  8
0-2
  6
CONTINUOUS
 62
    3
 10
912.97764
 20
2558.9836
 11
913.08175
 21
2558.9906
  0
LINE
  8
0-2
  6
CONTINUOUS
 62
    3
 10
913.08175
 20
2558.9906
 11
913.18326
 21
2559.0002
  0
LINE
  8
0-2
  6
CONTINUOUS
 62
    3
 10
987.75458
 20
2558.8681
 11
988.08114
 21
2558.8456
  0
LINE
  8
0-2
  6
CONTINUOUS
 62
    3
 10
988.08114
 20
2558.8456
 11
988.40974
 21
2558.8297
  0
LINE
  8
0-2
  6
CONTINUOUS
 62
    3
 10
988.40974
 20
2558.8297
 11
988.74038
 21
2558.8206
  0
LINE
  8
0-2
  6
CONTINUOUS
 62
    3
 10
988.74038
 20
2558.8206
 11
989.07319
 21
2558.8178
  0
LINE
  8
0-2
  6
CONTINUOUS
 62
    3
 10
989.07319
 20
2558.8178
 11
989.40816
 21
2558.8216
  0
LINE
  8
0-2
  6
CONTINUOUS
 62
    3
 10
989.40816
 20
2558.8216
 11
989.74511
 21
2558.8312
  0
LINE
  8
0-2
  6
CONTINUOUS
 62
    3
 10
989.74511
 20
2558.8312
 11
990.0841
 21
2558.8483
  0
LINE
  8
0-2
  6
CONTINUOUS
 62
    3
 10
990.0841
 20
2558.8483
 11
990.4252
 21
2558.871
  0
LINE
  8
0-2
  6
CONTINUOUS
 62
    3
 10
990.4252
 20
2558.871
 11
990.76852
 21
2558.901
  0
LINE
  8
0-2
  6
CONTINUOUS
 62
    3
 10
1112.2455
 20
2558.8681
 11
1111.919
 21
2558.8456
  0
LINE
  8
0-2
  6
CONTINUOUS
 62
    3
 10
1111.919
 20
2558.8456
 11
1111.5904
 21
2558.8297
  0
LINE
  8
0-2
  6
CONTINUOUS
 62
    3
 10
1111.5904
 20
2558.8297
 11
1111.2594
 21
2558.8206
  0
LINE
  8
0-2
  6
CONTINUOUS
 62
    3
 10
1111.2594
 20
2558.8206
 11
1110.9267
 21
2558.8178
  0
LINE
  8
0-2
  6
CONTINUOUS
 62
    3
 10
1110.9267
 20
2558.8178
 11
1110.5917
 21
2558.8216
  0
LINE
  8
0-2
  6
CONTINUOUS
 62
    3
 10
1110.5917
 20
2558.8216
 11
1110.2548
 21
2558.8312
  0
LINE
  8
0-2
  6
CONTINUOUS
 62
    3
 10
1110.2548
 20
2558.8312
 11
1109.9161
 21
2558.8483
  0
LINE
  8
0-2
  6
CONTINUOUS
 62
    3
 10
1109.9161
 20
2558.8483
 11
1109.5747
 21
2558.871
  0
LINE
  8
0-2
  6
CONTINUOUS
 62
    3
 10
1109.5747
 20
2558.871
 11
1109.2314
 21
2558.901
  0
LINE
  8
0-2
  6
CONTINUOUS
 62
    3
 10
1220.9009
 20
2559.0057
 11
1220.6638
 21
2559.0319
  0
LINE
  8
0-2
  6
CONTINUOUS
 62
    3
 10
1220.6638
 20
2559.0319
 11
1220.4309
 21
2559.0695
  0
LINE
  8
0-2
  6
CONTINUOUS
 62
    3
 10
1220.4309
 20
2559.0695
 11
1220.202
 21
2559.119
  0
LINE
  8
0-2
  6
CONTINUOUS
 62
    3
 10
1220.202
 20
2559.119
 11
1219.9773
 21
2559.1794
  0
LINE
  8
0-2
  6
CONTINUOUS
 62
    3
 10
1219.9773
 20
2559.1794
 11
1219.7566
 21
2559.2511
  0
LINE
  8
0-2
  6
CONTINUOUS
 62
    3
 10
1219.7566
 20
2559.2511
 11
1219.54
 21
2559.3345
  0
LINE
  8
0-2
  6
CONTINUOUS
 62
    3
 10
1219.54
 20
2559.3345
 11
1219.3275
 21
2559.4293
  0
LINE
  8
0-2
  6
CONTINUOUS
 62
    3
 10
1219.3275
 20
2559.4293
 11
1219.1192
 21
2559.5357
  0
LINE
  8
0-2
  6
CONTINUOUS
 62
    3
 10
1219.1192
 20
2559.5357
 11
1218.9146
 21
2559.6532
  0
LINE
  8
0-2
  6
CONTINUOUS
 62
    3
 10
1187.8223
 20
2559.0002
 11
1187.7004
 21
2558.9906
  0
LINE
  8
0-2
  6
CONTINUOUS
 62
    3
 10
1187.7004
 20
2558.9906
 11
1187.5811
 21
2558.9836
  0
LINE
  8
0-2
  6
CONTINUOUS
 62
    3
 10
1187.5811
 20
2558.9836
 11
1187.4643
 21
2558.9787
  0
LINE
  8
0-2
  6
CONTINUOUS
 62
    3
 10
1187.4643
 20
2558.9787
 11
1187.35
 21
2558.9762
  0
LINE
  8
0-2
  6
CONTINUOUS
 62
    3
 10
1187.35
 20
2558.9762
 11
1187.2382
 21
2558.9762
  0
LINE
  8
0-2
  6
CONTINUOUS
 62
    3
 10
1187.2382
 20
2558.9762
 11
1187.1292
 21
2558.9787
  0
LINE
  8
0-2
  6
CONTINUOUS
 62
    3
 10
1187.1292
 20
2558.9787
 11
1187.0224
 21
2558.9836
  0
LINE
  8
0-2
  6
CONTINUOUS
 62
    3
 10
1187.0224
 20
2558.9836
 11
1186.9184
 21
2558.9906
  0
LINE
  8
0-2
  6
CONTINUOUS
 62
    3
 10
1186.9184
 20
2558.9906
 11
1186.8167
 21
2559.0002
  0
LINE
  8
0-2
  6
CONTINUOUS
 62
    3
 10
987.75458
 20
2004.5928
 11
988.08114
 21
2004.6153
  0
LINE
  8
0-2
  6
CONTINUOUS
 62
    3
 10
988.08114
 20
2004.6153
 11
988.40974
 21
2004.6309
  0
LINE
  8
0-2
  6
CONTINUOUS
 62
    3
 10
988.40974
 20
2004.6309
 11
988.74038
 21
2004.6403
  0
LINE
  8
0-2
  6
CONTINUOUS
 62
    3
 10
988.74038
 20
2004.6403
 11
989.07319
 21
2004.6431
  0
LINE
  8
0-2
  6
CONTINUOUS
 62
    3
 10
989.07319
 20
2004.6431
 11
989.40816
 21
2004.6393
  0
LINE
  8
0-2
  6
CONTINUOUS
 62
    3
 10
989.40816
 20
2004.6393
 11
989.74511
 21
2004.6294
  0
LINE
  8
0-2
  6
CONTINUOUS
 62
    3
 10
989.74511
 20
2004.6294
 11
990.0841
 21
2004.6129
  0
LINE
  8
0-2
  6
CONTINUOUS
 62
    3
 10
990.0841
 20
2004.6129
 11
990.4252
 21
2004.5896
  0
LINE
  8
0-2
  6
CONTINUOUS
 62
    3
 10
990.4252
 20
2004.5896
 11
990.76852
 21
2004.5599
  0
LINE
  8
0-2
  6
CONTINUOUS
 62
    3
 10
1112.2455
 20
2004.5928
 11
1111.919
 21
2004.6153
  0
LINE
  8
0-2
  6
CONTINUOUS
 62
    3
 10
1111.919
 20
2004.6153
 11
1111.5904
 21
2004.6309
  0
LINE
  8
0-2
  6
CONTINUOUS
 62
    3
 10
1111.5904
 20
2004.6309
 11
1111.2594
 21
2004.6403
  0
LINE
  8
0-2
  6
CONTINUOUS
 62
    3
 10
1111.2594
 20
2004.6403
 11
1110.9267
 21
2004.6431
  0
LINE
  8
0-2
  6
CONTINUOUS
 62
    3
 10
1110.9267
 20
2004.6431
 11
1110.5917
 21
2004.6393
  0
LINE
  8
0-2
  6
CONTINUOUS
 62
    3
 10
1110.5917
 20
2004.6393
 11
1110.2548
 21
2004.6294
  0
LINE
  8
0-2
  6
CONTINUOUS
 62
    3
 10
1110.2548
 20
2004.6294
 11
1109.9161
 21
2004.6129
  0
LINE
  8
0-2
  6
CONTINUOUS
 62
    3
 10
1109.9161
 20
2004.6129
 11
1109.5747
 21
2004.5896
  0
LINE
  8
0-2
  6
CONTINUOUS
 62
    3
 10
1109.5747
 20
2004.5896
 11
1109.2314
 21
2004.5599
  0
LINE
  8
0-2
  6
CONTINUOUS
 62
    3
 10
912.17767
 20
2004.4604
 11
912.29959
 21
2004.4701
  0
LINE
  8
0-2
  6
CONTINUOUS
 62
    3
 10
912.29959
 20
2004.4701
 11
912.41905
 21
2004.4773
  0
LINE
  8
0-2
  6
CONTINUOUS
 62
    3
 10
912.41905
 20
2004.4773
 11
912.53584
 21
2004.4822
  0
LINE
  8
0-2
  6
CONTINUOUS
 62
    3
 10
912.53584
 20
2004.4822
 11
912.65003
 21
2004.4847
  0
LINE
  8
0-2
  6
CONTINUOUS
 62
    3
 10
912.65003
 20
2004.4847
 11
912.76181
 21
2004.4847
  0
LINE
  8
0-2
  6
CONTINUOUS
 62
    3
 10
912.76181
 20
2004.4847
 11
912.87093
 21
2004.4822
  0
LINE
  8
0-2
  6
CONTINUOUS
 62
    3
 10
912.87093
 20
2004.4822
 11
912.97764
 21
2004.4773
  0
LINE
  8
0-2
  6
CONTINUOUS
 62
    3
 10
912.97764
 20
2004.4773
 11
913.08175
 21
2004.4701
  0
LINE
  8
0-2
  6
CONTINUOUS
 62
    3
 10
913.08175
 20
2004.4701
 11
913.18326
 21
2004.4604
  0
LINE
  8
0-2
  6
CONTINUOUS
 62
    3
 10
1187.8223
 20
2004.4604
 11
1187.7004
 21
2004.4701
  0
LINE
  8
0-2
  6
CONTINUOUS
 62
    3
 10
1187.7004
 20
2004.4701
 11
1187.5811
 21
2004.4773
  0
LINE
  8
0-2
  6
CONTINUOUS
 62
    3
 10
1187.5811
 20
2004.4773
 11
1187.4643
 21
2004.4822
  0
LINE
  8
0-2
  6
CONTINUOUS
 62
    3
 10
1187.4643
 20
2004.4822
 11
1187.35
 21
2004.4847
  0
LINE
  8
0-2
  6
CONTINUOUS
 62
    3
 10
1187.35
 20
2004.4847
 11
1187.2382
 21
2004.4847
  0
LINE
  8
0-2
  6
CONTINUOUS
 62
    3
 10
1187.2382
 20
2004.4847
 11
1187.1292
 21
2004.4822
  0
LINE
  8
0-2
  6
CONTINUOUS
 62
    3
 10
1187.1292
 20
2004.4822
 11
1187.0224
 21
2004.4773
  0
LINE
  8
0-2
  6
CONTINUOUS
 62
    3
 10
1187.0224
 20
2004.4773
 11
1186.9184
 21
2004.4701
  0
LINE
  8
0-2
  6
CONTINUOUS
 62
    3
 10
1186.9184
 20
2004.4701
 11
1186.8167
 21
2004.4604
  0
LINE
  8
0-8
  6
CONTINUOUS
 62
    7
 10
840.00009
 20
1776.3882
 11
1260
 21
1776.3881
  0
LINE
  8
0-8
  6
CONTINUOUS
 62
    7
 10
840.00009
 20
1776.3882
 11
840.00009
 21
1810.8587
  0
LINE
  8
0-8
  6
CONTINUOUS
 62
    7
 10
1260
 20
1810.8587
 11
1260
 21
1776.3881
  0
LINE
  8
0-2
  6
CONTINUOUS
 62
    3
 10
840.00009
 20
1826.906
 11
1260
 21
1826.9059
  0
LINE
  8
0-8
  6
CONTINUOUS
 62
    7
 10
949.13336
 20
2676.9063
 11
580.00021
 21
2676.9063
  0
LINE
  8
0-1
  6
CENTER2
 62
    7
 10
1050
 20
2676.9063
 11
1050
 21
1826.906
  0
LINE
  8
0-1
  6
CENTER2
 62
    7
 10
602.50016
 20
768.85124
 11
1497.4999
 21
768.85124
  0
LINE
  8
0-1
  6
CENTER2
 62
    7
 10
1050
 20
1662.2602
 11
1050
 21
321.35138
  0
LINE
  8
0-8
  6
CONTINUOUS
 62
    7
 10
370.00049
 20
1392.2605
 11
370.00049
 21
1662.2602
  0
LINE
  8
0-2
  6
CONTINUOUS
 62
    3
 10
1050
 20
1466.3285
 11
602.50016
 21
1332.084
  0
LINE
  8
0-2
  6
CONTINUOUS
 62
    3
 10
1497.4999
 20
1331.805
 11
1050
 21
1466.3285
  0
LINE
  8
0-2
  6
CONTINUOUS
 62
    3
 10
1295.1305
 20
2195.4193
 11
1338.2438
 21
2177.3443
  0
LINE
  8
0-2
  6
CONTINUOUS
 62
    3
 10
1213.4174
 20
2195.4193
 11
1245.1831
 21
2185.2582
  0
LINE
  8
0-2
  6
CONTINUOUS
 62
    3
 10
1258.5166
 20
2180.9931
 11
1269.9228
 21
2177.3446
  0
ARC
  8
0-2
  6
CONTINUOUS
 62
    3
 10
1252.5003
 20
1642.7601
 40
6.4996998
 50
90
 51
270
  0
ARC
  8
0-2
  6
CONTINUOUS
 62
    3
 10
847.49974
 20
1642.7601
 40
6.4996998
 50
270
 51
90
  0
CIRCLE
  8
0-2
  6
CONTINUOUS
 62
    3
 10
1050
 20
768.85124
 40
202.49999
  0
LINE
  8
0-2
  6
CONTINUOUS
 62
    3
 10
840.00009
 20
1841.8174
 11
838.84251
 21
1841.7042
  0
LINE
  8
0-2
  6
CONTINUOUS
 62
    3
 10
838.84251
 20
1841.7042
 11
837.7201
 21
1841.3678
  0
LINE
  8
0-2
  6
CONTINUOUS
 62
    3
 10
837.7201
 20
1841.3678
 11
836.66697
 21
1840.8185
  0
LINE
  8
0-2
  6
CONTINUOUS
 62
    3
 10
836.66697
 20
1840.8185
 11
835.71512
 21
1840.0731
  0
LINE
  8
0-2
  6
CONTINUOUS
 62
    3
 10
835.71512
 20
1840.0731
 11
834.89346
 21
1839.1541
  0
LINE
  8
0-2
  6
CONTINUOUS
 62
    3
 10
834.89346
 20
1839.1541
 11
834.22697
 21
1838.0895
  0
LINE
  8
0-2
  6
CONTINUOUS
 62
    3
 10
834.22697
 20
1838.0895
 11
833.73588
 21
1836.9117
  0
LINE
  8
0-2
  6
CONTINUOUS
 62
    3
 10
833.73588
 20
1836.9117
 11
833.43514
 21
1835.6563
  0
LINE
  8
0-2
  6
CONTINUOUS
 62
    3
 10
833.43514
 20
1835.6563
 11
833.33386
 21
1834.3616
  0
LINE
  8
0-2
  6
CONTINUOUS
 62
    3
 10
833.33386
 20
1834.3616
 11
833.43514
 21
1833.067
  0
LINE
  8
0-2
  6
CONTINUOUS
 62
    3
 10
833.43514
 20
1833.067
 11
833.73588
 21
1831.8116
  0
LINE
  8
0-2
  6
CONTINUOUS
 62
    3
 10
833.73588
 20
1831.8116
 11
834.22697
 21
1830.6337
  0
LINE
  8
0-2
  6
CONTINUOUS
 62
    3
 10
834.22697
 20
1830.6337
 11
834.89346
 21
1829.5691
  0
LINE
  8
0-2
  6
CONTINUOUS
 62
    3
 10
834.89346
 20
1829.5691
 11
835.71512
 21
1828.6502
  0
LINE
  8
0-2
  6
CONTINUOUS
 62
    3
 10
835.71512
 20
1828.6502
 11
836.66697
 21
1827.9047
  0
LINE
  8
0-2
  6
CONTINUOUS
 62
    3
 10
836.66697
 20
1827.9047
 11
837.7201
 21
1827.3555
  0
LINE
  8
0-2
  6
CONTINUOUS
 62
    3
 10
837.7201
 20
1827.3555
 11
838.84251
 21
1827.0191
  0
LINE
  8
0-2
  6
CONTINUOUS
 62
    3
 10
838.84251
 20
1827.0191
 11
840.00009
 21
1826.9058
  0
LINE
  8
0-2
  6
CONTINUOUS
 62
    3
 10
839.9991
 20
1886.5548
 11
838.84152
 21
1886.4415
  0
LINE
  8
0-2
  6
CONTINUOUS
 62
    3
 10
838.84152
 20
1886.4415
 11
837.71911
 21
1886.1052
  0
LINE
  8
0-2
  6
CONTINUOUS
 62
    3
 10
837.71911
 20
1886.1052
 11
836.66599
 21
1885.5559
  0
LINE
  8
0-2
  6
CONTINUOUS
 62
    3
 10
836.66599
 20
1885.5559
 11
835.71413
 21
1884.8105
  0
LINE
  8
0-2
  6
CONTINUOUS
 62
    3
 10
835.71413
 20
1884.8105
 11
834.89247
 21
1883.8915
  0
LINE
  8
0-2
  6
CONTINUOUS
 62
    3
 10
834.89247
 20
1883.8915
 11
834.22598
 21
1882.8269
  0
LINE
  8
0-2
  6
CONTINUOUS
 62
    3
 10
834.22598
 20
1882.8269
 11
833.7349
 21
1881.649
  0
LINE
  8
0-2
  6
CONTINUOUS
 62
    3
 10
833.7349
 20
1881.649
 11
833.43415
 21
1880.3937
  0
LINE
  8
0-2
  6
CONTINUOUS
 62
    3
 10
833.43415
 20
1880.3937
 11
833.33287
 21
1879.099
  0
LINE
  8
0-2
  6
CONTINUOUS
 62
    3
 10
833.33287
 20
1879.099
 11
833.43415
 21
1877.8043
  0
LINE
  8
0-2
  6
CONTINUOUS
 62
    3
 10
833.43415
 20
1877.8043
 11
833.7349
 21
1876.549
  0
LINE
  8
0-2
  6
CONTINUOUS
 62
    3
 10
833.7349
 20
1876.549
 11
834.22598
 21
1875.3711
  0
LINE
  8
0-2
  6
CONTINUOUS
 62
    3
 10
834.22598
 20
1875.3711
 11
834.89247
 21
1874.3065
  0
LINE
  8
0-2
  6
CONTINUOUS
 62
    3
 10
834.89247
 20
1874.3065
 11
835.71413
 21
1873.3875
  0
LINE
  8
0-2
  6
CONTINUOUS
 62
    3
 10
835.71413
 20
1873.3875
 11
836.66599
 21
1872.6421
  0
LINE
  8
0-2
  6
CONTINUOUS
 62
    3
 10
836.66599
 20
1872.6421
 11
837.71911
 21
1872.0929
  0
LINE
  8
0-2
  6
CONTINUOUS
 62
    3
 10
837.71911
 20
1872.0929
 11
838.84152
 21
1871.7565
  0
LINE
  8
0-2
  6
CONTINUOUS
 62
    3
 10
838.84152
 20
1871.7565
 11
839.9991
 21
1871.6432
  0
LINE
  8
0-2
  6
CONTINUOUS
 62
    3
 10
1260
 20
1826.9058
 11
1261.1575
 21
1827.0191
  0
LINE
  8
0-2
  6
CONTINUOUS
 62
    3
 10
1261.1575
 20
1827.0191
 11
1262.2799
 21
1827.3555
  0
LINE
  8
0-2
  6
CONTINUOUS
 62
    3
 10
1262.2799
 20
1827.3555
 11
1263.3331
 21
1827.9047
  0
LINE
  8
0-2
  6
CONTINUOUS
 62
    3
 10
1263.3331
 20
1827.9047
 11
1264.2849
 21
1828.6502
  0
LINE
  8
0-2
  6
CONTINUOUS
 62
    3
 10
1264.2849
 20
1828.6502
 11
1265.1066
 21
1829.5691
  0
LINE
  8
0-2
  6
CONTINUOUS
 62
    3
 10
1265.1066
 20
1829.5691
 11
1265.7731
 21
1830.6337
  0
LINE
  8
0-2
  6
CONTINUOUS
 62
    3
 10
1265.7731
 20
1830.6337
 11
1266.2642
 21
1831.8116
  0
LINE
  8
0-2
  6
CONTINUOUS
 62
    3
 10
1266.2642
 20
1831.8116
 11
1266.5649
 21
1833.067
  0
LINE
  8
0-2
  6
CONTINUOUS
 62
    3
 10
1266.5649
 20
1833.067
 11
1266.6662
 21
1834.3616
  0
LINE
  8
0-2
  6
CONTINUOUS
 62
    3
 10
1266.6662
 20
1834.3616
 11
1266.5649
 21
1835.6563
  0
LINE
  8
0-2
  6
CONTINUOUS
 62
    3
 10
1266.5649
 20
1835.6563
 11
1266.2642
 21
1836.9117
  0
LINE
  8
0-2
  6
CONTINUOUS
 62
    3
 10
1266.2642
 20
1836.9117
 11
1265.7731
 21
1838.0895
  0
LINE
  8
0-2
  6
CONTINUOUS
 62
    3
 10
1265.7731
 20
1838.0895
 11
1265.1066
 21
1839.1541
  0
LINE
  8
0-2
  6
CONTINUOUS
 62
    3
 10
1265.1066
 20
1839.1541
 11
1264.2849
 21
1840.0731
  0
LINE
  8
0-2
  6
CONTINUOUS
 62
    3
 10
1264.2849
 20
1840.0731
 11
1263.3331
 21
1840.8185
  0
LINE
  8
0-2
  6
CONTINUOUS
 62
    3
 10
1263.3331
 20
1840.8185
 11
1262.2799
 21
1841.3678
  0
LINE
  8
0-2
  6
CONTINUOUS
 62
    3
 10
1262.2799
 20
1841.3678
 11
1261.1575
 21
1841.7042
  0
LINE
  8
0-2
  6
CONTINUOUS
 62
    3
 10
1261.1575
 20
1841.7042
 11
1260
 21
1841.8174
  0
LINE
  8
0-2
  6
CONTINUOUS
 62
    3
 10
1259.999
 20
1871.6432
 11
1261.1566
 21
1871.7565
  0
LINE
  8
0-2
  6
CONTINUOUS
 62
    3
 10
1261.1566
 20
1871.7565
 11
1262.279
 21
1872.0929
  0
LINE
  8
0-2
  6
CONTINUOUS
 62
    3
 10
1262.279
 20
1872.0929
 11
1263.3321
 21
1872.6421
  0
LINE
  8
0-2
  6
CONTINUOUS
 62
    3
 10
1263.3321
 20
1872.6421
 11
1264.2839
 21
1873.3875
  0
LINE
  8
0-2
  6
CONTINUOUS
 62
    3
 10
1264.2839
 20
1873.3875
 11
1265.1056
 21
1874.3065
  0
LINE
  8
0-2
  6
CONTINUOUS
 62
    3
 10
1265.1056
 20
1874.3065
 11
1265.7721
 21
1875.3711
  0
LINE
  8
0-2
  6
CONTINUOUS
 62
    3
 10
1265.7721
 20
1875.3711
 11
1266.2632
 21
1876.549
  0
LINE
  8
0-2
  6
CONTINUOUS
 62
    3
 10
1266.2632
 20
1876.549
 11
1266.5639
 21
1877.8043
  0
LINE
  8
0-2
  6
CONTINUOUS
 62
    3
 10
1266.5639
 20
1877.8043
 11
1266.6652
 21
1879.099
  0
LINE
  8
0-2
  6
CONTINUOUS
 62
    3
 10
1266.6652
 20
1879.099
 11
1266.5639
 21
1880.3937
  0
LINE
  8
0-2
  6
CONTINUOUS
 62
    3
 10
1266.5639
 20
1880.3937
 11
1266.2632
 21
1881.649
  0
LINE
  8
0-2
  6
CONTINUOUS
 62
    3
 10
1266.2632
 20
1881.649
 11
1265.7721
 21
1882.8269
  0
LINE
  8
0-2
  6
CONTINUOUS
 62
    3
 10
1265.7721
 20
1882.8269
 11
1265.1056
 21
1883.8915
  0
LINE
  8
0-2
  6
CONTINUOUS
 62
    3
 10
1265.1056
 20
1883.8915
 11
1264.2839
 21
1884.8105
  0
LINE
  8
0-2
  6
CONTINUOUS
 62
    3
 10
1264.2839
 20
1884.8105
 11
1263.3321
 21
1885.5559
  0
LINE
  8
0-2
  6
CONTINUOUS
 62
    3
 10
1263.3321
 20
1885.5559
 11
1262.279
 21
1886.1052
  0
LINE
  8
0-2
  6
CONTINUOUS
 62
    3
 10
1262.279
 20
1886.1052
 11
1261.1566
 21
1886.4415
  0
LINE
  8
0-2
  6
CONTINUOUS
 62
    3
 10
1261.1566
 20
1886.4415
 11
1259.999
 21
1886.5548
  0
LINE
  8
0-2
  6
CONTINUOUS
 62
    3
 10
710.00101
 20
2177.3447
 11
708.84343
 21
2177.2315
  0
LINE
  8
0-2
  6
CONTINUOUS
 62
    3
 10
708.84343
 20
2177.2315
 11
707.72103
 21
2176.8951
  0
LINE
  8
0-2
  6
CONTINUOUS
 62
    3
 10
707.72103
 20
2176.8951
 11
706.6679
 21
2176.3458
  0
LINE
  8
0-2
  6
CONTINUOUS
 62
    3
 10
706.6679
 20
2176.3458
 11
705.71605
 21
2175.6004
  0
LINE
  8
0-2
  6
CONTINUOUS
 62
    3
 10
705.71605
 20
2175.6004
 11
704.89439
 21
2174.6814
  0
LINE
  8
0-2
  6
CONTINUOUS
 62
    3
 10
704.89439
 20
2174.6814
 11
704.22789
 21
2173.6168
  0
LINE
  8
0-2
  6
CONTINUOUS
 62
    3
 10
704.22789
 20
2173.6168
 11
703.73681
 21
2172.439
  0
LINE
  8
0-2
  6
CONTINUOUS
 62
    3
 10
703.73681
 20
2172.439
 11
703.43606
 21
2171.1836
  0
LINE
  8
0-2
  6
CONTINUOUS
 62
    3
 10
703.43606
 20
2171.1836
 11
703.33479
 21
2169.8889
  0
LINE
  8
0-2
  6
CONTINUOUS
 62
    3
 10
703.33479
 20
2169.8889
 11
703.43606
 21
2168.5943
  0
LINE
  8
0-2
  6
CONTINUOUS
 62
    3
 10
703.43606
 20
2168.5943
 11
703.73681
 21
2167.3389
  0
LINE
  8
0-2
  6
CONTINUOUS
 62
    3
 10
703.73681
 20
2167.3389
 11
704.22789
 21
2166.161
  0
LINE
  8
0-2
  6
CONTINUOUS
 62
    3
 10
704.22789
 20
2166.161
 11
704.89439
 21
2165.0965
  0
LINE
  8
0-2
  6
CONTINUOUS
 62
    3
 10
704.89439
 20
2165.0965
 11
705.71605
 21
2164.1775
  0
LINE
  8
0-2
  6
CONTINUOUS
 62
    3
 10
705.71605
 20
2164.1775
 11
706.6679
 21
2163.432
  0
LINE
  8
0-2
  6
CONTINUOUS
 62
    3
 10
706.6679
 20
2163.432
 11
707.72103
 21
2162.8828
  0
LINE
  8
0-2
  6
CONTINUOUS
 62
    3
 10
707.72103
 20
2162.8828
 11
708.84343
 21
2162.5464
  0
LINE
  8
0-2
  6
CONTINUOUS
 62
    3
 10
708.84343
 20
2162.5464
 11
710.00101
 21
2162.4332
  0
LINE
  8
0-2
  6
CONTINUOUS
 62
    3
 10
710.00008
 20
2087.8697
 11
708.84251
 21
2087.7565
  0
LINE
  8
0-2
  6
CONTINUOUS
 62
    3
 10
708.84251
 20
2087.7565
 11
707.7201
 21
2087.4201
  0
LINE
  8
0-2
  6
CONTINUOUS
 62
    3
 10
707.7201
 20
2087.4201
 11
706.66697
 21
2086.8709
  0
LINE
  8
0-2
  6
CONTINUOUS
 62
    3
 10
706.66697
 20
2086.8709
 11
705.71512
 21
2086.1254
  0
LINE
  8
0-2
  6
CONTINUOUS
 62
    3
 10
705.71512
 20
2086.1254
 11
704.89346
 21
2085.2064
  0
LINE
  8
0-2
  6
CONTINUOUS
 62
    3
 10
704.89346
 20
2085.2064
 11
704.22696
 21
2084.1419
  0
LINE
  8
0-2
  6
CONTINUOUS
 62
    3
 10
704.22696
 20
2084.1419
 11
703.73588
 21
2082.964
  0
LINE
  8
0-2
  6
CONTINUOUS
 62
    3
 10
703.73588
 20
2082.964
 11
703.43513
 21
2081.7086
  0
LINE
  8
0-2
  6
CONTINUOUS
 62
    3
 10
703.43513
 20
2081.7086
 11
703.33386
 21
2080.414
  0
LINE
  8
0-2
  6
CONTINUOUS
 62
    3
 10
703.33386
 20
2080.414
 11
703.43513
 21
2079.1193
  0
LINE
  8
0-2
  6
CONTINUOUS
 62
    3
 10
703.43513
 20
2079.1193
 11
703.73588
 21
2077.8639
  0
LINE
  8
0-2
  6
CONTINUOUS
 62
    3
 10
703.73588
 20
2077.8639
 11
704.22696
 21
2076.6861
  0
LINE
  8
0-2
  6
CONTINUOUS
 62
    3
 10
704.22696
 20
2076.6861
 11
704.89346
 21
2075.6215
  0
LINE
  8
0-2
  6
CONTINUOUS
 62
    3
 10
704.89346
 20
2075.6215
 11
705.71512
 21
2074.7025
  0
LINE
  8
0-2
  6
CONTINUOUS
 62
    3
 10
705.71512
 20
2074.7025
 11
706.66697
 21
2073.9571
  0
LINE
  8
0-2
  6
CONTINUOUS
 62
    3
 10
706.66697
 20
2073.9571
 11
707.7201
 21
2073.4078
  0
LINE
  8
0-2
  6
CONTINUOUS
 62
    3
 10
707.7201
 20
2073.4078
 11
708.84251
 21
2073.0714
  0
LINE
  8
0-2
  6
CONTINUOUS
 62
    3
 10
708.84251
 20
2073.0714
 11
710.00008
 21
2072.9582
  0
LINE
  8
0-2
  6
CONTINUOUS
 62
    3
 10
1390.0009
 20
2162.4332
 11
1391.1585
 21
2162.5464
  0
LINE
  8
0-2
  6
CONTINUOUS
 62
    3
 10
1391.1585
 20
2162.5464
 11
1392.2809
 21
2162.8828
  0
LINE
  8
0-2
  6
CONTINUOUS
 62
    3
 10
1392.2809
 20
2162.8828
 11
1393.334
 21
2163.432
  0
LINE
  8
0-2
  6
CONTINUOUS
 62
    3
 10
1393.334
 20
2163.432
 11
1394.2859
 21
2164.1775
  0
LINE
  8
0-2
  6
CONTINUOUS
 62
    3
 10
1394.2859
 20
2164.1775
 11
1395.1075
 21
2165.0965
  0
LINE
  8
0-2
  6
CONTINUOUS
 62
    3
 10
1395.1075
 20
2165.0965
 11
1395.774
 21
2166.161
  0
LINE
  8
0-2
  6
CONTINUOUS
 62
    3
 10
1395.774
 20
2166.161
 11
1396.2651
 21
2167.3389
  0
LINE
  8
0-2
  6
CONTINUOUS
 62
    3
 10
1396.2651
 20
2167.3389
 11
1396.5658
 21
2168.5943
  0
LINE
  8
0-2
  6
CONTINUOUS
 62
    3
 10
1396.5658
 20
2168.5943
 11
1396.6671
 21
2169.8889
  0
LINE
  8
0-2
  6
CONTINUOUS
 62
    3
 10
1396.6671
 20
2169.8889
 11
1396.5658
 21
2171.1836
  0
LINE
  8
0-2
  6
CONTINUOUS
 62
    3
 10
1396.5658
 20
2171.1836
 11
1396.2651
 21
2172.439
  0
LINE
  8
0-2
  6
CONTINUOUS
 62
    3
 10
1396.2651
 20
2172.439
 11
1395.774
 21
2173.6168
  0
LINE
  8
0-2
  6
CONTINUOUS
 62
    3
 10
1395.774
 20
2173.6168
 11
1395.1075
 21
2174.6814
  0
LINE
  8
0-2
  6
CONTINUOUS
 62
    3
 10
1395.1075
 20
2174.6814
 11
1394.2859
 21
2175.6004
  0
LINE
  8
0-2
  6
CONTINUOUS
 62
    3
 10
1394.2859
 20
2175.6004
 11
1393.334
 21
2176.3458
  0
LINE
  8
0-2
  6
CONTINUOUS
 62
    3
 10
1393.334
 20
2176.3458
 11
1392.2809
 21
2176.8951
  0
LINE
  8
0-2
  6
CONTINUOUS
 62
    3
 10
1392.2809
 20
2176.8951
 11
1391.1585
 21
2177.2315
  0
LINE
  8
0-2
  6
CONTINUOUS
 62
    3
 10
1391.1585
 20
2177.2315
 11
1390.0009
 21
2177.3447
  0
LINE
  8
0-2
  6
CONTINUOUS
 62
    3
 10
1390.0002
 20
2072.9582
 11
1391.1577
 21
2073.0714
  0
LINE
  8
0-2
  6
CONTINUOUS
 62
    3
 10
1391.1577
 20
2073.0714
 11
1392.2801
 21
2073.4078
  0
LINE
  8
0-2
  6
CONTINUOUS
 62
    3
 10
1392.2801
 20
2073.4078
 11
1393.3333
 21
2073.9571
  0
LINE
  8
0-2
  6
CONTINUOUS
 62
    3
 10
1393.3333
 20
2073.9571
 11
1394.2851
 21
2074.7025
  0
LINE
  8
0-2
  6
CONTINUOUS
 62
    3
 10
1394.2851
 20
2074.7025
 11
1395.1068
 21
2075.6215
  0
LINE
  8
0-2
  6
CONTINUOUS
 62
    3
 10
1395.1068
 20
2075.6215
 11
1395.7733
 21
2076.6861
  0
LINE
  8
0-2
  6
CONTINUOUS
 62
    3
 10
1395.7733
 20
2076.6861
 11
1396.2644
 21
2077.8639
  0
LINE
  8
0-2
  6
CONTINUOUS
 62
    3
 10
1396.2644
 20
2077.8639
 11
1396.5651
 21
2079.1193
  0
LINE
  8
0-2
  6
CONTINUOUS
 62
    3
 10
1396.5651
 20
2079.1193
 11
1396.6664
 21
2080.414
  0
LINE
  8
0-2
  6
CONTINUOUS
 62
    3
 10
1396.6664
 20
2080.414
 11
1396.5651
 21
2081.7086
  0
LINE
  8
0-2
  6
CONTINUOUS
 62
    3
 10
1396.5651
 20
2081.7086
 11
1396.2644
 21
2082.964
  0
LINE
  8
0-2
  6
CONTINUOUS
 62
    3
 10
1396.2644
 20
2082.964
 11
1395.7733
 21
2084.1419
  0
LINE
  8
0-2
  6
CONTINUOUS
 62
    3
 10
1395.7733
 20
2084.1419
 11
1395.1068
 21
2085.2064
  0
LINE
  8
0-2
  6
CONTINUOUS
 62
    3
 10
1395.1068
 20
2085.2064
 11
1394.2851
 21
2086.1254
  0
LINE
  8
0-2
  6
CONTINUOUS
 62
    3
 10
1394.2851
 20
2086.1254
 11
1393.3333
 21
2086.8709
  0
LINE
  8
0-2
  6
CONTINUOUS
 62
    3
 10
1393.3333
 20
2086.8709
 11
1392.2801
 21
2087.4201
  0
LINE
  8
0-2
  6
CONTINUOUS
 62
    3
 10
1392.2801
 20
2087.4201
 11
1391.1577
 21
2087.7565
  0
LINE
  8
0-2
  6
CONTINUOUS
 62
    3
 10
1391.1577
 20
2087.7565
 11
1390.0002
 21
2087.8697
  0
LINE
  8
0-2
  6
CONTINUOUS
 62
    3
 10
710.00002
 20
2490.5024
 11
708.84245
 21
2490.3891
  0
LINE
  8
0-2
  6
CONTINUOUS
 62
    3
 10
708.84245
 20
2490.3891
 11
707.72004
 21
2490.0527
  0
LINE
  8
0-2
  6
CONTINUOUS
 62
    3
 10
707.72004
 20
2490.0527
 11
706.66691
 21
2489.5035
  0
LINE
  8
0-2
  6
CONTINUOUS
 62
    3
 10
706.66691
 20
2489.5035
 11
705.71506
 21
2488.758
  0
LINE
  8
0-2
  6
CONTINUOUS
 62
    3
 10
705.71506
 20
2488.758
 11
704.8934
 21
2487.8391
  0
LINE
  8
0-2
  6
CONTINUOUS
 62
    3
 10
704.8934
 20
2487.8391
 11
704.2269
 21
2486.7745
  0
LINE
  8
0-2
  6
CONTINUOUS
 62
    3
 10
704.2269
 20
2486.7745
 11
703.73582
 21
2485.5966
  0
LINE
  8
0-2
  6
CONTINUOUS
 62
    3
 10
703.73582
 20
2485.5966
 11
703.43507
 21
2484.3413
  0
LINE
  8
0-2
  6
CONTINUOUS
 62
    3
 10
703.43507
 20
2484.3413
 11
703.3338
 21
2483.0466
  0
LINE
  8
0-2
  6
CONTINUOUS
 62
    3
 10
703.3338
 20
2483.0466
 11
703.43507
 21
2481.7519
  0
LINE
  8
0-2
  6
CONTINUOUS
 62
    3
 10
703.43507
 20
2481.7519
 11
703.73582
 21
2480.4965
  0
LINE
  8
0-2
  6
CONTINUOUS
 62
    3
 10
703.73582
 20
2480.4965
 11
704.2269
 21
2479.3187
  0
LINE
  8
0-2
  6
CONTINUOUS
 62
    3
 10
704.2269
 20
2479.3187
 11
704.8934
 21
2478.2541
  0
LINE
  8
0-2
  6
CONTINUOUS
 62
    3
 10
704.8934
 20
2478.2541
 11
705.71506
 21
2477.3351
  0
LINE
  8
0-2
  6
CONTINUOUS
 62
    3
 10
705.71506
 20
2477.3351
 11
706.66691
 21
2476.5897
  0
LINE
  8
0-2
  6
CONTINUOUS
 62
    3
 10
706.66691
 20
2476.5897
 11
707.72004
 21
2476.0404
  0
LINE
  8
0-2
  6
CONTINUOUS
 62
    3
 10
707.72004
 20
2476.0404
 11
708.84245
 21
2475.704
  0
LINE
  8
0-2
  6
CONTINUOUS
 62
    3
 10
708.84245
 20
2475.704
 11
710.00002
 21
2475.5908
  0
LINE
  8
0-2
  6
CONTINUOUS
 62
    3
 10
710.00002
 20
2401.0281
 11
708.84245
 21
2400.9149
  0
LINE
  8
0-2
  6
CONTINUOUS
 62
    3
 10
708.84245
 20
2400.9149
 11
707.72004
 21
2400.5785
  0
LINE
  8
0-2
  6
CONTINUOUS
 62
    3
 10
707.72004
 20
2400.5785
 11
706.66691
 21
2400.0292
  0
LINE
  8
0-2
  6
CONTINUOUS
 62
    3
 10
706.66691
 20
2400.0292
 11
705.71506
 21
2399.2838
  0
LINE
  8
0-2
  6
CONTINUOUS
 62
    3
 10
705.71506
 20
2399.2838
 11
704.8934
 21
2398.3648
  0
LINE
  8
0-2
  6
CONTINUOUS
 62
    3
 10
704.8934
 20
2398.3648
 11
704.2269
 21
2397.3002
  0
LINE
  8
0-2
  6
CONTINUOUS
 62
    3
 10
704.2269
 20
2397.3002
 11
703.73582
 21
2396.1224
  0
LINE
  8
0-2
  6
CONTINUOUS
 62
    3
 10
703.73582
 20
2396.1224
 11
703.43507
 21
2394.867
  0
LINE
  8
0-2
  6
CONTINUOUS
 62
    3
 10
703.43507
 20
2394.867
 11
703.3338
 21
2393.5723
  0
LINE
  8
0-2
  6
CONTINUOUS
 62
    3
 10
703.3338
 20
2393.5723
 11
703.43507
 21
2392.2776
  0
LINE
  8
0-2
  6
CONTINUOUS
 62
    3
 10
703.43507
 20
2392.2776
 11
703.73582
 21
2391.0223
  0
LINE
  8
0-2
  6
CONTINUOUS
 62
    3
 10
703.73582
 20
2391.0223
 11
704.2269
 21
2389.8444
  0
LINE
  8
0-2
  6
CONTINUOUS
 62
    3
 10
704.2269
 20
2389.8444
 11
704.8934
 21
2388.7798
  0
LINE
  8
0-2
  6
CONTINUOUS
 62
    3
 10
704.8934
 20
2388.7798
 11
705.71506
 21
2387.8609
  0
LINE
  8
0-2
  6
CONTINUOUS
 62
    3
 10
705.71506
 20
2387.8609
 11
706.66691
 21
2387.1154
  0
LINE
  8
0-2
  6
CONTINUOUS
 62
    3
 10
706.66691
 20
2387.1154
 11
707.72004
 21
2386.5662
  0
LINE
  8
0-2
  6
CONTINUOUS
 62
    3
 10
707.72004
 20
2386.5662
 11
708.84245
 21
2386.2298
  0
LINE
  8
0-2
  6
CONTINUOUS
 62
    3
 10
708.84245
 20
2386.2298
 11
710.00002
 21
2386.1165
  0
LINE
  8
0-2
  6
CONTINUOUS
 62
    3
 10
1389.9999
 20
2475.5908
 11
1391.1575
 21
2475.704
  0
LINE
  8
0-2
  6
CONTINUOUS
 62
    3
 10
1391.1575
 20
2475.704
 11
1392.2799
 21
2476.0404
  0
LINE
  8
0-2
  6
CONTINUOUS
 62
    3
 10
1392.2799
 20
2476.0404
 11
1393.333
 21
2476.5897
  0
LINE
  8
0-2
  6
CONTINUOUS
 62
    3
 10
1393.333
 20
2476.5897
 11
1394.2849
 21
2477.3351
  0
LINE
  8
0-2
  6
CONTINUOUS
 62
    3
 10
1394.2849
 20
2477.3351
 11
1395.1065
 21
2478.2541
  0
LINE
  8
0-2
  6
CONTINUOUS
 62
    3
 10
1395.1065
 20
2478.2541
 11
1395.773
 21
2479.3187
  0
LINE
  8
0-2
  6
CONTINUOUS
 62
    3
 10
1395.773
 20
2479.3187
 11
1396.2641
 21
2480.4965
  0
LINE
  8
0-2
  6
CONTINUOUS
 62
    3
 10
1396.2641
 20
2480.4965
 11
1396.5649
 21
2481.7519
  0
LINE
  8
0-2
  6
CONTINUOUS
 62
    3
 10
1396.5649
 20
2481.7519
 11
1396.6661
 21
2483.0466
  0
LINE
  8
0-2
  6
CONTINUOUS
 62
    3
 10
1396.6661
 20
2483.0466
 11
1396.5649
 21
2484.3413
  0
LINE
  8
0-2
  6
CONTINUOUS
 62
    3
 10
1396.5649
 20
2484.3413
 11
1396.2641
 21
2485.5966
  0
LINE
  8
0-2
  6
CONTINUOUS
 62
    3
 10
1396.2641
 20
2485.5966
 11
1395.773
 21
2486.7745
  0
LINE
  8
0-2
  6
CONTINUOUS
 62
    3
 10
1395.773
 20
2486.7745
 11
1395.1065
 21
2487.8391
  0
LINE
  8
0-2
  6
CONTINUOUS
 62
    3
 10
1395.1065
 20
2487.8391
 11
1394.2849
 21
2488.758
  0
LINE
  8
0-2
  6
CONTINUOUS
 62
    3
 10
1394.2849
 20
2488.758
 11
1393.333
 21
2489.5035
  0
LINE
  8
0-2
  6
CONTINUOUS
 62
    3
 10
1393.333
 20
2489.5035
 11
1392.2799
 21
2490.0527
  0
LINE
  8
0-2
  6
CONTINUOUS
 62
    3
 10
1392.2799
 20
2490.0527
 11
1391.1575
 21
2490.3891
  0
LINE
  8
0-2
  6
CONTINUOUS
 62
    3
 10
1391.1575
 20
2490.3891
 11
1389.9999
 21
2490.5024
  0
LINE
  8
0-2
  6
CONTINUOUS
 62
    3
 10
1389.9999
 20
2386.1165
 11
1391.1575
 21
2386.2298
  0
LINE
  8
0-2
  6
CONTINUOUS
 62
    3
 10
1391.1575
 20
2386.2298
 11
1392.2799
 21
2386.5662
  0
LINE
  8
0-2
  6
CONTINUOUS
 62
    3
 10
1392.2799
 20
2386.5662
 11
1393.333
 21
2387.1154
  0
LINE
  8
0-2
  6
CONTINUOUS
 62
    3
 10
1393.333
 20
2387.1154
 11
1394.2849
 21
2387.8609
  0
LINE
  8
0-2
  6
CONTINUOUS
 62
    3
 10
1394.2849
 20
2387.8609
 11
1395.1065
 21
2388.7798
  0
LINE
  8
0-2
  6
CONTINUOUS
 62
    3
 10
1395.1065
 20
2388.7798
 11
1395.773
 21
2389.8444
  0
LINE
  8
0-2
  6
CONTINUOUS
 62
    3
 10
1395.773
 20
2389.8444
 11
1396.2641
 21
2391.0223
  0
LINE
  8
0-2
  6
CONTINUOUS
 62
    3
 10
1396.2641
 20
2391.0223
 11
1396.5649
 21
2392.2776
  0
LINE
  8
0-2
  6
CONTINUOUS
 62
    3
 10
1396.5649
 20
2392.2776
 11
1396.6661
 21
2393.5723
  0
LINE
  8
0-2
  6
CONTINUOUS
 62
    3
 10
1396.6661
 20
2393.5723
 11
1396.5649
 21
2394.867
  0
LINE
  8
0-2
  6
CONTINUOUS
 62
    3
 10
1396.5649
 20
2394.867
 11
1396.2641
 21
2396.1224
  0
LINE
  8
0-2
  6
CONTINUOUS
 62
    3
 10
1396.2641
 20
2396.1224
 11
1395.773
 21
2397.3002
  0
LINE
  8
0-2
  6
CONTINUOUS
 62
    3
 10
1395.773
 20
2397.3002
 11
1395.1065
 21
2398.3648
  0
LINE
  8
0-2
  6
CONTINUOUS
 62
    3
 10
1395.1065
 20
2398.3648
 11
1394.2849
 21
2399.2838
  0
LINE
  8
0-2
  6
CONTINUOUS
 62
    3
 10
1394.2849
 20
2399.2838
 11
1393.333
 21
2400.0292
  0
LINE
  8
0-2
  6
CONTINUOUS
 62
    3
 10
1393.333
 20
2400.0292
 11
1392.2799
 21
2400.5785
  0
LINE
  8
0-2
  6
CONTINUOUS
 62
    3
 10
1392.2799
 20
2400.5785
 11
1391.1575
 21
2400.9149
  0
LINE
  8
0-2
  6
CONTINUOUS
 62
    3
 10
1391.1575
 20
2400.9149
 11
1389.9999
 21
2401.0281
  0
LINE
  8
0-2
  6
CONTINUOUS
 62
    3
 10
1022.6835
 20
2565.064
 11
1023.0328
 21
2563.7634
  0
LINE
  8
0-2
  6
CONTINUOUS
 62
    3
 10
1023.0328
 20
2563.7634
 11
1023.5787
 21
2562.5503
  0
LINE
  8
0-2
  6
CONTINUOUS
 62
    3
 10
1023.5787
 20
2562.5503
 11
1024.3046
 21
2561.4617
  0
LINE
  8
0-2
  6
CONTINUOUS
 62
    3
 10
1024.3046
 20
2561.4617
 11
1025.1885
 21
2560.5306
  0
LINE
  8
0-2
  6
CONTINUOUS
 62
    3
 10
1025.1885
 20
2560.5306
 11
1026.2036
 21
2559.7853
  0
LINE
  8
0-2
  6
CONTINUOUS
 62
    3
 10
1026.2036
 20
2559.7853
 11
1027.3189
 21
2559.2484
  0
LINE
  8
0-2
  6
CONTINUOUS
 62
    3
 10
1027.3189
 20
2559.2484
 11
1028.5007
 21
2558.9364
  0
LINE
  8
0-2
  6
CONTINUOUS
 62
    3
 10
1028.5007
 20
2558.9364
 11
1029.7129
 21
2558.8586
  0
LINE
  8
0-2
  6
CONTINUOUS
 62
    3
 10
1029.7129
 20
2558.8586
 11
1030.9188
 21
2559.0174
  0
LINE
  8
0-2
  6
CONTINUOUS
 62
    3
 10
1030.9188
 20
2559.0174
 11
1032.0818
 21
2559.4081
  0
LINE
  8
0-2
  6
CONTINUOUS
 62
    3
 10
1032.0818
 20
2559.4081
 11
1033.1664
 21
2560.0186
  0
LINE
  8
0-2
  6
CONTINUOUS
 62
    3
 10
1033.1664
 20
2560.0186
 11
1034.1397
 21
2560.8305
  0
LINE
  8
0-2
  6
CONTINUOUS
 62
    3
 10
1034.1397
 20
2560.8305
 11
1034.9722
 21
2561.8191
  0
LINE
  8
0-2
  6
CONTINUOUS
 62
    3
 10
1034.9722
 20
2561.8191
 11
1035.6386
 21
2562.9544
  0
LINE
  8
0-2
  6
CONTINUOUS
 62
    3
 10
1035.6386
 20
2562.9544
 11
1036.1186
 21
2564.2019
  0
LINE
  8
0-2
  6
CONTINUOUS
 62
    3
 10
1036.1186
 20
2564.2019
 11
1036.3251
 21
2565.064
  0
LINE
  8
0-2
  6
CONTINUOUS
 62
    3
 10
1063.6748
 20
2565.064
 11
1064.024
 21
2563.7634
  0
LINE
  8
0-2
  6
CONTINUOUS
 62
    3
 10
1064.024
 20
2563.7634
 11
1064.5699
 21
2562.5503
  0
LINE
  8
0-2
  6
CONTINUOUS
 62
    3
 10
1064.5699
 20
2562.5503
 11
1065.2959
 21
2561.4617
  0
LINE
  8
0-2
  6
CONTINUOUS
 62
    3
 10
1065.2959
 20
2561.4617
 11
1066.1798
 21
2560.5306
  0
LINE
  8
0-2
  6
CONTINUOUS
 62
    3
 10
1066.1798
 20
2560.5306
 11
1067.1948
 21
2559.7853
  0
LINE
  8
0-2
  6
CONTINUOUS
 62
    3
 10
1067.1948
 20
2559.7853
 11
1068.3102
 21
2559.2484
  0
LINE
  8
0-2
  6
CONTINUOUS
 62
    3
 10
1068.3102
 20
2559.2484
 11
1069.492
 21
2558.9364
  0
LINE
  8
0-2
  6
CONTINUOUS
 62
    3
 10
1069.492
 20
2558.9364
 11
1070.7042
 21
2558.8586
  0
LINE
  8
0-2
  6
CONTINUOUS
 62
    3
 10
1070.7042
 20
2558.8586
 11
1071.9101
 21
2559.0174
  0
LINE
  8
0-2
  6
CONTINUOUS
 62
    3
 10
1071.9101
 20
2559.0174
 11
1073.073
 21
2559.4081
  0
LINE
  8
0-2
  6
CONTINUOUS
 62
    3
 10
1073.073
 20
2559.4081
 11
1074.1576
 21
2560.0186
  0
LINE
  8
0-2
  6
CONTINUOUS
 62
    3
 10
1074.1576
 20
2560.0186
 11
1075.131
 21
2560.8305
  0
LINE
  8
0-2
  6
CONTINUOUS
 62
    3
 10
1075.131
 20
2560.8305
 11
1075.9635
 21
2561.8191
  0
LINE
  8
0-2
  6
CONTINUOUS
 62
    3
 10
1075.9635
 20
2561.8191
 11
1076.6298
 21
2562.9544
  0
LINE
  8
0-2
  6
CONTINUOUS
 62
    3
 10
1076.6298
 20
2562.9544
 11
1077.1098
 21
2564.2019
  0
LINE
  8
0-2
  6
CONTINUOUS
 62
    3
 10
1077.1098
 20
2564.2019
 11
1077.3164
 21
2565.064
  0
LINE
  8
0-2
  6
CONTINUOUS
 62
    3
 10
852.15018
 20
2407.8887
 11
852.08941
 21
2408.6655
  0
LINE
  8
0-2
  6
CONTINUOUS
 62
    3
 10
852.08941
 20
2408.6655
 11
851.90896
 21
2409.4188
  0
LINE
  8
0-2
  6
CONTINUOUS
 62
    3
 10
851.90896
 20
2409.4188
 11
851.61429
 21
2410.1255
  0
LINE
  8
0-2
  6
CONTINUOUS
 62
    3
 10
851.61429
 20
2410.1255
 11
851.21438
 21
2410.7643
  0
LINE
  8
0-2
  6
CONTINUOUS
 62
    3
 10
851.21438
 20
2410.7643
 11
850.72136
 21
2411.3157
  0
LINE
  8
0-2
  6
CONTINUOUS
 62
    3
 10
850.72136
 20
2411.3157
 11
850.15022
 21
2411.763
  0
LINE
  8
0-2
  6
CONTINUOUS
 62
    3
 10
850.15022
 20
2411.763
 11
849.51831
 21
2412.0926
  0
LINE
  8
0-2
  6
CONTINUOUS
 62
    3
 10
849.51831
 20
2412.0926
 11
848.84484
 21
2412.2944
  0
LINE
  8
0-2
  6
CONTINUOUS
 62
    3
 10
848.84484
 20
2412.2944
 11
848.15026
 21
2412.3624
  0
LINE
  8
0-2
  6
CONTINUOUS
 62
    3
 10
848.15026
 20
2412.3624
 11
847.45568
 21
2412.2944
  0
LINE
  8
0-2
  6
CONTINUOUS
 62
    3
 10
847.45568
 20
2412.2944
 11
846.78221
 21
2412.0926
  0
LINE
  8
0-2
  6
CONTINUOUS
 62
    3
 10
846.78221
 20
2412.0926
 11
846.1503
 21
2411.763
  0
LINE
  8
0-2
  6
CONTINUOUS
 62
    3
 10
846.1503
 20
2411.763
 11
845.57916
 21
2411.3157
  0
LINE
  8
0-2
  6
CONTINUOUS
 62
    3
 10
845.57916
 20
2411.3157
 11
845.08614
 21
2410.7643
  0
LINE
  8
0-2
  6
CONTINUOUS
 62
    3
 10
845.08614
 20
2410.7643
 11
844.68623
 21
2410.1255
  0
LINE
  8
0-2
  6
CONTINUOUS
 62
    3
 10
844.68623
 20
2410.1255
 11
844.39157
 21
2409.4188
  0
LINE
  8
0-2
  6
CONTINUOUS
 62
    3
 10
844.39157
 20
2409.4188
 11
844.21111
 21
2408.6655
  0
LINE
  8
0-2
  6
CONTINUOUS
 62
    3
 10
844.21111
 20
2408.6655
 11
844.15034
 21
2407.8887
  0
LINE
  8
0-2
  6
CONTINUOUS
 62
    3
 10
844.15034
 20
2407.8887
 11
844.21111
 21
2407.1119
  0
LINE
  8
0-2
  6
CONTINUOUS
 62
    3
 10
844.21111
 20
2407.1119
 11
844.39157
 21
2406.3586
  0
LINE
  8
0-2
  6
CONTINUOUS
 62
    3
 10
844.39157
 20
2406.3586
 11
844.68623
 21
2405.6519
  0
LINE
  8
0-2
  6
CONTINUOUS
 62
    3
 10
844.68623
 20
2405.6519
 11
845.08614
 21
2405.0131
  0
LINE
  8
0-2
  6
CONTINUOUS
 62
    3
 10
845.08614
 20
2405.0131
 11
845.57916
 21
2404.4617
  0
LINE
  8
0-2
  6
CONTINUOUS
 62
    3
 10
845.57916
 20
2404.4617
 11
846.1503
 21
2404.0144
  0
LINE
  8
0-2
  6
CONTINUOUS
 62
    3
 10
846.1503
 20
2404.0144
 11
846.78221
 21
2403.6848
  0
LINE
  8
0-2
  6
CONTINUOUS
 62
    3
 10
846.78221
 20
2403.6848
 11
847.45568
 21
2403.483
  0
LINE
  8
0-2
  6
CONTINUOUS
 62
    3
 10
847.45568
 20
2403.483
 11
848.15026
 21
2403.415
  0
LINE
  8
0-2
  6
CONTINUOUS
 62
    3
 10
848.15026
 20
2403.415
 11
848.84484
 21
2403.483
  0
LINE
  8
0-2
  6
CONTINUOUS
 62
    3
 10
848.84484
 20
2403.483
 11
849.51831
 21
2403.6848
  0
LINE
  8
0-2
  6
CONTINUOUS
 62
    3
 10
849.51831
 20
2403.6848
 11
850.15022
 21
2404.0144
  0
LINE
  8
0-2
  6
CONTINUOUS
 62
    3
 10
850.15022
 20
2404.0144
 11
850.72136
 21
2404.4617
  0
LINE
  8
0-2
  6
CONTINUOUS
 62
    3
 10
850.72136
 20
2404.4617
 11
851.21438
 21
2405.0131
  0
LINE
  8
0-2
  6
CONTINUOUS
 62
    3
 10
851.21438
 20
2405.0131
 11
851.61429
 21
2405.6519
  0
LINE
  8
0-2
  6
CONTINUOUS
 62
    3
 10
851.61429
 20
2405.6519
 11
851.90896
 21
2406.3586
  0
LINE
  8
0-2
  6
CONTINUOUS
 62
    3
 10
851.90896
 20
2406.3586
 11
852.08941
 21
2407.1119
  0
LINE
  8
0-2
  6
CONTINUOUS
 62
    3
 10
852.08941
 20
2407.1119
 11
852.15018
 21
2407.8887
  0
LINE
  8
0-2
  6
CONTINUOUS
 62
    3
 10
852.15018
 20
2461.3317
 11
852.08941
 21
2462.1086
  0
LINE
  8
0-2
  6
CONTINUOUS
 62
    3
 10
852.08941
 20
2462.1086
 11
851.90896
 21
2462.8618
  0
LINE
  8
0-2
  6
CONTINUOUS
 62
    3
 10
851.90896
 20
2462.8618
 11
851.61429
 21
2463.5686
  0
LINE
  8
0-2
  6
CONTINUOUS
 62
    3
 10
851.61429
 20
2463.5686
 11
851.21438
 21
2464.2074
  0
LINE
  8
0-2
  6
CONTINUOUS
 62
    3
 10
851.21438
 20
2464.2074
 11
850.72136
 21
2464.7588
  0
LINE
  8
0-2
  6
CONTINUOUS
 62
    3
 10
850.72136
 20
2464.7588
 11
850.15022
 21
2465.2061
  0
LINE
  8
0-2
  6
CONTINUOUS
 62
    3
 10
850.15022
 20
2465.2061
 11
849.51831
 21
2465.5356
  0
LINE
  8
0-2
  6
CONTINUOUS
 62
    3
 10
849.51831
 20
2465.5356
 11
848.84484
 21
2465.7375
  0
LINE
  8
0-2
  6
CONTINUOUS
 62
    3
 10
848.84484
 20
2465.7375
 11
848.15026
 21
2465.8054
  0
LINE
  8
0-2
  6
CONTINUOUS
 62
    3
 10
848.15026
 20
2465.8054
 11
847.45568
 21
2465.7375
  0
LINE
  8
0-2
  6
CONTINUOUS
 62
    3
 10
847.45568
 20
2465.7375
 11
846.78221
 21
2465.5356
  0
LINE
  8
0-2
  6
CONTINUOUS
 62
    3
 10
846.78221
 20
2465.5356
 11
846.1503
 21
2465.2061
  0
LINE
  8
0-2
  6
CONTINUOUS
 62
    3
 10
846.1503
 20
2465.2061
 11
845.57916
 21
2464.7588
  0
LINE
  8
0-2
  6
CONTINUOUS
 62
    3
 10
845.57916
 20
2464.7588
 11
845.08614
 21
2464.2074
  0
LINE
  8
0-2
  6
CONTINUOUS
 62
    3
 10
845.08614
 20
2464.2074
 11
844.68623
 21
2463.5686
  0
LINE
  8
0-2
  6
CONTINUOUS
 62
    3
 10
844.68623
 20
2463.5686
 11
844.39157
 21
2462.8618
  0
LINE
  8
0-2
  6
CONTINUOUS
 62
    3
 10
844.39157
 20
2462.8618
 11
844.21111
 21
2462.1086
  0
LINE
  8
0-2
  6
CONTINUOUS
 62
    3
 10
844.21111
 20
2462.1086
 11
844.15034
 21
2461.3317
  0
LINE
  8
0-2
  6
CONTINUOUS
 62
    3
 10
844.15034
 20
2461.3317
 11
844.21111
 21
2460.5549
  0
LINE
  8
0-2
  6
CONTINUOUS
 62
    3
 10
844.21111
 20
2460.5549
 11
844.39157
 21
2459.8017
  0
LINE
  8
0-2
  6
CONTINUOUS
 62
    3
 10
844.39157
 20
2459.8017
 11
844.68623
 21
2459.0949
  0
LINE
  8
0-2
  6
CONTINUOUS
 62
    3
 10
844.68623
 20
2459.0949
 11
845.08614
 21
2458.4561
  0
LINE
  8
0-2
  6
CONTINUOUS
 62
    3
 10
845.08614
 20
2458.4561
 11
845.57916
 21
2457.9047
  0
LINE
  8
0-2
  6
CONTINUOUS
 62
    3
 10
845.57916
 20
2457.9047
 11
846.1503
 21
2457.4574
  0
LINE
  8
0-2
  6
CONTINUOUS
 62
    3
 10
846.1503
 20
2457.4574
 11
846.78221
 21
2457.1279
  0
LINE
  8
0-2
  6
CONTINUOUS
 62
    3
 10
846.78221
 20
2457.1279
 11
847.45568
 21
2456.926
  0
LINE
  8
0-2
  6
CONTINUOUS
 62
    3
 10
847.45568
 20
2456.926
 11
848.15026
 21
2456.8581
  0
LINE
  8
0-2
  6
CONTINUOUS
 62
    3
 10
848.15026
 20
2456.8581
 11
848.84484
 21
2456.926
  0
LINE
  8
0-2
  6
CONTINUOUS
 62
    3
 10
848.84484
 20
2456.926
 11
849.51831
 21
2457.1279
  0
LINE
  8
0-2
  6
CONTINUOUS
 62
    3
 10
849.51831
 20
2457.1279
 11
850.15022
 21
2457.4574
  0
LINE
  8
0-2
  6
CONTINUOUS
 62
    3
 10
850.15022
 20
2457.4574
 11
850.72136
 21
2457.9047
  0
LINE
  8
0-2
  6
CONTINUOUS
 62
    3
 10
850.72136
 20
2457.9047
 11
851.21438
 21
2458.4561
  0
LINE
  8
0-2
  6
CONTINUOUS
 62
    3
 10
851.21438
 20
2458.4561
 11
851.61429
 21
2459.0949
  0
LINE
  8
0-2
  6
CONTINUOUS
 62
    3
 10
851.61429
 20
2459.0949
 11
851.90896
 21
2459.8017
  0
LINE
  8
0-2
  6
CONTINUOUS
 62
    3
 10
851.90896
 20
2459.8017
 11
852.08941
 21
2460.5549
  0
LINE
  8
0-2
  6
CONTINUOUS
 62
    3
 10
852.08941
 20
2460.5549
 11
852.15018
 21
2461.3317
  0
LINE
  8
0-2
  6
CONTINUOUS
 62
    3
 10
852.15018
 20
2155.5726
 11
852.08941
 21
2156.3494
  0
LINE
  8
0-2
  6
CONTINUOUS
 62
    3
 10
852.08941
 20
2156.3494
 11
851.90896
 21
2157.1027
  0
LINE
  8
0-2
  6
CONTINUOUS
 62
    3
 10
851.90896
 20
2157.1027
 11
851.61429
 21
2157.8094
  0
LINE
  8
0-2
  6
CONTINUOUS
 62
    3
 10
851.61429
 20
2157.8094
 11
851.21438
 21
2158.4482
  0
LINE
  8
0-2
  6
CONTINUOUS
 62
    3
 10
851.21438
 20
2158.4482
 11
850.72136
 21
2158.9996
  0
LINE
  8
0-2
  6
CONTINUOUS
 62
    3
 10
850.72136
 20
2158.9996
 11
850.15022
 21
2159.4469
  0
LINE
  8
0-2
  6
CONTINUOUS
 62
    3
 10
850.15022
 20
2159.4469
 11
849.51831
 21
2159.7765
  0
LINE
  8
0-2
  6
CONTINUOUS
 62
    3
 10
849.51831
 20
2159.7765
 11
848.84484
 21
2159.9783
  0
LINE
  8
0-2
  6
CONTINUOUS
 62
    3
 10
848.84484
 20
2159.9783
 11
848.15026
 21
2160.0463
  0
LINE
  8
0-2
  6
CONTINUOUS
 62
    3
 10
848.15026
 20
2160.0463
 11
847.45568
 21
2159.9783
  0
LINE
  8
0-2
  6
CONTINUOUS
 62
    3
 10
847.45568
 20
2159.9783
 11
846.78221
 21
2159.7765
  0
LINE
  8
0-2
  6
CONTINUOUS
 62
    3
 10
846.78221
 20
2159.7765
 11
846.1503
 21
2159.4469
  0
LINE
  8
0-2
  6
CONTINUOUS
 62
    3
 10
846.1503
 20
2159.4469
 11
845.57916
 21
2158.9996
  0
LINE
  8
0-2
  6
CONTINUOUS
 62
    3
 10
845.57916
 20
2158.9996
 11
845.08614
 21
2158.4482
  0
LINE
  8
0-2
  6
CONTINUOUS
 62
    3
 10
845.08614
 20
2158.4482
 11
844.68623
 21
2157.8094
  0
LINE
  8
0-2
  6
CONTINUOUS
 62
    3
 10
844.68623
 20
2157.8094
 11
844.39157
 21
2157.1027
  0
LINE
  8
0-2
  6
CONTINUOUS
 62
    3
 10
844.39157
 20
2157.1027
 11
844.21111
 21
2156.3494
  0
LINE
  8
0-2
  6
CONTINUOUS
 62
    3
 10
844.21111
 20
2156.3494
 11
844.15034
 21
2155.5726
  0
LINE
  8
0-2
  6
CONTINUOUS
 62
    3
 10
844.15034
 20
2155.5726
 11
844.21111
 21
2154.7957
  0
LINE
  8
0-2
  6
CONTINUOUS
 62
    3
 10
844.21111
 20
2154.7957
 11
844.39157
 21
2154.0425
  0
LINE
  8
0-2
  6
CONTINUOUS
 62
    3
 10
844.39157
 20
2154.0425
 11
844.68623
 21
2153.3357
  0
LINE
  8
0-2
  6
CONTINUOUS
 62
    3
 10
844.68623
 20
2153.3357
 11
845.08614
 21
2152.6969
  0
LINE
  8
0-2
  6
CONTINUOUS
 62
    3
 10
845.08614
 20
2152.6969
 11
845.57916
 21
2152.1455
  0
LINE
  8
0-2
  6
CONTINUOUS
 62
    3
 10
845.57916
 20
2152.1455
 11
846.1503
 21
2151.6982
  0
LINE
  8
0-2
  6
CONTINUOUS
 62
    3
 10
846.1503
 20
2151.6982
 11
846.78221
 21
2151.3687
  0
LINE
  8
0-2
  6
CONTINUOUS
 62
    3
 10
846.78221
 20
2151.3687
 11
847.45568
 21
2151.1669
  0
LINE
  8
0-2
  6
CONTINUOUS
 62
    3
 10
847.45568
 20
2151.1669
 11
848.15026
 21
2151.0989
  0
LINE
  8
0-2
  6
CONTINUOUS
 62
    3
 10
848.15026
 20
2151.0989
 11
848.84484
 21
2151.1669
  0
LINE
  8
0-2
  6
CONTINUOUS
 62
    3
 10
848.84484
 20
2151.1669
 11
849.51831
 21
2151.3687
  0
LINE
  8
0-2
  6
CONTINUOUS
 62
    3
 10
849.51831
 20
2151.3687
 11
850.15022
 21
2151.6982
  0
LINE
  8
0-2
  6
CONTINUOUS
 62
    3
 10
850.15022
 20
2151.6982
 11
850.72136
 21
2152.1455
  0
LINE
  8
0-2
  6
CONTINUOUS
 62
    3
 10
850.72136
 20
2152.1455
 11
851.21438
 21
2152.6969
  0
LINE
  8
0-2
  6
CONTINUOUS
 62
    3
 10
851.21438
 20
2152.6969
 11
851.61429
 21
2153.3357
  0
LINE
  8
0-2
  6
CONTINUOUS
 62
    3
 10
851.61429
 20
2153.3357
 11
851.90896
 21
2154.0425
  0
LINE
  8
0-2
  6
CONTINUOUS
 62
    3
 10
851.90896
 20
2154.0425
 11
852.08941
 21
2154.7957
  0
LINE
  8
0-2
  6
CONTINUOUS
 62
    3
 10
852.08941
 20
2154.7957
 11
852.15018
 21
2155.5726
  0
LINE
  8
0-2
  6
CONTINUOUS
 62
    3
 10
852.15018
 20
2102.1293
 11
852.08941
 21
2102.9061
  0
LINE
  8
0-2
  6
CONTINUOUS
 62
    3
 10
852.08941
 20
2102.9061
 11
851.90896
 21
2103.6594
  0
LINE
  8
0-2
  6
CONTINUOUS
 62
    3
 10
851.90896
 20
2103.6594
 11
851.61429
 21
2104.3661
  0
LINE
  8
0-2
  6
CONTINUOUS
 62
    3
 10
851.61429
 20
2104.3661
 11
851.21438
 21
2105.0049
  0
LINE
  8
0-2
  6
CONTINUOUS
 62
    3
 10
851.21438
 20
2105.0049
 11
850.72136
 21
2105.5563
  0
LINE
  8
0-2
  6
CONTINUOUS
 62
    3
 10
850.72136
 20
2105.5563
 11
850.15022
 21
2106.0036
  0
LINE
  8
0-2
  6
CONTINUOUS
 62
    3
 10
850.15022
 20
2106.0036
 11
849.51831
 21
2106.3332
  0
LINE
  8
0-2
  6
CONTINUOUS
 62
    3
 10
849.51831
 20
2106.3332
 11
848.84484
 21
2106.535
  0
LINE
  8
0-2
  6
CONTINUOUS
 62
    3
 10
848.84484
 20
2106.535
 11
848.15026
 21
2106.603
  0
LINE
  8
0-2
  6
CONTINUOUS
 62
    3
 10
848.15026
 20
2106.603
 11
847.45568
 21
2106.535
  0
LINE
  8
0-2
  6
CONTINUOUS
 62
    3
 10
847.45568
 20
2106.535
 11
846.78221
 21
2106.3332
  0
LINE
  8
0-2
  6
CONTINUOUS
 62
    3
 10
846.78221
 20
2106.3332
 11
846.1503
 21
2106.0036
  0
LINE
  8
0-2
  6
CONTINUOUS
 62
    3
 10
846.1503
 20
2106.0036
 11
845.57916
 21
2105.5563
  0
LINE
  8
0-2
  6
CONTINUOUS
 62
    3
 10
845.57916
 20
2105.5563
 11
845.08614
 21
2105.0049
  0
LINE
  8
0-2
  6
CONTINUOUS
 62
    3
 10
845.08614
 20
2105.0049
 11
844.68623
 21
2104.3661
  0
LINE
  8
0-2
  6
CONTINUOUS
 62
    3
 10
844.68623
 20
2104.3661
 11
844.39157
 21
2103.6594
  0
LINE
  8
0-2
  6
CONTINUOUS
 62
    3
 10
844.39157
 20
2103.6594
 11
844.21111
 21
2102.9061
  0
LINE
  8
0-2
  6
CONTINUOUS
 62
    3
 10
844.21111
 20
2102.9061
 11
844.15034
 21
2102.1293
  0
LINE
  8
0-2
  6
CONTINUOUS
 62
    3
 10
844.15034
 20
2102.1293
 11
844.21111
 21
2101.3524
  0
LINE
  8
0-2
  6
CONTINUOUS
 62
    3
 10
844.21111
 20
2101.3524
 11
844.39157
 21
2100.5992
  0
LINE
  8
0-2
  6
CONTINUOUS
 62
    3
 10
844.39157
 20
2100.5992
 11
844.68623
 21
2099.8924
  0
LINE
  8
0-2
  6
CONTINUOUS
 62
    3
 10
844.68623
 20
2099.8924
 11
845.08614
 21
2099.2536
  0
LINE
  8
0-2
  6
CONTINUOUS
 62
    3
 10
845.08614
 20
2099.2536
 11
845.57916
 21
2098.7022
  0
LINE
  8
0-2
  6
CONTINUOUS
 62
    3
 10
845.57916
 20
2098.7022
 11
846.1503
 21
2098.255
  0
LINE
  8
0-2
  6
CONTINUOUS
 62
    3
 10
846.1503
 20
2098.255
 11
846.78221
 21
2097.9254
  0
LINE
  8
0-2
  6
CONTINUOUS
 62
    3
 10
846.78221
 20
2097.9254
 11
847.45568
 21
2097.7236
  0
LINE
  8
0-2
  6
CONTINUOUS
 62
    3
 10
847.45568
 20
2097.7236
 11
848.15026
 21
2097.6556
  0
LINE
  8
0-2
  6
CONTINUOUS
 62
    3
 10
848.15026
 20
2097.6556
 11
848.84484
 21
2097.7236
  0
LINE
  8
0-2
  6
CONTINUOUS
 62
    3
 10
848.84484
 20
2097.7236
 11
849.51831
 21
2097.9254
  0
LINE
  8
0-2
  6
CONTINUOUS
 62
    3
 10
849.51831
 20
2097.9254
 11
850.15022
 21
2098.255
  0
LINE
  8
0-2
  6
CONTINUOUS
 62
    3
 10
850.15022
 20
2098.255
 11
850.72136
 21
2098.7022
  0
LINE
  8
0-2
  6
CONTINUOUS
 62
    3
 10
850.72136
 20
2098.7022
 11
851.21438
 21
2099.2536
  0
LINE
  8
0-2
  6
CONTINUOUS
 62
    3
 10
851.21438
 20
2099.2536
 11
851.61429
 21
2099.8924
  0
LINE
  8
0-2
  6
CONTINUOUS
 62
    3
 10
851.61429
 20
2099.8924
 11
851.90896
 21
2100.5992
  0
LINE
  8
0-2
  6
CONTINUOUS
 62
    3
 10
851.90896
 20
2100.5992
 11
852.08941
 21
2101.3524
  0
LINE
  8
0-2
  6
CONTINUOUS
 62
    3
 10
852.08941
 20
2101.3524
 11
852.15018
 21
2102.1293
  0
LINE
  8
0-2
  6
CONTINUOUS
 62
    3
 10
1247.8497
 20
2407.8887
 11
1247.9105
 21
2407.1119
  0
LINE
  8
0-2
  6
CONTINUOUS
 62
    3
 10
1247.9105
 20
2407.1119
 11
1248.091
 21
2406.3586
  0
LINE
  8
0-2
  6
CONTINUOUS
 62
    3
 10
1248.091
 20
2406.3586
 11
1248.3856
 21
2405.6519
  0
LINE
  8
0-2
  6
CONTINUOUS
 62
    3
 10
1248.3856
 20
2405.6519
 11
1248.7856
 21
2405.0131
  0
LINE
  8
0-2
  6
CONTINUOUS
 62
    3
 10
1248.7856
 20
2405.0131
 11
1249.2786
 21
2404.4617
  0
LINE
  8
0-2
  6
CONTINUOUS
 62
    3
 10
1249.2786
 20
2404.4617
 11
1249.8497
 21
2404.0144
  0
LINE
  8
0-2
  6
CONTINUOUS
 62
    3
 10
1249.8497
 20
2404.0144
 11
1250.4816
 21
2403.6848
  0
LINE
  8
0-2
  6
CONTINUOUS
 62
    3
 10
1250.4816
 20
2403.6848
 11
1251.1551
 21
2403.483
  0
LINE
  8
0-2
  6
CONTINUOUS
 62
    3
 10
1251.1551
 20
2403.483
 11
1251.8497
 21
2403.415
  0
LINE
  8
0-2
  6
CONTINUOUS
 62
    3
 10
1251.8497
 20
2403.415
 11
1252.5442
 21
2403.483
  0
LINE
  8
0-2
  6
CONTINUOUS
 62
    3
 10
1252.5442
 20
2403.483
 11
1253.2177
 21
2403.6848
  0
LINE
  8
0-2
  6
CONTINUOUS
 62
    3
 10
1253.2177
 20
2403.6848
 11
1253.8496
 21
2404.0144
  0
LINE
  8
0-2
  6
CONTINUOUS
 62
    3
 10
1253.8496
 20
2404.0144
 11
1254.4208
 21
2404.4617
  0
LINE
  8
0-2
  6
CONTINUOUS
 62
    3
 10
1254.4208
 20
2404.4617
 11
1254.9138
 21
2405.0131
  0
LINE
  8
0-2
  6
CONTINUOUS
 62
    3
 10
1254.9138
 20
2405.0131
 11
1255.3137
 21
2405.6519
  0
LINE
  8
0-2
  6
CONTINUOUS
 62
    3
 10
1255.3137
 20
2405.6519
 11
1255.6084
 21
2406.3586
  0
LINE
  8
0-2
  6
CONTINUOUS
 62
    3
 10
1255.6084
 20
2406.3586
 11
1255.7888
 21
2407.1119
  0
LINE
  8
0-2
  6
CONTINUOUS
 62
    3
 10
1255.7888
 20
2407.1119
 11
1255.8496
 21
2407.8887
  0
LINE
  8
0-2
  6
CONTINUOUS
 62
    3
 10
1255.8496
 20
2407.8887
 11
1255.7888
 21
2408.6655
  0
LINE
  8
0-2
  6
CONTINUOUS
 62
    3
 10
1255.7888
 20
2408.6655
 11
1255.6084
 21
2409.4188
  0
LINE
  8
0-2
  6
CONTINUOUS
 62
    3
 10
1255.6084
 20
2409.4188
 11
1255.3137
 21
2410.1255
  0
LINE
  8
0-2
  6
CONTINUOUS
 62
    3
 10
1255.3137
 20
2410.1255
 11
1254.9138
 21
2410.7643
  0
LINE
  8
0-2
  6
CONTINUOUS
 62
    3
 10
1254.9138
 20
2410.7643
 11
1254.4208
 21
2411.3157
  0
LINE
  8
0-2
  6
CONTINUOUS
 62
    3
 10
1254.4208
 20
2411.3157
 11
1253.8496
 21
2411.763
  0
LINE
  8
0-2
  6
CONTINUOUS
 62
    3
 10
1253.8496
 20
2411.763
 11
1253.2177
 21
2412.0926
  0
LINE
  8
0-2
  6
CONTINUOUS
 62
    3
 10
1253.2177
 20
2412.0926
 11
1252.5442
 21
2412.2944
  0
LINE
  8
0-2
  6
CONTINUOUS
 62
    3
 10
1252.5442
 20
2412.2944
 11
1251.8497
 21
2412.3624
  0
LINE
  8
0-2
  6
CONTINUOUS
 62
    3
 10
1251.8497
 20
2412.3624
 11
1251.1551
 21
2412.2944
  0
LINE
  8
0-2
  6
CONTINUOUS
 62
    3
 10
1251.1551
 20
2412.2944
 11
1250.4816
 21
2412.0926
  0
LINE
  8
0-2
  6
CONTINUOUS
 62
    3
 10
1250.4816
 20
2412.0926
 11
1249.8497
 21
2411.763
  0
LINE
  8
0-2
  6
CONTINUOUS
 62
    3
 10
1249.8497
 20
2411.763
 11
1249.2786
 21
2411.3157
  0
LINE
  8
0-2
  6
CONTINUOUS
 62
    3
 10
1249.2786
 20
2411.3157
 11
1248.7856
 21
2410.7643
  0
LINE
  8
0-2
  6
CONTINUOUS
 62
    3
 10
1248.7856
 20
2410.7643
 11
1248.3856
 21
2410.1255
  0
LINE
  8
0-2
  6
CONTINUOUS
 62
    3
 10
1248.3856
 20
2410.1255
 11
1248.091
 21
2409.4188
  0
LINE
  8
0-2
  6
CONTINUOUS
 62
    3
 10
1248.091
 20
2409.4188
 11
1247.9105
 21
2408.6655
  0
LINE
  8
0-2
  6
CONTINUOUS
 62
    3
 10
1247.9105
 20
2408.6655
 11
1247.8497
 21
2407.8887
  0
LINE
  8
0-2
  6
CONTINUOUS
 62
    3
 10
1247.8497
 20
2461.3317
 11
1247.9105
 21
2460.5549
  0
LINE
  8
0-2
  6
CONTINUOUS
 62
    3
 10
1247.9105
 20
2460.5549
 11
1248.091
 21
2459.8017
  0
LINE
  8
0-2
  6
CONTINUOUS
 62
    3
 10
1248.091
 20
2459.8017
 11
1248.3856
 21
2459.0949
  0
LINE
  8
0-2
  6
CONTINUOUS
 62
    3
 10
1248.3856
 20
2459.0949
 11
1248.7856
 21
2458.4561
  0
LINE
  8
0-2
  6
CONTINUOUS
 62
    3
 10
1248.7856
 20
2458.4561
 11
1249.2786
 21
2457.9047
  0
LINE
  8
0-2
  6
CONTINUOUS
 62
    3
 10
1249.2786
 20
2457.9047
 11
1249.8497
 21
2457.4574
  0
LINE
  8
0-2
  6
CONTINUOUS
 62
    3
 10
1249.8497
 20
2457.4574
 11
1250.4816
 21
2457.1279
  0
LINE
  8
0-2
  6
CONTINUOUS
 62
    3
 10
1250.4816
 20
2457.1279
 11
1251.1551
 21
2456.926
  0
LINE
  8
0-2
  6
CONTINUOUS
 62
    3
 10
1251.1551
 20
2456.926
 11
1251.8497
 21
2456.8581
  0
LINE
  8
0-2
  6
CONTINUOUS
 62
    3
 10
1251.8497
 20
2456.8581
 11
1252.5442
 21
2456.926
  0
LINE
  8
0-2
  6
CONTINUOUS
 62
    3
 10
1252.5442
 20
2456.926
 11
1253.2177
 21
2457.1279
  0
LINE
  8
0-2
  6
CONTINUOUS
 62
    3
 10
1253.2177
 20
2457.1279
 11
1253.8496
 21
2457.4574
  0
LINE
  8
0-2
  6
CONTINUOUS
 62
    3
 10
1253.8496
 20
2457.4574
 11
1254.4208
 21
2457.9047
  0
LINE
  8
0-2
  6
CONTINUOUS
 62
    3
 10
1254.4208
 20
2457.9047
 11
1254.9138
 21
2458.4561
  0
LINE
  8
0-2
  6
CONTINUOUS
 62
    3
 10
1254.9138
 20
2458.4561
 11
1255.3137
 21
2459.0949
  0
LINE
  8
0-2
  6
CONTINUOUS
 62
    3
 10
1255.3137
 20
2459.0949
 11
1255.6084
 21
2459.8017
  0
LINE
  8
0-2
  6
CONTINUOUS
 62
    3
 10
1255.6084
 20
2459.8017
 11
1255.7888
 21
2460.5549
  0
LINE
  8
0-2
  6
CONTINUOUS
 62
    3
 10
1255.7888
 20
2460.5549
 11
1255.8496
 21
2461.3317
  0
LINE
  8
0-2
  6
CONTINUOUS
 62
    3
 10
1255.8496
 20
2461.3317
 11
1255.7888
 21
2462.1086
  0
LINE
  8
0-2
  6
CONTINUOUS
 62
    3
 10
1255.7888
 20
2462.1086
 11
1255.6084
 21
2462.8618
  0
LINE
  8
0-2
  6
CONTINUOUS
 62
    3
 10
1255.6084
 20
2462.8618
 11
1255.3137
 21
2463.5686
  0
LINE
  8
0-2
  6
CONTINUOUS
 62
    3
 10
1255.3137
 20
2463.5686
 11
1254.9138
 21
2464.2074
  0
LINE
  8
0-2
  6
CONTINUOUS
 62
    3
 10
1254.9138
 20
2464.2074
 11
1254.4208
 21
2464.7588
  0
LINE
  8
0-2
  6
CONTINUOUS
 62
    3
 10
1254.4208
 20
2464.7588
 11
1253.8496
 21
2465.2061
  0
LINE
  8
0-2
  6
CONTINUOUS
 62
    3
 10
1253.8496
 20
2465.2061
 11
1253.2177
 21
2465.5356
  0
LINE
  8
0-2
  6
CONTINUOUS
 62
    3
 10
1253.2177
 20
2465.5356
 11
1252.5442
 21
2465.7375
  0
LINE
  8
0-2
  6
CONTINUOUS
 62
    3
 10
1252.5442
 20
2465.7375
 11
1251.8497
 21
2465.8054
  0
LINE
  8
0-2
  6
CONTINUOUS
 62
    3
 10
1251.8497
 20
2465.8054
 11
1251.1551
 21
2465.7375
  0
LINE
  8
0-2
  6
CONTINUOUS
 62
    3
 10
1251.1551
 20
2465.7375
 11
1250.4816
 21
2465.5356
  0
LINE
  8
0-2
  6
CONTINUOUS
 62
    3
 10
1250.4816
 20
2465.5356
 11
1249.8497
 21
2465.2061
  0
LINE
  8
0-2
  6
CONTINUOUS
 62
    3
 10
1249.8497
 20
2465.2061
 11
1249.2786
 21
2464.7588
  0
LINE
  8
0-2
  6
CONTINUOUS
 62
    3
 10
1249.2786
 20
2464.7588
 11
1248.7856
 21
2464.2074
  0
LINE
  8
0-2
  6
CONTINUOUS
 62
    3
 10
1248.7856
 20
2464.2074
 11
1248.3856
 21
2463.5686
  0
LINE
  8
0-2
  6
CONTINUOUS
 62
    3
 10
1248.3856
 20
2463.5686
 11
1248.091
 21
2462.8618
  0
LINE
  8
0-2
  6
CONTINUOUS
 62
    3
 10
1248.091
 20
2462.8618
 11
1247.9105
 21
2462.1086
  0
LINE
  8
0-2
  6
CONTINUOUS
 62
    3
 10
1247.9105
 20
2462.1086
 11
1247.8497
 21
2461.3317
  0
LINE
  8
0-2
  6
CONTINUOUS
 62
    3
 10
1247.8497
 20
2155.5726
 11
1247.9105
 21
2154.7957
  0
LINE
  8
0-2
  6
CONTINUOUS
 62
    3
 10
1247.9105
 20
2154.7957
 11
1248.091
 21
2154.0425
  0
LINE
  8
0-2
  6
CONTINUOUS
 62
    3
 10
1248.091
 20
2154.0425
 11
1248.3856
 21
2153.3357
  0
LINE
  8
0-2
  6
CONTINUOUS
 62
    3
 10
1248.3856
 20
2153.3357
 11
1248.7856
 21
2152.6969
  0
LINE
  8
0-2
  6
CONTINUOUS
 62
    3
 10
1248.7856
 20
2152.6969
 11
1249.2786
 21
2152.1455
  0
LINE
  8
0-2
  6
CONTINUOUS
 62
    3
 10
1249.2786
 20
2152.1455
 11
1249.8497
 21
2151.6982
  0
LINE
  8
0-2
  6
CONTINUOUS
 62
    3
 10
1249.8497
 20
2151.6982
 11
1250.4816
 21
2151.3687
  0
LINE
  8
0-2
  6
CONTINUOUS
 62
    3
 10
1250.4816
 20
2151.3687
 11
1251.1551
 21
2151.1669
  0
LINE
  8
0-2
  6
CONTINUOUS
 62
    3
 10
1251.1551
 20
2151.1669
 11
1251.8497
 21
2151.0989
  0
LINE
  8
0-2
  6
CONTINUOUS
 62
    3
 10
1251.8497
 20
2151.0989
 11
1252.5442
 21
2151.1669
  0
LINE
  8
0-2
  6
CONTINUOUS
 62
    3
 10
1252.5442
 20
2151.1669
 11
1253.2177
 21
2151.3687
  0
LINE
  8
0-2
  6
CONTINUOUS
 62
    3
 10
1253.2177
 20
2151.3687
 11
1253.8496
 21
2151.6982
  0
LINE
  8
0-2
  6
CONTINUOUS
 62
    3
 10
1253.8496
 20
2151.6982
 11
1254.4208
 21
2152.1455
  0
LINE
  8
0-2
  6
CONTINUOUS
 62
    3
 10
1254.4208
 20
2152.1455
 11
1254.9138
 21
2152.6969
  0
LINE
  8
0-2
  6
CONTINUOUS
 62
    3
 10
1254.9138
 20
2152.6969
 11
1255.3137
 21
2153.3357
  0
LINE
  8
0-2
  6
CONTINUOUS
 62
    3
 10
1255.3137
 20
2153.3357
 11
1255.6084
 21
2154.0425
  0
LINE
  8
0-2
  6
CONTINUOUS
 62
    3
 10
1255.6084
 20
2154.0425
 11
1255.7888
 21
2154.7957
  0
LINE
  8
0-2
  6
CONTINUOUS
 62
    3
 10
1255.7888
 20
2154.7957
 11
1255.8496
 21
2155.5726
  0
LINE
  8
0-2
  6
CONTINUOUS
 62
    3
 10
1255.8496
 20
2155.5726
 11
1255.7888
 21
2156.3494
  0
LINE
  8
0-2
  6
CONTINUOUS
 62
    3
 10
1255.7888
 20
2156.3494
 11
1255.6084
 21
2157.1027
  0
LINE
  8
0-2
  6
CONTINUOUS
 62
    3
 10
1255.6084
 20
2157.1027
 11
1255.3137
 21
2157.8094
  0
LINE
  8
0-2
  6
CONTINUOUS
 62
    3
 10
1255.3137
 20
2157.8094
 11
1254.9138
 21
2158.4482
  0
LINE
  8
0-2
  6
CONTINUOUS
 62
    3
 10
1254.9138
 20
2158.4482
 11
1254.4208
 21
2158.9996
  0
LINE
  8
0-2
  6
CONTINUOUS
 62
    3
 10
1254.4208
 20
2158.9996
 11
1253.8496
 21
2159.4469
  0
LINE
  8
0-2
  6
CONTINUOUS
 62
    3
 10
1253.8496
 20
2159.4469
 11
1253.2177
 21
2159.7765
  0
LINE
  8
0-2
  6
CONTINUOUS
 62
    3
 10
1253.2177
 20
2159.7765
 11
1252.5442
 21
2159.9783
  0
LINE
  8
0-2
  6
CONTINUOUS
 62
    3
 10
1252.5442
 20
2159.9783
 11
1251.8497
 21
2160.0463
  0
LINE
  8
0-2
  6
CONTINUOUS
 62
    3
 10
1251.8497
 20
2160.0463
 11
1251.1551
 21
2159.9783
  0
LINE
  8
0-2
  6
CONTINUOUS
 62
    3
 10
1251.1551
 20
2159.9783
 11
1250.4816
 21
2159.7765
  0
LINE
  8
0-2
  6
CONTINUOUS
 62
    3
 10
1250.4816
 20
2159.7765
 11
1249.8497
 21
2159.4469
  0
LINE
  8
0-2
  6
CONTINUOUS
 62
    3
 10
1249.8497
 20
2159.4469
 11
1249.2786
 21
2158.9996
  0
LINE
  8
0-2
  6
CONTINUOUS
 62
    3
 10
1249.2786
 20
2158.9996
 11
1248.7856
 21
2158.4482
  0
LINE
  8
0-2
  6
CONTINUOUS
 62
    3
 10
1248.7856
 20
2158.4482
 11
1248.3856
 21
2157.8094
  0
LINE
  8
0-2
  6
CONTINUOUS
 62
    3
 10
1248.3856
 20
2157.8094
 11
1248.091
 21
2157.1027
  0
LINE
  8
0-2
  6
CONTINUOUS
 62
    3
 10
1248.091
 20
2157.1027
 11
1247.9105
 21
2156.3494
  0
LINE
  8
0-2
  6
CONTINUOUS
 62
    3
 10
1247.9105
 20
2156.3494
 11
1247.8497
 21
2155.5726
  0
LINE
  8
0-2
  6
CONTINUOUS
 62
    3
 10
1247.8497
 20
2102.1293
 11
1247.9105
 21
2101.3524
  0
LINE
  8
0-2
  6
CONTINUOUS
 62
    3
 10
1247.9105
 20
2101.3524
 11
1248.091
 21
2100.5992
  0
LINE
  8
0-2
  6
CONTINUOUS
 62
    3
 10
1248.091
 20
2100.5992
 11
1248.3856
 21
2099.8924
  0
LINE
  8
0-2
  6
CONTINUOUS
 62
    3
 10
1248.3856
 20
2099.8924
 11
1248.7856
 21
2099.2536
  0
LINE
  8
0-2
  6
CONTINUOUS
 62
    3
 10
1248.7856
 20
2099.2536
 11
1249.2786
 21
2098.7022
  0
LINE
  8
0-2
  6
CONTINUOUS
 62
    3
 10
1249.2786
 20
2098.7022
 11
1249.8497
 21
2098.255
  0
LINE
  8
0-2
  6
CONTINUOUS
 62
    3
 10
1249.8497
 20
2098.255
 11
1250.4816
 21
2097.9254
  0
LINE
  8
0-2
  6
CONTINUOUS
 62
    3
 10
1250.4816
 20
2097.9254
 11
1251.1551
 21
2097.7236
  0
LINE
  8
0-2
  6
CONTINUOUS
 62
    3
 10
1251.1551
 20
2097.7236
 11
1251.8497
 21
2097.6556
  0
LINE
  8
0-2
  6
CONTINUOUS
 62
    3
 10
1251.8497
 20
2097.6556
 11
1252.5442
 21
2097.7236
  0
LINE
  8
0-2
  6
CONTINUOUS
 62
    3
 10
1252.5442
 20
2097.7236
 11
1253.2177
 21
2097.9254
  0
LINE
  8
0-2
  6
CONTINUOUS
 62
    3
 10
1253.2177
 20
2097.9254
 11
1253.8496
 21
2098.255
  0
LINE
  8
0-2
  6
CONTINUOUS
 62
    3
 10
1253.8496
 20
2098.255
 11
1254.4208
 21
2098.7022
  0
LINE
  8
0-2
  6
CONTINUOUS
 62
    3
 10
1254.4208
 20
2098.7022
 11
1254.9138
 21
2099.2536
  0
LINE
  8
0-2
  6
CONTINUOUS
 62
    3
 10
1254.9138
 20
2099.2536
 11
1255.3137
 21
2099.8924
  0
LINE
  8
0-2
  6
CONTINUOUS
 62
    3
 10
1255.3137
 20
2099.8924
 11
1255.6084
 21
2100.5992
  0
LINE
  8
0-2
  6
CONTINUOUS
 62
    3
 10
1255.6084
 20
2100.5992
 11
1255.7888
 21
2101.3524
  0
LINE
  8
0-2
  6
CONTINUOUS
 62
    3
 10
1255.7888
 20
2101.3524
 11
1255.8496
 21
2102.1293
  0
LINE
  8
0-2
  6
CONTINUOUS
 62
    3
 10
1255.8496
 20
2102.1293
 11
1255.7888
 21
2102.9061
  0
LINE
  8
0-2
  6
CONTINUOUS
 62
    3
 10
1255.7888
 20
2102.9061
 11
1255.6084
 21
2103.6594
  0
LINE
  8
0-2
  6
CONTINUOUS
 62
    3
 10
1255.6084
 20
2103.6594
 11
1255.3137
 21
2104.3661
  0
LINE
  8
0-2
  6
CONTINUOUS
 62
    3
 10
1255.3137
 20
2104.3661
 11
1254.9138
 21
2105.0049
  0
LINE
  8
0-2
  6
CONTINUOUS
 62
    3
 10
1254.9138
 20
2105.0049
 11
1254.4208
 21
2105.5563
  0
LINE
  8
0-2
  6
CONTINUOUS
 62
    3
 10
1254.4208
 20
2105.5563
 11
1253.8496
 21
2106.0036
  0
LINE
  8
0-2
  6
CONTINUOUS
 62
    3
 10
1253.8496
 20
2106.0036
 11
1253.2177
 21
2106.3332
  0
LINE
  8
0-2
  6
CONTINUOUS
 62
    3
 10
1253.2177
 20
2106.3332
 11
1252.5442
 21
2106.535
  0
LINE
  8
0-2
  6
CONTINUOUS
 62
    3
 10
1252.5442
 20
2106.535
 11
1251.8497
 21
2106.603
  0
LINE
  8
0-2
  6
CONTINUOUS
 62
    3
 10
1251.8497
 20
2106.603
 11
1251.1551
 21
2106.535
  0
LINE
  8
0-2
  6
CONTINUOUS
 62
    3
 10
1251.1551
 20
2106.535
 11
1250.4816
 21
2106.3332
  0
LINE
  8
0-2
  6
CONTINUOUS
 62
    3
 10
1250.4816
 20
2106.3332
 11
1249.8497
 21
2106.0036
  0
LINE
  8
0-2
  6
CONTINUOUS
 62
    3
 10
1249.8497
 20
2106.0036
 11
1249.2786
 21
2105.5563
  0
LINE
  8
0-2
  6
CONTINUOUS
 62
    3
 10
1249.2786
 20
2105.5563
 11
1248.7856
 21
2105.0049
  0
LINE
  8
0-2
  6
CONTINUOUS
 62
    3
 10
1248.7856
 20
2105.0049
 11
1248.3856
 21
2104.3661
  0
LINE
  8
0-2
  6
CONTINUOUS
 62
    3
 10
1248.3856
 20
2104.3661
 11
1248.091
 21
2103.6594
  0
LINE
  8
0-2
  6
CONTINUOUS
 62
    3
 10
1248.091
 20
2103.6594
 11
1247.9105
 21
2102.9061
  0
LINE
  8
0-2
  6
CONTINUOUS
 62
    3
 10
1247.9105
 20
2102.9061
 11
1247.8497
 21
2102.1293
  0
LINE
  8
0-2
  6
CONTINUOUS
 62
    3
 10
1036.3251
 20
1998.397
 11
1035.9758
 21
1999.6977
  0
LINE
  8
0-2
  6
CONTINUOUS
 62
    3
 10
1035.9758
 20
1999.6977
 11
1035.43
 21
2000.9107
  0
LINE
  8
0-2
  6
CONTINUOUS
 62
    3
 10
1035.43
 20
2000.9107
 11
1034.704
 21
2001.9994
  0
LINE
  8
0-2
  6
CONTINUOUS
 62
    3
 10
1034.704
 20
2001.9994
 11
1033.8201
 21
2002.9305
  0
LINE
  8
0-2
  6
CONTINUOUS
 62
    3
 10
1033.8201
 20
2002.9305
 11
1032.805
 21
2003.6758
  0
LINE
  8
0-2
  6
CONTINUOUS
 62
    3
 10
1032.805
 20
2003.6758
 11
1031.6897
 21
2004.2126
  0
LINE
  8
0-2
  6
CONTINUOUS
 62
    3
 10
1031.6897
 20
2004.2126
 11
1030.5079
 21
2004.5246
  0
LINE
  8
0-2
  6
CONTINUOUS
 62
    3
 10
1030.5079
 20
2004.5246
 11
1029.2957
 21
2004.6024
  0
LINE
  8
0-2
  6
CONTINUOUS
 62
    3
 10
1029.2957
 20
2004.6024
 11
1028.0898
 21
2004.4436
  0
LINE
  8
0-2
  6
CONTINUOUS
 62
    3
 10
1028.0898
 20
2004.4436
 11
1026.9269
 21
2004.053
  0
LINE
  8
0-2
  6
CONTINUOUS
 62
    3
 10
1026.9269
 20
2004.053
 11
1025.8422
 21
2003.4424
  0
LINE
  8
0-2
  6
CONTINUOUS
 62
    3
 10
1025.8422
 20
2003.4424
 11
1024.8689
 21
2002.6305
  0
LINE
  8
0-2
  6
CONTINUOUS
 62
    3
 10
1024.8689
 20
2002.6305
 11
1024.0364
 21
2001.6419
  0
LINE
  8
0-2
  6
CONTINUOUS
 62
    3
 10
1024.0364
 20
2001.6419
 11
1023.37
 21
2000.5066
  0
LINE
  8
0-2
  6
CONTINUOUS
 62
    3
 10
1023.37
 20
2000.5066
 11
1022.8901
 21
1999.2591
  0
LINE
  8
0-2
  6
CONTINUOUS
 62
    3
 10
1022.8901
 20
1999.2591
 11
1022.6835
 21
1998.397
  0
LINE
  8
0-2
  6
CONTINUOUS
 62
    3
 10
1077.3164
 20
1998.397
 11
1076.9671
 21
1999.6977
  0
LINE
  8
0-2
  6
CONTINUOUS
 62
    3
 10
1076.9671
 20
1999.6977
 11
1076.4212
 21
2000.9107
  0
LINE
  8
0-2
  6
CONTINUOUS
 62
    3
 10
1076.4212
 20
2000.9107
 11
1075.6953
 21
2001.9994
  0
LINE
  8
0-2
  6
CONTINUOUS
 62
    3
 10
1075.6953
 20
2001.9994
 11
1074.8113
 21
2002.9305
  0
LINE
  8
0-2
  6
CONTINUOUS
 62
    3
 10
1074.8113
 20
2002.9305
 11
1073.7963
 21
2003.6758
  0
LINE
  8
0-2
  6
CONTINUOUS
 62
    3
 10
1073.7963
 20
2003.6758
 11
1072.6809
 21
2004.2126
  0
LINE
  8
0-2
  6
CONTINUOUS
 62
    3
 10
1072.6809
 20
2004.2126
 11
1071.4992
 21
2004.5246
  0
LINE
  8
0-2
  6
CONTINUOUS
 62
    3
 10
1071.4992
 20
2004.5246
 11
1070.2869
 21
2004.6024
  0
LINE
  8
0-2
  6
CONTINUOUS
 62
    3
 10
1070.2869
 20
2004.6024
 11
1069.081
 21
2004.4436
  0
LINE
  8
0-2
  6
CONTINUOUS
 62
    3
 10
1069.081
 20
2004.4436
 11
1067.9181
 21
2004.053
  0
LINE
  8
0-2
  6
CONTINUOUS
 62
    3
 10
1067.9181
 20
2004.053
 11
1066.8335
 21
2003.4424
  0
LINE
  8
0-2
  6
CONTINUOUS
 62
    3
 10
1066.8335
 20
2003.4424
 11
1065.8602
 21
2002.6305
  0
LINE
  8
0-2
  6
CONTINUOUS
 62
    3
 10
1065.8602
 20
2002.6305
 11
1065.0277
 21
2001.6419
  0
LINE
  8
0-2
  6
CONTINUOUS
 62
    3
 10
1065.0277
 20
2001.6419
 11
1064.3613
 21
2000.5066
  0
LINE
  8
0-2
  6
CONTINUOUS
 62
    3
 10
1064.3613
 20
2000.5066
 11
1063.8813
 21
1999.2591
  0
LINE
  8
0-2
  6
CONTINUOUS
 62
    3
 10
1063.8813
 20
1999.2591
 11
1063.6748
 21
1998.397
  0
LINE
  8
0-2
  6
CONTINUOUS
 62
    3
 10
903.28993
 20
1985.267
 11
903.22916
 21
1986.0439
  0
LINE
  8
0-2
  6
CONTINUOUS
 62
    3
 10
903.22916
 20
1986.0439
 11
903.04871
 21
1986.7971
  0
LINE
  8
0-2
  6
CONTINUOUS
 62
    3
 10
903.04871
 20
1986.7971
 11
902.75404
 21
1987.5039
  0
LINE
  8
0-2
  6
CONTINUOUS
 62
    3
 10
902.75404
 20
1987.5039
 11
902.35413
 21
1988.1427
  0
LINE
  8
0-2
  6
CONTINUOUS
 62
    3
 10
902.35413
 20
1988.1427
 11
901.86111
 21
1988.6941
  0
LINE
  8
0-2
  6
CONTINUOUS
 62
    3
 10
901.86111
 20
1988.6941
 11
901.28997
 21
1989.1414
  0
LINE
  8
0-2
  6
CONTINUOUS
 62
    3
 10
901.28997
 20
1989.1414
 11
900.65807
 21
1989.4709
  0
LINE
  8
0-2
  6
CONTINUOUS
 62
    3
 10
900.65807
 20
1989.4709
 11
899.98459
 21
1989.6727
  0
LINE
  8
0-2
  6
CONTINUOUS
 62
    3
 10
899.98459
 20
1989.6727
 11
899.29001
 21
1989.7407
  0
LINE
  8
0-2
  6
CONTINUOUS
 62
    3
 10
899.29001
 20
1989.7407
 11
898.59543
 21
1989.6727
  0
LINE
  8
0-2
  6
CONTINUOUS
 62
    3
 10
898.59543
 20
1989.6727
 11
897.92196
 21
1989.4709
  0
LINE
  8
0-2
  6
CONTINUOUS
 62
    3
 10
897.92196
 20
1989.4709
 11
897.29005
 21
1989.1414
  0
LINE
  8
0-2
  6
CONTINUOUS
 62
    3
 10
897.29005
 20
1989.1414
 11
896.71891
 21
1988.6941
  0
LINE
  8
0-2
  6
CONTINUOUS
 62
    3
 10
896.71891
 20
1988.6941
 11
896.2259
 21
1988.1427
  0
LINE
  8
0-2
  6
CONTINUOUS
 62
    3
 10
896.2259
 20
1988.1427
 11
895.82598
 21
1987.5039
  0
LINE
  8
0-2
  6
CONTINUOUS
 62
    3
 10
895.82598
 20
1987.5039
 11
895.53132
 21
1986.7971
  0
LINE
  8
0-2
  6
CONTINUOUS
 62
    3
 10
895.53132
 20
1986.7971
 11
895.35086
 21
1986.0439
  0
LINE
  8
0-2
  6
CONTINUOUS
 62
    3
 10
895.35086
 20
1986.0439
 11
895.29009
 21
1985.267
  0
LINE
  8
0-2
  6
CONTINUOUS
 62
    3
 10
895.29009
 20
1985.267
 11
895.35086
 21
1984.4902
  0
LINE
  8
0-2
  6
CONTINUOUS
 62
    3
 10
895.35086
 20
1984.4902
 11
895.53132
 21
1983.7369
  0
LINE
  8
0-2
  6
CONTINUOUS
 62
    3
 10
895.53132
 20
1983.7369
 11
895.82598
 21
1983.0302
  0
LINE
  8
0-2
  6
CONTINUOUS
 62
    3
 10
895.82598
 20
1983.0302
 11
896.2259
 21
1982.3914
  0
LINE
  8
0-2
  6
CONTINUOUS
 62
    3
 10
896.2259
 20
1982.3914
 11
896.71891
 21
1981.84
  0
LINE
  8
0-2
  6
CONTINUOUS
 62
    3
 10
896.71891
 20
1981.84
 11
897.29005
 21
1981.3927
  0
LINE
  8
0-2
  6
CONTINUOUS
 62
    3
 10
897.29005
 20
1981.3927
 11
897.92196
 21
1981.0631
  0
LINE
  8
0-2
  6
CONTINUOUS
 62
    3
 10
897.92196
 20
1981.0631
 11
898.59543
 21
1980.8613
  0
LINE
  8
0-2
  6
CONTINUOUS
 62
    3
 10
898.59543
 20
1980.8613
 11
899.29001
 21
1980.7933
  0
LINE
  8
0-2
  6
CONTINUOUS
 62
    3
 10
899.29001
 20
1980.7933
 11
899.98459
 21
1980.8613
  0
LINE
  8
0-2
  6
CONTINUOUS
 62
    3
 10
899.98459
 20
1980.8613
 11
900.65807
 21
1981.0631
  0
LINE
  8
0-2
  6
CONTINUOUS
 62
    3
 10
900.65807
 20
1981.0631
 11
901.28997
 21
1981.3927
  0
LINE
  8
0-2
  6
CONTINUOUS
 62
    3
 10
901.28997
 20
1981.3927
 11
901.86111
 21
1981.84
  0
LINE
  8
0-2
  6
CONTINUOUS
 62
    3
 10
901.86111
 20
1981.84
 11
902.35413
 21
1982.3914
  0
LINE
  8
0-2
  6
CONTINUOUS
 62
    3
 10
902.35413
 20
1982.3914
 11
902.75404
 21
1983.0302
  0
LINE
  8
0-2
  6
CONTINUOUS
 62
    3
 10
902.75404
 20
1983.0302
 11
903.04871
 21
1983.7369
  0
LINE
  8
0-2
  6
CONTINUOUS
 62
    3
 10
903.04871
 20
1983.7369
 11
903.22916
 21
1984.4902
  0
LINE
  8
0-2
  6
CONTINUOUS
 62
    3
 10
903.22916
 20
1984.4902
 11
903.28993
 21
1985.267
  0
LINE
  8
0-2
  6
CONTINUOUS
 62
    3
 10
903.28993
 20
1899.1595
 11
903.22916
 21
1899.9363
  0
LINE
  8
0-2
  6
CONTINUOUS
 62
    3
 10
903.22916
 20
1899.9363
 11
903.04871
 21
1900.6895
  0
LINE
  8
0-2
  6
CONTINUOUS
 62
    3
 10
903.04871
 20
1900.6895
 11
902.75404
 21
1901.3963
  0
LINE
  8
0-2
  6
CONTINUOUS
 62
    3
 10
902.75404
 20
1901.3963
 11
902.35413
 21
1902.0351
  0
LINE
  8
0-2
  6
CONTINUOUS
 62
    3
 10
902.35413
 20
1902.0351
 11
901.86111
 21
1902.5865
  0
LINE
  8
0-2
  6
CONTINUOUS
 62
    3
 10
901.86111
 20
1902.5865
 11
901.28997
 21
1903.0338
  0
LINE
  8
0-2
  6
CONTINUOUS
 62
    3
 10
901.28997
 20
1903.0338
 11
900.65807
 21
1903.3633
  0
LINE
  8
0-2
  6
CONTINUOUS
 62
    3
 10
900.65807
 20
1903.3633
 11
899.98459
 21
1903.5652
  0
LINE
  8
0-2
  6
CONTINUOUS
 62
    3
 10
899.98459
 20
1903.5652
 11
899.29001
 21
1903.6331
  0
LINE
  8
0-2
  6
CONTINUOUS
 62
    3
 10
899.29001
 20
1903.6331
 11
898.59543
 21
1903.5652
  0
LINE
  8
0-2
  6
CONTINUOUS
 62
    3
 10
898.59543
 20
1903.5652
 11
897.92196
 21
1903.3633
  0
LINE
  8
0-2
  6
CONTINUOUS
 62
    3
 10
897.92196
 20
1903.3633
 11
897.29005
 21
1903.0338
  0
LINE
  8
0-2
  6
CONTINUOUS
 62
    3
 10
897.29005
 20
1903.0338
 11
896.71891
 21
1902.5865
  0
LINE
  8
0-2
  6
CONTINUOUS
 62
    3
 10
896.71891
 20
1902.5865
 11
896.2259
 21
1902.0351
  0
LINE
  8
0-2
  6
CONTINUOUS
 62
    3
 10
896.2259
 20
1902.0351
 11
895.82598
 21
1901.3963
  0
LINE
  8
0-2
  6
CONTINUOUS
 62
    3
 10
895.82598
 20
1901.3963
 11
895.53132
 21
1900.6895
  0
LINE
  8
0-2
  6
CONTINUOUS
 62
    3
 10
895.53132
 20
1900.6895
 11
895.35086
 21
1899.9363
  0
LINE
  8
0-2
  6
CONTINUOUS
 62
    3
 10
895.35086
 20
1899.9363
 11
895.29009
 21
1899.1595
  0
LINE
  8
0-2
  6
CONTINUOUS
 62
    3
 10
895.29009
 20
1899.1595
 11
895.35086
 21
1898.3826
  0
LINE
  8
0-2
  6
CONTINUOUS
 62
    3
 10
895.35086
 20
1898.3826
 11
895.53132
 21
1897.6294
  0
LINE
  8
0-2
  6
CONTINUOUS
 62
    3
 10
895.53132
 20
1897.6294
 11
895.82598
 21
1896.9226
  0
LINE
  8
0-2
  6
CONTINUOUS
 62
    3
 10
895.82598
 20
1896.9226
 11
896.2259
 21
1896.2838
  0
LINE
  8
0-2
  6
CONTINUOUS
 62
    3
 10
896.2259
 20
1896.2838
 11
896.71891
 21
1895.7324
  0
LINE
  8
0-2
  6
CONTINUOUS
 62
    3
 10
896.71891
 20
1895.7324
 11
897.29005
 21
1895.2851
  0
LINE
  8
0-2
  6
CONTINUOUS
 62
    3
 10
897.29005
 20
1895.2851
 11
897.92196
 21
1894.9556
  0
LINE
  8
0-2
  6
CONTINUOUS
 62
    3
 10
897.92196
 20
1894.9556
 11
898.59543
 21
1894.7537
  0
LINE
  8
0-2
  6
CONTINUOUS
 62
    3
 10
898.59543
 20
1894.7537
 11
899.29001
 21
1894.6858
  0
LINE
  8
0-2
  6
CONTINUOUS
 62
    3
 10
899.29001
 20
1894.6858
 11
899.98459
 21
1894.7537
  0
LINE
  8
0-2
  6
CONTINUOUS
 62
    3
 10
899.98459
 20
1894.7537
 11
900.65807
 21
1894.9556
  0
LINE
  8
0-2
  6
CONTINUOUS
 62
    3
 10
900.65807
 20
1894.9556
 11
901.28997
 21
1895.2851
  0
LINE
  8
0-2
  6
CONTINUOUS
 62
    3
 10
901.28997
 20
1895.2851
 11
901.86111
 21
1895.7324
  0
LINE
  8
0-2
  6
CONTINUOUS
 62
    3
 10
901.86111
 20
1895.7324
 11
902.35413
 21
1896.2838
  0
LINE
  8
0-2
  6
CONTINUOUS
 62
    3
 10
902.35413
 20
1896.2838
 11
902.75404
 21
1896.9226
  0
LINE
  8
0-2
  6
CONTINUOUS
 62
    3
 10
902.75404
 20
1896.9226
 11
903.04871
 21
1897.6294
  0
LINE
  8
0-2
  6
CONTINUOUS
 62
    3
 10
903.04871
 20
1897.6294
 11
903.22916
 21
1898.3826
  0
LINE
  8
0-2
  6
CONTINUOUS
 62
    3
 10
903.22916
 20
1898.3826
 11
903.28993
 21
1899.1595
  0
LINE
  8
0-2
  6
CONTINUOUS
 62
    3
 10
1196.7101
 20
1985.267
 11
1196.7709
 21
1984.4902
  0
LINE
  8
0-2
  6
CONTINUOUS
 62
    3
 10
1196.7709
 20
1984.4902
 11
1196.9513
 21
1983.7369
  0
LINE
  8
0-2
  6
CONTINUOUS
 62
    3
 10
1196.9513
 20
1983.7369
 11
1197.246
 21
1983.0302
  0
LINE
  8
0-2
  6
CONTINUOUS
 62
    3
 10
1197.246
 20
1983.0302
 11
1197.6459
 21
1982.3914
  0
LINE
  8
0-2
  6
CONTINUOUS
 62
    3
 10
1197.6459
 20
1982.3914
 11
1198.1389
 21
1981.84
  0
LINE
  8
0-2
  6
CONTINUOUS
 62
    3
 10
1198.1389
 20
1981.84
 11
1198.7101
 21
1981.3927
  0
LINE
  8
0-2
  6
CONTINUOUS
 62
    3
 10
1198.7101
 20
1981.3927
 11
1199.342
 21
1981.0631
  0
LINE
  8
0-2
  6
CONTINUOUS
 62
    3
 10
1199.342
 20
1981.0631
 11
1200.0155
 21
1980.8613
  0
LINE
  8
0-2
  6
CONTINUOUS
 62
    3
 10
1200.0155
 20
1980.8613
 11
1200.71
 21
1980.7933
  0
LINE
  8
0-2
  6
CONTINUOUS
 62
    3
 10
1200.71
 20
1980.7933
 11
1201.4046
 21
1980.8613
  0
LINE
  8
0-2
  6
CONTINUOUS
 62
    3
 10
1201.4046
 20
1980.8613
 11
1202.0781
 21
1981.0631
  0
LINE
  8
0-2
  6
CONTINUOUS
 62
    3
 10
1202.0781
 20
1981.0631
 11
1202.71
 21
1981.3927
  0
LINE
  8
0-2
  6
CONTINUOUS
 62
    3
 10
1202.71
 20
1981.3927
 11
1203.2811
 21
1981.84
  0
LINE
  8
0-2
  6
CONTINUOUS
 62
    3
 10
1203.2811
 20
1981.84
 11
1203.7742
 21
1982.3914
  0
LINE
  8
0-2
  6
CONTINUOUS
 62
    3
 10
1203.7742
 20
1982.3914
 11
1204.1741
 21
1983.0302
  0
LINE
  8
0-2
  6
CONTINUOUS
 62
    3
 10
1204.1741
 20
1983.0302
 11
1204.4687
 21
1983.7369
  0
LINE
  8
0-2
  6
CONTINUOUS
 62
    3
 10
1204.4687
 20
1983.7369
 11
1204.6492
 21
1984.4902
  0
LINE
  8
0-2
  6
CONTINUOUS
 62
    3
 10
1204.6492
 20
1984.4902
 11
1204.71
 21
1985.267
  0
LINE
  8
0-2
  6
CONTINUOUS
 62
    3
 10
1204.71
 20
1985.267
 11
1204.6492
 21
1986.0439
  0
LINE
  8
0-2
  6
CONTINUOUS
 62
    3
 10
1204.6492
 20
1986.0439
 11
1204.4687
 21
1986.7971
  0
LINE
  8
0-2
  6
CONTINUOUS
 62
    3
 10
1204.4687
 20
1986.7971
 11
1204.1741
 21
1987.5039
  0
LINE
  8
0-2
  6
CONTINUOUS
 62
    3
 10
1204.1741
 20
1987.5039
 11
1203.7742
 21
1988.1427
  0
LINE
  8
0-2
  6
CONTINUOUS
 62
    3
 10
1203.7742
 20
1988.1427
 11
1203.2811
 21
1988.6941
  0
LINE
  8
0-2
  6
CONTINUOUS
 62
    3
 10
1203.2811
 20
1988.6941
 11
1202.71
 21
1989.1414
  0
LINE
  8
0-2
  6
CONTINUOUS
 62
    3
 10
1202.71
 20
1989.1414
 11
1202.0781
 21
1989.4709
  0
LINE
  8
0-2
  6
CONTINUOUS
 62
    3
 10
1202.0781
 20
1989.4709
 11
1201.4046
 21
1989.6727
  0
LINE
  8
0-2
  6
CONTINUOUS
 62
    3
 10
1201.4046
 20
1989.6727
 11
1200.71
 21
1989.7407
  0
LINE
  8
0-2
  6
CONTINUOUS
 62
    3
 10
1200.71
 20
1989.7407
 11
1200.0155
 21
1989.6727
  0
LINE
  8
0-2
  6
CONTINUOUS
 62
    3
 10
1200.0155
 20
1989.6727
 11
1199.342
 21
1989.4709
  0
LINE
  8
0-2
  6
CONTINUOUS
 62
    3
 10
1199.342
 20
1989.4709
 11
1198.7101
 21
1989.1414
  0
LINE
  8
0-2
  6
CONTINUOUS
 62
    3
 10
1198.7101
 20
1989.1414
 11
1198.1389
 21
1988.6941
  0
LINE
  8
0-2
  6
CONTINUOUS
 62
    3
 10
1198.1389
 20
1988.6941
 11
1197.6459
 21
1988.1427
  0
LINE
  8
0-2
  6
CONTINUOUS
 62
    3
 10
1197.6459
 20
1988.1427
 11
1197.246
 21
1987.5039
  0
LINE
  8
0-2
  6
CONTINUOUS
 62
    3
 10
1197.246
 20
1987.5039
 11
1196.9513
 21
1986.7971
  0
LINE
  8
0-2
  6
CONTINUOUS
 62
    3
 10
1196.9513
 20
1986.7971
 11
1196.7709
 21
1986.0439
  0
LINE
  8
0-2
  6
CONTINUOUS
 62
    3
 10
1196.7709
 20
1986.0439
 11
1196.7101
 21
1985.267
  0
LINE
  8
0-2
  6
CONTINUOUS
 62
    3
 10
1196.7101
 20
1899.1595
 11
1196.7709
 21
1898.3826
  0
LINE
  8
0-2
  6
CONTINUOUS
 62
    3
 10
1196.7709
 20
1898.3826
 11
1196.9513
 21
1897.6294
  0
LINE
  8
0-2
  6
CONTINUOUS
 62
    3
 10
1196.9513
 20
1897.6294
 11
1197.246
 21
1896.9226
  0
LINE
  8
0-2
  6
CONTINUOUS
 62
    3
 10
1197.246
 20
1896.9226
 11
1197.6459
 21
1896.2838
  0
LINE
  8
0-2
  6
CONTINUOUS
 62
    3
 10
1197.6459
 20
1896.2838
 11
1198.1389
 21
1895.7324
  0
LINE
  8
0-2
  6
CONTINUOUS
 62
    3
 10
1198.1389
 20
1895.7324
 11
1198.7101
 21
1895.2851
  0
LINE
  8
0-2
  6
CONTINUOUS
 62
    3
 10
1198.7101
 20
1895.2851
 11
1199.342
 21
1894.9556
  0
LINE
  8
0-2
  6
CONTINUOUS
 62
    3
 10
1199.342
 20
1894.9556
 11
1200.0155
 21
1894.7537
  0
LINE
  8
0-2
  6
CONTINUOUS
 62
    3
 10
1200.0155
 20
1894.7537
 11
1200.71
 21
1894.6858
  0
LINE
  8
0-2
  6
CONTINUOUS
 62
    3
 10
1200.71
 20
1894.6858
 11
1201.4046
 21
1894.7537
  0
LINE
  8
0-2
  6
CONTINUOUS
 62
    3
 10
1201.4046
 20
1894.7537
 11
1202.0781
 21
1894.9556
  0
LINE
  8
0-2
  6
CONTINUOUS
 62
    3
 10
1202.0781
 20
1894.9556
 11
1202.71
 21
1895.2851
  0
LINE
  8
0-2
  6
CONTINUOUS
 62
    3
 10
1202.71
 20
1895.2851
 11
1203.2811
 21
1895.7324
  0
LINE
  8
0-2
  6
CONTINUOUS
 62
    3
 10
1203.2811
 20
1895.7324
 11
1203.7742
 21
1896.2838
  0
LINE
  8
0-2
  6
CONTINUOUS
 62
    3
 10
1203.7742
 20
1896.2838
 11
1204.1741
 21
1896.9226
  0
LINE
  8
0-2
  6
CONTINUOUS
 62
    3
 10
1204.1741
 20
1896.9226
 11
1204.4687
 21
1897.6294
  0
LINE
  8
0-2
  6
CONTINUOUS
 62
    3
 10
1204.4687
 20
1897.6294
 11
1204.6492
 21
1898.3826
  0
LINE
  8
0-2
  6
CONTINUOUS
 62
    3
 10
1204.6492
 20
1898.3826
 11
1204.71
 21
1899.1595
  0
LINE
  8
0-2
  6
CONTINUOUS
 62
    3
 10
1204.71
 20
1899.1595
 11
1204.6492
 21
1899.9363
  0
LINE
  8
0-2
  6
CONTINUOUS
 62
    3
 10
1204.6492
 20
1899.9363
 11
1204.4687
 21
1900.6895
  0
LINE
  8
0-2
  6
CONTINUOUS
 62
    3
 10
1204.4687
 20
1900.6895
 11
1204.1741
 21
1901.3963
  0
LINE
  8
0-2
  6
CONTINUOUS
 62
    3
 10
1204.1741
 20
1901.3963
 11
1203.7742
 21
1902.0351
  0
LINE
  8
0-2
  6
CONTINUOUS
 62
    3
 10
1203.7742
 20
1902.0351
 11
1203.2811
 21
1902.5865
  0
LINE
  8
0-2
  6
CONTINUOUS
 62
    3
 10
1203.2811
 20
1902.5865
 11
1202.71
 21
1903.0338
  0
LINE
  8
0-2
  6
CONTINUOUS
 62
    3
 10
1202.71
 20
1903.0338
 11
1202.0781
 21
1903.3633
  0
LINE
  8
0-2
  6
CONTINUOUS
 62
    3
 10
1202.0781
 20
1903.3633
 11
1201.4046
 21
1903.5652
  0
LINE
  8
0-2
  6
CONTINUOUS
 62
    3
 10
1201.4046
 20
1903.5652
 11
1200.71
 21
1903.6331
  0
LINE
  8
0-2
  6
CONTINUOUS
 62
    3
 10
1200.71
 20
1903.6331
 11
1200.0155
 21
1903.5652
  0
LINE
  8
0-2
  6
CONTINUOUS
 62
    3
 10
1200.0155
 20
1903.5652
 11
1199.342
 21
1903.3633
  0
LINE
  8
0-2
  6
CONTINUOUS
 62
    3
 10
1199.342
 20
1903.3633
 11
1198.7101
 21
1903.0338
  0
LINE
  8
0-2
  6
CONTINUOUS
 62
    3
 10
1198.7101
 20
1903.0338
 11
1198.1389
 21
1902.5865
  0
LINE
  8
0-2
  6
CONTINUOUS
 62
    3
 10
1198.1389
 20
1902.5865
 11
1197.6459
 21
1902.0351
  0
LINE
  8
0-2
  6
CONTINUOUS
 62
    3
 10
1197.6459
 20
1902.0351
 11
1197.246
 21
1901.3963
  0
LINE
  8
0-2
  6
CONTINUOUS
 62
    3
 10
1197.246
 20
1901.3963
 11
1196.9513
 21
1900.6895
  0
LINE
  8
0-2
  6
CONTINUOUS
 62
    3
 10
1196.9513
 20
1900.6895
 11
1196.7709
 21
1899.9363
  0
LINE
  8
0-2
  6
CONTINUOUS
 62
    3
 10
1196.7709
 20
1899.9363
 11
1196.7101
 21
1899.1595
  0
TEXT
  8
0-d
 10
254.9998
 20
157.4999
 40
25
 41
1
 50
0
  1
図
  0
TEXT
  8
0-d
 10
254.9998
 20
97.499963
 40
25
 41
1
 50
0
  1
番
  0
TEXT
  8
0-d
 10
655.00046
 20
157.4999
 40
25
 41
1
 50
0
  1
承
  0
TEXT
  8
0-d
 10
655.00046
 20
97.499963
 40
25
 41
1
 50
0
  1
認
  0
TEXT
  8
0-d
 10
1020.0003
 20
237.49994
 40
25
 41
1
 50
0
  1
尺
  0
TEXT
  8
0-d
 10
1020.0003
 20
197.49978
 40
25
 41
1
 50
0.0000762
  1
度
  0
TEXT
  8
0-d
 10
855.00014
 20
157.4999
 40
25
 41
1
 50
0
  1
製
  0
TEXT
  8
0-d
 10
855.00014
 20
97.499963
 40
25
 41
1
 50
0
  1
図
  0
TEXT
  8
0-d
 10
1555.0001
 20
237.49994
 40
25
 41
1
 50
0
  1
日
  0
TEXT
  8
0-d
 10
1555.0001
 20
197.49978
 40
25
 41
1
 50
0.0000762
  1
付
  0
TEXT
  8
0-d
 10
1111.4263
 20
163.48226
 40
20
 41
1
 50
0
  1
株式
  0
TEXT
  8
0-d
 10
1111.4263
 20
141.85179
 40
20
 41
1
 50
0.0000152
  1
会社
  0
TEXT
  8
0-d
 10
1174.2247
 20
143.24712
 40
40
 41
1
 50
0
  1
スズキベンチレーター
  0
TEXT
  8
0-d
 10
1237.9182
 20
94.024183
 40
20
 41
1
 50
0
  1
TEL(054)296-7000  FAX(054)296-7001
  0
TEXT
  8
0-d
 10
510.82469
 20
1335.9263
 40
30
 41
1
 50
0
  1
3
  0
TEXT
  8
0-d
 10
437.83142
 20
1300.18
 40
30
 41
1
 50
0.0002136
  1
10
  0
TEXT
  8
0-8
 10
994.27808
 20
1736.0015
 40
30
 41
1
 50
0
  1
405φ
  0
TEXT
  8
0-8
 10
350.5005
 20
1616.8853
 40
30
 41
1
 50
90
  1
60
  0
TEXT
  8
0-8
 10
350.5005
 20
1484.8857
 40
30
 41
1
 50
90
  1
210
  0
TEXT
  8
0-8
 10
1035.5564
 20
1266.73
 40
30
 41
1
 50
0
  1
500
  0
TEXT
  8
0-8
 10
1717.0001
 20
741.22656
 40
30
 41
1
 50
90
  1
500
  0
TEXT
  8
0-8
 10
1002.7608
 20
766.07904
 40
30
 41
1
 50
19.303695
  1
405φ
  0
TEXT
  8
0-8
 10
1007.3758
 20
2718.8815
 40
30
 41
1
 50
0
  1
680φ
  0
TEXT
  8
0-8
 10
574.00022
 20
2217.9804
 40
30
 41
1
 50
90
  1
850
  0
TEXT
  8
0-8
 10
996.81187
 20
1778.6445
 40
30
 41
1
 50
0
  1
415φ
  0
TEXT
  8
0-d
 10
308.45927
 20
140.30214
 40
30
 41
1
 50
0
  1
40-B10
  0
TEXT
  8
0-d
 10
1084.349
 20
210.10065
 40
40
 41
1
 50
0
  1
１／１０
  0
TEXT
  8
0-8
 10
357.0005
 20
741.22656
 40
30
 41
1
 50
90
  1
≒ 895
  0
TEXT
  8
0-d
 10
255.00005
 20
2776.1895
 40
50
 41
1
 50
0
  1
ＡＳ－４００　自然回転　直付型立面
  0
TEXT
  8
0-d
 10
280.67567
 20
215.81082
 40
30
 41
1
 50
0
  1
ＡＳ－４００　自然回転　直付型立面
  0
TEXT
  8
0-d
 10
1235.6792
 20
118.64593
 40
20
 41
1
 50
0
  1
〒421-2114　静岡市葵区安倍口新田１５２番地
  0
POINT
  8
0-8
 62
    2
 10
370.00049
 20
1392.2605
  0
POINT
  8
0-8
 62
    2
 10
370.00049
 20
1602.2605
  0
POINT
  8
0-8
 62
    2
 10
370.00049
 20
1662.2602
  0
POINT
  8
0-8
 62
    2
 10
370.00049
 20
321.35138
  0
POINT
  8
0-8
 62
    2
 10
370.00049
 20
1216.3512
  0
POINT
  8
0-8
 62
    2
 10
1730.0005
 20
518.85142
  0
POINT
  8
0-8
 62
    2
 10
1730.0005
 20
1018.8512
  0
POINT
  8
0-8
 62
    2
 10
799.99995
 20
1260.3871
  0
POINT
  8
0-8
 62
    2
 10
1300.0001
 20
1260.3871
  0
POINT
  8
0-8
 62
    2
 10
858.88494
 20
701.90936
  0
POINT
  8
0-8
 62
    2
 10
1241.1154
 20
835.79262
  0
POINT
  8
0-8
 62
    2
 10
847.49999
 20
1725.9059
  0
POINT
  8
0-8
 62
    2
 10
1252.5001
 20
1725.9059
  0
POINT
  8
0-8
 62
    2
 10
710.00002
 20
2707.0368
  0
POINT
  8
0-8
 62
    2
 10
1390.0002
 20
2707.0368
  0
POINT
  8
0-8
 62
    2
 10
580.00021
 20
1826.9055
  0
POINT
  8
0-8
 62
    2
 10
580.00021
 20
2676.9063
  0
POINT
  8
0-8
 62
    2
 10
580.00021
 20
1826.906
  0
POINT
  8
0-8
 62
    2
 10
840.00009
 20
1776.3882
  0
POINT
  8
0-8
 62
    2
 10
1260
 20
1776.3881
  0
ENDSEC
  0
EOF
