  0
SECTION
  2
HEADER
  9
$EXTMIN
 10
0
 20
0
  9
$EXTMAX
 10
4200
 20
2970
  0
ENDSEC
  0
SECTION
  2
TABLES
  0
TABLE
  2
LTYPE
 70
     9
  0
LTYPE
  2
CONTINUOUS
 70
    64
  3
実線
 72
    65
 73
     0
 40
0.0
  0
LTYPE
  2
DASHED1
 70
    64
  3
--  --  --  --  --  --  --  --  
 72
    65
 73
     2
 40
2.5
 49
1.25
 49
-1.25
  0
LTYPE
  2
DASHED2
 70
    64
  3
----    ----    ----    ----    
 72
    65
 73
     2
 40
5.0
 49
2.5
 49
-2.5
  0
LTYPE
  2
DASHED3
 70
    64
  3
------  ------  ------  ------  
 72
    65
 73
     2
 40
5.0
 49
3.75
 49
-1.25
  0
LTYPE
  2
CENTER1
 70
    64
  3
----- - ----- - ----- - ----- - 
 72
    65
 73
     4
 40
10.0
 49
6.25
 49
-1.25
 49
1.25
 49
-1.25
  0
LTYPE
  2
CENTER2
 70
    64
  3
----------  --  ----------  --  
 72
    65
 73
     4
 40
20.0
 49
12.5
 49
-2.5
 49
2.5
 49
-2.5
  0
LTYPE
  2
PHANTOM1
 70
    64
  3
--- - - --- - - --- - - --- - - 
 72
    65
 73
     6
 40
10.0
 49
3.25
 49
-1.25
 49
1.25
 49
-1.25
 49
1.25
 49
-1.25
  0
LTYPE
  2
PHANTOM2
 70
    64
  3
--------  -  -  --------  -  -  
 72
    65
 73
     6
 40
20.0
 49
10.0
 49
-2.5
 49
1.25
 49
-2.5
 49
1.25
 49
-2.5
  0
LTYPE
  2
DOT
 70
    64
  3
-   -   -   -   -   -   -   -   
 72
    65
 73
     2
 40
2.5
 49
0.625
 49
-1.875
  0
ENDTAB
  0
TABLE
  2
STYLE
 70
    1
  0
STYLE
  2
STANDARD
 70
    64
 40
0.0
 41
1.0
 42
0.0
 50
0.0
 71
     0
  3
TXT
  4
BIGFONT
  0
ENDTAB
  0
TABLE
  2
LAYER
 70
    5
  0
LAYER
  2
1-1
 70
   64
 62
    7
  6
CONTINUOUS
  0
LAYER
  2
1-2
 70
   64
 62
    7
  6
CONTINUOUS
  0
LAYER
  2
1-8
 70
   64
 62
    7
  6
CONTINUOUS
  0
LAYER
  2
1-d
 70
   64
 62
    7
  6
CONTINUOUS
  0
LAYER
  2
ADD_LINE
 70
   64
 62
    7
  6
CONTINUOUS
  0
ENDTAB
  0
ENDSEC
  0
SECTION
  2
ENTITIES
  0
LINE
  8
1-d
  6
CONTINUOUS
 62
    7
 10
250.00004
 20
2757.7013
 11
1850.0001
 21
2757.7013
  0
LINE
  8
1-d
  6
CONTINUOUS
 62
    7
 10
250.00004
 20
2767.7016
 11
1850.0001
 21
2767.7016
  0
LINE
  8
1-d
  6
CONTINUOUS
 62
    7
 10
249.99967
 20
189.99989
 11
1850.0003
 21
189.99989
  0
LINE
  8
1-d
  6
CONTINUOUS
 62
    7
 10
249.99967
 20
89.999806
 11
249.99967
 21
269.99991
  0
LINE
  8
1-d
  6
CONTINUOUS
 62
    7
 10
249.99967
 20
89.999806
 11
1850.0003
 21
89.999806
  0
LINE
  8
1-d
  6
CONTINUOUS
 62
    7
 10
1850.0003
 20
269.99991
 11
1850.0003
 21
89.999806
  0
LINE
  8
1-d
  6
CONTINUOUS
 62
    7
 10
249.99967
 20
269.99991
 11
1850.0003
 21
269.99991
  0
LINE
  8
1-d
  6
CONTINUOUS
 62
    7
 10
1050
 20
269.99991
 11
1050
 21
89.999806
  0
LINE
  8
1-d
  6
CONTINUOUS
 62
    7
 10
650.00019
 20
89.999806
 11
650.00019
 21
189.99989
  0
LINE
  8
1-d
  6
CONTINUOUS
 62
    7
 10
1050
 20
189.99989
 11
1050
 21
269.99991
  0
LINE
  8
1-d
  6
CONTINUOUS
 62
    7
 10
849.99975
 20
89.999806
 11
849.99975
 21
189.99989
  0
LINE
  8
1-d
  6
CONTINUOUS
 62
    7
 10
285.00002
 20
89.999806
 11
285.00002
 21
189.99989
  0
LINE
  8
1-d
  6
CONTINUOUS
 62
    7
 10
685.00006
 20
89.999806
 11
685.00006
 21
189.99989
  0
LINE
  8
1-d
  6
CONTINUOUS
 62
    7
 10
885.00011
 20
89.999806
 11
885.00011
 21
189.99989
  0
LINE
  8
1-d
  6
CONTINUOUS
 62
    7
 10
1015
 20
189.99989
 11
1015
 21
269.99991
  0
LINE
  8
1-d
  6
CONTINUOUS
 62
    7
 10
1550.0004
 20
189.99989
 11
1550.0004
 21
269.99991
  0
LINE
  8
1-d
  6
CONTINUOUS
 62
    7
 10
1585.0002
 20
189.99989
 11
1585.0002
 21
269.99991
  0
LINE
  8
1-8
  6
CONTINUOUS
 62
    7
 10
437.91889
 20
1596.459
 11
250.00096
 21
1596.459
  0
LINE
  8
1-8
  6
CONTINUOUS
 62
    7
 10
525.00015
 20
2583.3394
 11
1575.0004
 21
2583.3394
  0
LINE
  8
1-2
  6
CONTINUOUS
 62
    3
 10
524.9999
 20
1888.5408
 11
1575.0004
 21
1888.5413
  0
LINE
  8
1-2
  6
CONTINUOUS
 62
    3
 10
524.9999
 20
1910.2071
 11
1575.0004
 21
1910.2075
  0
LINE
  8
1-2
  6
CONTINUOUS
 62
    3
 10
524.9999
 20
1851.4582
 11
1575.0004
 21
1851.4587
  0
LINE
  8
1-2
  6
CONTINUOUS
 62
    3
 10
524.9999
 20
1888.5408
 11
524.9999
 21
1851.4579
  0
LINE
  8
1-2
  6
CONTINUOUS
 62
    3
 10
704.16663
 20
1829.7924
 11
704.16663
 21
1779.7921
  0
LINE
  8
1-2
  6
CONTINUOUS
 62
    3
 10
1395.8337
 20
1829.7924
 11
1395.8337
 21
1779.7921
  0
LINE
  8
1-8
  6
CONTINUOUS
 62
    7
 10
525.00015
 20
2463.1259
 11
525.00015
 21
2583.3394
  0
LINE
  8
1-8
  6
CONTINUOUS
 62
    7
 10
1575.0004
 20
2463.1259
 11
1575.0004
 21
2583.3394
  0
LINE
  8
1-2
  6
CONTINUOUS
 62
    3
 10
1574.9984
 20
1888.5413
 11
1574.9984
 21
1851.4582
  0
LINE
  8
1-2
  6
CONTINUOUS
 62
    3
 10
524.9999
 20
1829.792
 11
1575.0004
 21
1829.7924
  0
LINE
  8
1-2
  6
CONTINUOUS
 62
    3
 10
525.00015
 20
2358.1261
 11
1575.0004
 21
2358.1266
  0
LINE
  8
1-2
  6
CONTINUOUS
 62
    3
 10
525.00015
 20
2379.7924
 11
1575.0004
 21
2379.7927
  0
LINE
  8
1-2
  6
CONTINUOUS
 62
    3
 10
525.00015
 20
2321.0435
 11
1575.0004
 21
2321.0438
  0
LINE
  8
1-2
  6
CONTINUOUS
 62
    3
 10
525.00015
 20
2358.1261
 11
525.00015
 21
2321.043
  0
LINE
  8
1-2
  6
CONTINUOUS
 62
    3
 10
1574.9989
 20
2358.1266
 11
1574.9989
 21
2321.0435
  0
LINE
  8
1-2
  6
CONTINUOUS
 62
    3
 10
525.00015
 20
2299.3772
 11
1575.0004
 21
2299.3777
  0
LINE
  8
1-2
  6
CONTINUOUS
 62
    3
 10
524.9999
 20
2299.3772
 11
524.9999
 21
1910.2071
  0
LINE
  8
1-2
  6
CONTINUOUS
 62
    3
 10
1575.0004
 20
2299.3777
 11
1575.0004
 21
1910.2075
  0
LINE
  8
1-8
  6
CONTINUOUS
 62
    7
 10
437.91889
 20
2529.7924
 11
250.00096
 21
2529.7924
  0
LINE
  8
1-2
  6
CONTINUOUS
 62
    3
 10
1050.0001
 20
2529.7924
 11
790.19329
 21
2379.7927
  0
LINE
  8
1-2
  6
CONTINUOUS
 62
    3
 10
1050.0001
 20
2529.7924
 11
1309.8068
 21
2379.7927
  0
LINE
  8
1-2
  6
CONTINUOUS
 62
    3
 10
533.33342
 20
1596.459
 11
533.33342
 21
1696.459
  0
LINE
  8
1-2
  6
CONTINUOUS
 62
    3
 10
533.33342
 20
1696.459
 11
1566.6666
 21
1696.459
  0
LINE
  8
1-2
  6
CONTINUOUS
 62
    3
 10
1566.6666
 20
1596.459
 11
1566.6666
 21
1696.459
  0
LINE
  8
1-2
  6
CONTINUOUS
 62
    3
 10
533.33342
 20
1596.459
 11
1566.6666
 21
1596.459
  0
LINE
  8
1-1
  6
CENTER2
 62
    7
 10
1050.0001
 20
2529.7924
 11
1050.0001
 21
1596.459
  0
LINE
  8
1-8
  6
CONTINUOUS
 62
    7
 10
533.33342
 20
1440.2835
 11
1566.6666
 21
1440.2835
  0
LINE
  8
1-8
  6
CONTINUOUS
 62
    7
 10
250.00096
 20
1596.459
 11
250.00096
 21
2529.7924
  0
LINE
  8
1-2
  6
CONTINUOUS
 62
    3
 10
823.05621
 20
1801.0428
 11
823.05621
 21
1696.459
  0
LINE
  8
1-2
  6
CONTINUOUS
 62
    3
 10
823.05621
 20
1801.0428
 11
533.33342
 21
1696.459
  0
LINE
  8
1-2
  6
CONTINUOUS
 62
    3
 10
704.16663
 20
1779.7921
 11
764.18675
 21
1779.7921
  0
LINE
  8
1-2
  6
CONTINUOUS
 62
    3
 10
1276.9441
 20
1801.0428
 11
1276.9441
 21
1696.459
  0
LINE
  8
1-2
  6
CONTINUOUS
 62
    3
 10
1276.9441
 20
1801.0428
 11
1566.6669
 21
1696.459
  0
LINE
  8
1-2
  6
CONTINUOUS
 62
    3
 10
823.05621
 20
1758.1262
 11
1276.9441
 21
1758.1262
  0
LINE
  8
1-2
  6
CONTINUOUS
 62
    3
 10
823.05621
 20
1779.7921
 11
1276.9441
 21
1779.7921
  0
LINE
  8
1-2
  6
CONTINUOUS
 62
    3
 10
1335.8136
 20
1779.7921
 11
1395.8352
 21
1779.7921
  0
LINE
  8
1-8
  6
CONTINUOUS
 62
    7
 10
533.33342
 20
1554.9941
 11
533.33342
 21
1440.2835
  0
LINE
  8
1-8
  6
CONTINUOUS
 62
    7
 10
1566.6666
 20
1554.9941
 11
1566.6666
 21
1440.2835
  0
ARC
  8
1-2
  6
CONTINUOUS
 62
    3
 10
704.16663
 20
1768.959
 40
10.832832
 50
90
 51
270
  0
ARC
  8
1-2
  6
CONTINUOUS
 62
    3
 10
524.9999
 20
1899.3742
 40
10.832832
 50
90
 51
270
  0
ARC
  8
1-2
  6
CONTINUOUS
 62
    3
 10
524.9999
 20
1840.625
 40
10.832832
 50
90
 51
270
  0
ARC
  8
1-2
  6
CONTINUOUS
 62
    3
 10
1574.9984
 20
1899.3746
 40
10.832832
 50
270
 51
90
  0
ARC
  8
1-2
  6
CONTINUOUS
 62
    3
 10
1574.9984
 20
1840.6253
 40
10.832832
 50
270
 51
90
  0
ARC
  8
1-2
  6
CONTINUOUS
 62
    3
 10
525.00015
 20
2368.9595
 40
10.832832
 50
90
 51
270
  0
ARC
  8
1-2
  6
CONTINUOUS
 62
    3
 10
525.00015
 20
2310.2101
 40
10.832832
 50
90
 51
270
  0
ARC
  8
1-2
  6
CONTINUOUS
 62
    3
 10
1574.9989
 20
2368.9597
 40
10.832832
 50
270
 51
90
  0
ARC
  8
1-2
  6
CONTINUOUS
 62
    3
 10
1574.9989
 20
2310.2106
 40
10.832832
 50
270
 51
90
  0
ARC
  8
1-2
  6
CONTINUOUS
 62
    3
 10
1395.8337
 20
1768.959
 40
10.832832
 50
270
 51
90
  0
TEXT
  8
1-d
 10
254.9998
 20
157.4999
 40
25
 41
1
 50
0
  1
図
  0
TEXT
  8
1-d
 10
254.9998
 20
97.499963
 40
25
 41
1
 50
0
  1
番
  0
TEXT
  8
1-d
 10
655.00046
 20
157.4999
 40
25
 41
1
 50
0
  1
承
  0
TEXT
  8
1-d
 10
655.00046
 20
97.499963
 40
25
 41
1
 50
0
  1
認
  0
TEXT
  8
1-d
 10
1020.0003
 20
237.49994
 40
25
 41
1
 50
0
  1
尺
  0
TEXT
  8
1-d
 10
1020.0003
 20
197.49978
 40
25
 41
1
 50
0.0000762
  1
度
  0
TEXT
  8
1-d
 10
855.00014
 20
157.4999
 40
25
 41
1
 50
0
  1
製
  0
TEXT
  8
1-d
 10
855.00014
 20
97.499963
 40
25
 41
1
 50
0
  1
図
  0
TEXT
  8
1-d
 10
1555.0001
 20
237.49994
 40
25
 41
1
 50
0
  1
日
  0
TEXT
  8
1-d
 10
1555.0001
 20
197.49978
 40
25
 41
1
 50
0.0000762
  1
付
  0
TEXT
  8
1-d
 10
1111.4263
 20
163.48226
 40
20
 41
1
 50
0
  1
株式
  0
TEXT
  8
1-d
 10
1111.4263
 20
141.85179
 40
20
 41
1
 50
0.0000152
  1
会社
  0
TEXT
  8
1-d
 10
1174.2247
 20
143.24712
 40
40
 41
1
 50
0
  1
スズキベンチレーター
  0
TEXT
  8
1-d
 10
1237.9182
 20
94.024183
 40
20
 41
1
 50
0
  1
TEL(054)296-7000  FAX(054)296-7001
  0
TEXT
  8
1-d
 10
1084.349
 20
210.10065
 40
40
 41
1
 50
0
  1
１／６
  0
TEXT
  8
1-8
 10
1019.6264
 20
2606.4292
 40
30
 41
1
 50
0
  1
630
  0
TEXT
  8
1-8
 10
217.50097
 20
1948.1235
 40
30
 41
1
 50
90
  1
560
  0
TEXT
  8
1-d
 10
255.00005
 20
2776.1895
 40
50
 41
1
 50
0
  1
ＤＳ－４００　自然換気　架台型立面
  0
TEXT
  8
1-d
 10
280.67567
 20
215.81082
 40
30
 41
1
 50
0
  1
ＤＳ－４００　自然換気　架台型立面
  0
TEXT
  8
1-d
 10
1235.6792
 20
118.64593
 40
20
 41
1
 50
0
  1
〒421-2114　静岡市葵区安倍口新田１５２番地
  0
TEXT
  8
1-d
 10
308.45927
 20
140.30214
 40
30
 41
1
 50
0
  1
40-B07b
  0
TEXT
  8
1-8
 10
1028.75
 20
1450.2835
 40
30
 41
1
 50
0
  1
620x620
  0
POINT
  8
1-8
 62
    2
 10
250.00096
 20
1596.459
  0
POINT
  8
1-8
 62
    2
 10
250.00096
 20
2529.7924
  0
POINT
  8
1-8
 62
    2
 10
525.00015
 20
2583.3394
  0
POINT
  8
1-8
 62
    2
 10
1575.0004
 20
2583.3394
  0
POINT
  8
1-8
 62
    2
 10
533.33342
 20
1440.2835
  0
POINT
  8
1-8
 62
    2
 10
1566.6666
 20
1440.2835
  0
ENDSEC
  0
EOF
