  0
SECTION
  2
HEADER
  9
$EXTMIN
 10
0
 20
0
  9
$EXTMAX
 10
4200
 20
2970
  0
ENDSEC
  0
SECTION
  2
TABLES
  0
TABLE
  2
LTYPE
 70
     9
  0
LTYPE
  2
CONTINUOUS
 70
    64
  3
実線
 72
    65
 73
     0
 40
0.0
  0
LTYPE
  2
DASHED1
 70
    64
  3
--  --  --  --  --  --  --  --  
 72
    65
 73
     2
 40
2.5
 49
1.25
 49
-1.25
  0
LTYPE
  2
DASHED2
 70
    64
  3
----    ----    ----    ----    
 72
    65
 73
     2
 40
5.0
 49
2.5
 49
-2.5
  0
LTYPE
  2
DASHED3
 70
    64
  3
------  ------  ------  ------  
 72
    65
 73
     2
 40
5.0
 49
3.75
 49
-1.25
  0
LTYPE
  2
CENTER1
 70
    64
  3
----- - ----- - ----- - ----- - 
 72
    65
 73
     4
 40
10.0
 49
6.25
 49
-1.25
 49
1.25
 49
-1.25
  0
LTYPE
  2
CENTER2
 70
    64
  3
----------  --  ----------  --  
 72
    65
 73
     4
 40
20.0
 49
12.5
 49
-2.5
 49
2.5
 49
-2.5
  0
LTYPE
  2
PHANTOM1
 70
    64
  3
--- - - --- - - --- - - --- - - 
 72
    65
 73
     6
 40
10.0
 49
3.25
 49
-1.25
 49
1.25
 49
-1.25
 49
1.25
 49
-1.25
  0
LTYPE
  2
PHANTOM2
 70
    64
  3
--------  -  -  --------  -  -  
 72
    65
 73
     6
 40
20.0
 49
10.0
 49
-2.5
 49
1.25
 49
-2.5
 49
1.25
 49
-2.5
  0
LTYPE
  2
DOT
 70
    64
  3
-   -   -   -   -   -   -   -   
 72
    65
 73
     2
 40
2.5
 49
0.625
 49
-1.875
  0
ENDTAB
  0
TABLE
  2
STYLE
 70
    1
  0
STYLE
  2
STANDARD
 70
    64
 40
0.0
 41
1.0
 42
0.0
 50
0.0
 71
     0
  3
TXT
  4
BIGFONT
  0
ENDTAB
  0
TABLE
  2
LAYER
 70
    3
  0
LAYER
  2
1-0
 70
   64
 62
    7
  6
CONTINUOUS
  0
LAYER
  2
1-d
 70
   64
 62
    7
  6
CONTINUOUS
  0
LAYER
  2
ADD_LINE
 70
   64
 62
    7
  6
CONTINUOUS
  0
ENDTAB
  0
ENDSEC
  0
SECTION
  2
ENTITIES
  0
LINE
  8
1-d
  6
CONTINUOUS
 62
    7
 10
250.00004
 20
2757.7013
 11
1850.0001
 21
2757.7013
  0
LINE
  8
1-d
  6
CONTINUOUS
 62
    7
 10
250.00004
 20
2767.7016
 11
1850.0001
 21
2767.7016
  0
LINE
  8
1-d
  6
CONTINUOUS
 62
    7
 10
249.99967
 20
189.99989
 11
1850.0003
 21
189.99989
  0
LINE
  8
1-d
  6
CONTINUOUS
 62
    7
 10
249.99967
 20
89.999806
 11
249.99967
 21
269.99991
  0
LINE
  8
1-d
  6
CONTINUOUS
 62
    7
 10
249.99967
 20
89.999806
 11
1850.0003
 21
89.999806
  0
LINE
  8
1-d
  6
CONTINUOUS
 62
    7
 10
1850.0003
 20
269.99991
 11
1850.0003
 21
89.999806
  0
LINE
  8
1-d
  6
CONTINUOUS
 62
    7
 10
249.99967
 20
269.99991
 11
1850.0003
 21
269.99991
  0
LINE
  8
1-d
  6
CONTINUOUS
 62
    7
 10
1050
 20
269.99991
 11
1050
 21
89.999806
  0
LINE
  8
1-d
  6
CONTINUOUS
 62
    7
 10
650.00019
 20
89.999806
 11
650.00019
 21
189.99989
  0
LINE
  8
1-d
  6
CONTINUOUS
 62
    7
 10
1050
 20
189.99989
 11
1050
 21
269.99991
  0
LINE
  8
1-d
  6
CONTINUOUS
 62
    7
 10
849.99975
 20
89.999806
 11
849.99975
 21
189.99989
  0
LINE
  8
1-d
  6
CONTINUOUS
 62
    7
 10
285.00002
 20
89.999806
 11
285.00002
 21
189.99989
  0
LINE
  8
1-d
  6
CONTINUOUS
 62
    7
 10
685.00006
 20
89.999806
 11
685.00006
 21
189.99989
  0
LINE
  8
1-d
  6
CONTINUOUS
 62
    7
 10
885.00011
 20
89.999806
 11
885.00011
 21
189.99989
  0
LINE
  8
1-d
  6
CONTINUOUS
 62
    7
 10
1015
 20
189.99989
 11
1015
 21
269.99991
  0
LINE
  8
1-d
  6
CONTINUOUS
 62
    7
 10
1550.0004
 20
189.99989
 11
1550.0004
 21
269.99991
  0
LINE
  8
1-d
  6
CONTINUOUS
 62
    7
 10
1585.0002
 20
189.99989
 11
1585.0002
 21
269.99991
  0
LINE
  8
1-0
  6
CONTINUOUS
 62
    7
 10
437.91889
 20
1693.9419
 11
250.00096
 21
1693.9419
  0
LINE
  8
1-0
  6
CONTINUOUS
 62
    7
 10
525.00015
 20
2597.4892
 11
1575.0004
 21
2597.4892
  0
LINE
  8
1-0
  6
CONTINUOUS
 62
    7
 10
704.16663
 20
1578.0427
 11
1395.8337
 21
1578.0427
  0
LINE
  8
1-0
  6
CONTINUOUS
 62
    3
 10
524.9999
 20
1911.0241
 11
1575.0004
 21
1911.0246
  0
LINE
  8
1-0
  6
CONTINUOUS
 62
    3
 10
524.9999
 20
1932.6904
 11
1575.0004
 21
1932.6908
  0
LINE
  8
1-0
  6
CONTINUOUS
 62
    3
 10
524.9999
 20
1873.9415
 11
1575.0004
 21
1873.942
  0
LINE
  8
1-0
  6
CONTINUOUS
 62
    3
 10
524.9999
 20
1911.0241
 11
524.9999
 21
1873.9411
  0
LINE
  8
1-0
  6
CONTINUOUS
 62
    3
 10
704.16663
 20
1763.9426
 11
1395.8352
 21
1763.9426
  0
LINE
  8
1-0
  6
CONTINUOUS
 62
    3
 10
704.16663
 20
1785.6087
 11
1395.8352
 21
1785.6087
  0
LINE
  8
1-0
  6
CONTINUOUS
 62
    3
 10
704.16663
 20
1715.6085
 11
1395.8352
 21
1715.6085
  0
LINE
  8
1-0
  6
CONTINUOUS
 62
    3
 10
704.16663
 20
1693.9423
 11
1395.8352
 21
1693.9423
  0
LINE
  8
1-0
  6
CONTINUOUS
 62
    3
 10
704.16663
 20
1763.9426
 11
704.16663
 21
1715.6081
  0
LINE
  8
1-0
  6
CONTINUOUS
 62
    3
 10
1395.8337
 20
1763.9426
 11
1395.8337
 21
1715.6081
  0
LINE
  8
1-0
  6
CONTINUOUS
 62
    3
 10
704.16663
 20
1852.2757
 11
704.16663
 21
1785.6087
  0
LINE
  8
1-0
  6
CONTINUOUS
 62
    3
 10
1395.8337
 20
1852.2757
 11
1395.8337
 21
1785.6087
  0
LINE
  8
1-0
  6
CONTINUOUS
 62
    7
 10
525.00015
 20
2477.2758
 11
525.00015
 21
2597.4892
  0
LINE
  8
1-0
  6
CONTINUOUS
 62
    7
 10
1575.0004
 20
2477.2758
 11
1575.0004
 21
2597.4892
  0
LINE
  8
1-0
  6
CONTINUOUS
 62
    3
 10
1395.8337
 20
1763.9426
 11
1395.8337
 21
1715.6081
  0
LINE
  8
1-0
  6
CONTINUOUS
 62
    3
 10
1574.9984
 20
1911.0246
 11
1574.9984
 21
1873.9415
  0
LINE
  8
1-0
  6
CONTINUOUS
 62
    3
 10
524.9999
 20
1852.2752
 11
1575.0004
 21
1852.2757
  0
LINE
  8
1-0
  6
CONTINUOUS
 62
    7
 10
704.16663
 20
1667.6398
 11
704.16663
 21
1578.0427
  0
LINE
  8
1-0
  6
CONTINUOUS
 62
    7
 10
1395.8337
 20
1667.6398
 11
1395.8337
 21
1578.0427
  0
LINE
  8
1-0
  6
CONTINUOUS
 62
    3
 10
525.00015
 20
2372.2759
 11
1575.0004
 21
2372.2764
  0
LINE
  8
1-0
  6
CONTINUOUS
 62
    3
 10
525.00015
 20
2393.9423
 11
1575.0004
 21
2393.9425
  0
LINE
  8
1-0
  6
CONTINUOUS
 62
    3
 10
525.00015
 20
2335.1934
 11
1575.0004
 21
2335.1936
  0
LINE
  8
1-0
  6
CONTINUOUS
 62
    3
 10
525.00015
 20
2372.2759
 11
525.00015
 21
2335.1929
  0
LINE
  8
1-0
  6
CONTINUOUS
 62
    3
 10
1574.9989
 20
2372.2764
 11
1574.9989
 21
2335.1934
  0
LINE
  8
1-0
  6
CONTINUOUS
 62
    3
 10
525.00015
 20
2313.527
 11
1575.0004
 21
2313.5275
  0
LINE
  8
1-0
  6
CONTINUOUS
 62
    3
 10
524.9999
 20
2313.527
 11
524.9999
 21
1932.6904
  0
LINE
  8
1-0
  6
CONTINUOUS
 62
    3
 10
1575.0004
 20
2313.5275
 11
1575.0004
 21
1932.6908
  0
LINE
  8
1-0
  6
CONTINUOUS
 62
    7
 10
437.91889
 20
2543.9423
 11
250.00096
 21
2543.9423
  0
LINE
  8
1-0
  6
CONTINUOUS
 62
    3
 10
1050.0001
 20
2543.9423
 11
790.19329
 21
2393.9425
  0
LINE
  8
1-0
  6
CONTINUOUS
 62
    3
 10
1050.0001
 20
2543.9423
 11
1309.8068
 21
2393.9425
  0
LINE
  8
1-0
  6
CENTER2
 62
    7
 10
1050.0001
 20
2543.9423
 11
1050.0001
 21
2529.7924
  0
LINE
  8
1-0
  6
CENTER2
 62
    7
 10
1050.0001
 20
2529.7924
 11
1050.0001
 21
1578.0427
  0
LINE
  8
1-0
  6
CONTINUOUS
 62
    7
 10
250.00096
 20
1693.9419
 11
250.00096
 21
2543.9423
  0
ARC
  8
1-0
  6
CONTINUOUS
 62
    3
 10
704.16663
 20
1704.7752
 40
10.832832
 50
90
 51
270
  0
ARC
  8
1-0
  6
CONTINUOUS
 62
    3
 10
704.16663
 20
1774.7755
 40
10.832832
 50
90
 51
270
  0
ARC
  8
1-0
  6
CONTINUOUS
 62
    3
 10
1395.8337
 20
1704.7752
 40
10.832832
 50
270
 51
90
  0
ARC
  8
1-0
  6
CONTINUOUS
 62
    3
 10
1395.8337
 20
1774.7755
 40
10.832832
 50
270
 51
90
  0
ARC
  8
1-0
  6
CONTINUOUS
 62
    3
 10
524.9999
 20
1921.8575
 40
10.832832
 50
90
 51
270
  0
ARC
  8
1-0
  6
CONTINUOUS
 62
    3
 10
524.9999
 20
1863.1081
 40
10.832832
 50
90
 51
270
  0
ARC
  8
1-0
  6
CONTINUOUS
 62
    3
 10
1574.9984
 20
1921.8579
 40
10.832832
 50
270
 51
90
  0
ARC
  8
1-0
  6
CONTINUOUS
 62
    3
 10
1574.9984
 20
1863.1086
 40
10.832832
 50
270
 51
90
  0
ARC
  8
1-0
  6
CONTINUOUS
 62
    3
 10
525.00015
 20
2383.1093
 40
10.832832
 50
90
 51
270
  0
ARC
  8
1-0
  6
CONTINUOUS
 62
    3
 10
525.00015
 20
2324.3599
 40
10.832832
 50
90
 51
270
  0
ARC
  8
1-0
  6
CONTINUOUS
 62
    3
 10
1574.9989
 20
2383.1096
 40
10.832832
 50
270
 51
90
  0
ARC
  8
1-0
  6
CONTINUOUS
 62
    3
 10
1574.9989
 20
2324.3604
 40
10.832832
 50
270
 51
90
  0
TEXT
  8
1-d
 10
254.9998
 20
157.4999
 40
25
 41
1
 50
0
  1
図
  0
TEXT
  8
1-d
 10
254.9998
 20
97.499963
 40
25
 41
1
 50
0
  1
番
  0
TEXT
  8
1-d
 10
655.00046
 20
157.4999
 40
25
 41
1
 50
0
  1
承
  0
TEXT
  8
1-d
 10
655.00046
 20
97.499963
 40
25
 41
1
 50
0
  1
認
  0
TEXT
  8
1-d
 10
1020.0003
 20
237.49994
 40
25
 41
1
 50
0
  1
尺
  0
TEXT
  8
1-d
 10
1020.0003
 20
197.49978
 40
25
 41
1
 50
0.0000762
  1
度
  0
TEXT
  8
1-d
 10
855.00014
 20
157.4999
 40
25
 41
1
 50
0
  1
製
  0
TEXT
  8
1-d
 10
855.00014
 20
97.499963
 40
25
 41
1
 50
0
  1
図
  0
TEXT
  8
1-d
 10
1555.0001
 20
237.49994
 40
25
 41
1
 50
0
  1
日
  0
TEXT
  8
1-d
 10
1555.0001
 20
197.49978
 40
25
 41
1
 50
0.0000762
  1
付
  0
TEXT
  8
1-d
 10
1111.4263
 20
163.48226
 40
20
 41
1
 50
0
  1
株式
  0
TEXT
  8
1-d
 10
1111.4263
 20
141.85179
 40
20
 41
1
 50
0.0000152
  1
会社
  0
TEXT
  8
1-d
 10
1174.2247
 20
143.24712
 40
40
 41
1
 50
0
  1
スズキベンチレーター
  0
TEXT
  8
1-d
 10
1237.9182
 20
94.024183
 40
20
 41
1
 50
0
  1
TEL(054)296-7000  FAX(054)296-7001
  0
TEXT
  8
1-d
 10
1084.349
 20
210.10065
 40
40
 41
1
 50
0
  1
１／６
  0
TEXT
  8
1-0
 10
1001.6667
 20
1599.7096
 40
30
 41
1
 50
0
  1
415φ
  0
TEXT
  8
1-0
 10
1020.6253
 20
2629.9905
 40
30
 41
1
 50
0
  1
630
  0
TEXT
  8
1-0
 10
233.23439
 20
2094.7006
 40
30
 41
1
 50
90
  1
510
  0
TEXT
  8
1-d
 10
308.45927
 20
140.30214
 40
30
 41
1
 50
0
  1
40-B07a
  0
TEXT
  8
1-d
 10
255.00005
 20
2776.1895
 40
50
 41
1
 50
0
  1
ＤＳ－４００　自然換気　直付型立面
  0
TEXT
  8
1-d
 10
1235.6792
 20
118.64593
 40
20
 41
1
 50
0
  1
〒421-2114　静岡市葵区安倍口新田１５２番地
  0
TEXT
  8
1-d
 10
280.67567
 20
215.81082
 40
30
 41
1
 50
0
  1
ＤＳ－４００　自然換気　直付型立面
  0
POINT
  8
1-0
 62
    2
 10
250.00096
 20
1693.9419
  0
POINT
  8
1-0
 62
    2
 10
250.00096
 20
2543.9423
  0
POINT
  8
1-0
 62
    2
 10
525.00015
 20
2597.4892
  0
POINT
  8
1-0
 62
    2
 10
1575.0004
 20
2597.4892
  0
POINT
  8
1-0
 62
    2
 10
704.16663
 20
1578.0427
  0
POINT
  8
1-0
 62
    2
 10
1395.8337
 20
1578.0427
  0
ENDSEC
  0
EOF
