  0
SECTION
  2
HEADER
  9
$EXTMIN
 10
0
 20
0
  9
$EXTMAX
 10
2520
 20
1782
  0
ENDSEC
  0
SECTION
  2
TABLES
  0
TABLE
  2
LTYPE
 70
     9
  0
LTYPE
  2
CONTINUOUS
 70
    64
  3
実線
 72
    65
 73
     0
 40
0.0
  0
LTYPE
  2
DASHED1
 70
    64
  3
--  --  --  --  --  --  --  --  
 72
    65
 73
     2
 40
2.5
 49
1.25
 49
-1.25
  0
LTYPE
  2
DASHED2
 70
    64
  3
----    ----    ----    ----    
 72
    65
 73
     2
 40
5.0
 49
2.5
 49
-2.5
  0
LTYPE
  2
DASHED3
 70
    64
  3
------  ------  ------  ------  
 72
    65
 73
     2
 40
5.0
 49
3.75
 49
-1.25
  0
LTYPE
  2
CENTER1
 70
    64
  3
----- - ----- - ----- - ----- - 
 72
    65
 73
     4
 40
10.0
 49
6.25
 49
-1.25
 49
1.25
 49
-1.25
  0
LTYPE
  2
CENTER2
 70
    64
  3
----------  --  ----------  --  
 72
    65
 73
     4
 40
20.0
 49
12.5
 49
-2.5
 49
2.5
 49
-2.5
  0
LTYPE
  2
PHANTOM1
 70
    64
  3
--- - - --- - - --- - - --- - - 
 72
    65
 73
     6
 40
10.0
 49
3.25
 49
-1.25
 49
1.25
 49
-1.25
 49
1.25
 49
-1.25
  0
LTYPE
  2
PHANTOM2
 70
    64
  3
--------  -  -  --------  -  -  
 72
    65
 73
     6
 40
20.0
 49
10.0
 49
-2.5
 49
1.25
 49
-2.5
 49
1.25
 49
-2.5
  0
LTYPE
  2
DOT
 70
    64
  3
-   -   -   -   -   -   -   -   
 72
    65
 73
     2
 40
2.5
 49
0.625
 49
-1.875
  0
ENDTAB
  0
TABLE
  2
STYLE
 70
    1
  0
STYLE
  2
STANDARD
 70
    64
 40
0.0
 41
1.0
 42
0.0
 50
0.0
 71
     0
  3
TXT
  4
BIGFONT
  0
ENDTAB
  0
TABLE
  2
LAYER
 70
    6
  0
LAYER
  2
0-1
 70
   64
 62
    7
  6
CONTINUOUS
  0
LAYER
  2
0-2
 70
   64
 62
    7
  6
CONTINUOUS
  0
LAYER
  2
0-3
 70
   64
 62
    7
  6
CONTINUOUS
  0
LAYER
  2
0-8
 70
   64
 62
    7
  6
CONTINUOUS
  0
LAYER
  2
0-d
 70
   64
 62
    7
  6
CONTINUOUS
  0
LAYER
  2
ADD_LINE
 70
   64
 62
    7
  6
CONTINUOUS
  0
ENDTAB
  0
ENDSEC
  0
SECTION
  2
ENTITIES
  0
LINE
  8
0-d
  6
CONTINUOUS
 62
    7
 10
150.00001
 20
1654.6207
 11
1110
 21
1654.6207
  0
LINE
  8
0-d
  6
CONTINUOUS
 62
    7
 10
150.00001
 20
1660.6207
 11
1110
 21
1660.6207
  0
LINE
  8
0-d
  6
CONTINUOUS
 62
    7
 10
149.99978
 20
113.99992
 11
1110.0001
 21
113.99992
  0
LINE
  8
0-d
  6
CONTINUOUS
 62
    7
 10
149.99978
 20
53.99988
 11
149.99978
 21
161.99993
  0
LINE
  8
0-d
  6
CONTINUOUS
 62
    7
 10
149.99978
 20
53.99988
 11
1110.0001
 21
53.99988
  0
LINE
  8
0-d
  6
CONTINUOUS
 62
    7
 10
1110.0001
 20
161.99993
 11
1110.0001
 21
53.99988
  0
LINE
  8
0-d
  6
CONTINUOUS
 62
    7
 10
149.99978
 20
161.99993
 11
1110.0001
 21
161.99993
  0
LINE
  8
0-d
  6
CONTINUOUS
 62
    7
 10
629.99999
 20
161.99993
 11
629.99999
 21
53.99988
  0
LINE
  8
0-d
  6
CONTINUOUS
 62
    7
 10
390.00009
 20
53.99988
 11
390.00009
 21
113.99992
  0
LINE
  8
0-d
  6
CONTINUOUS
 62
    7
 10
629.99999
 20
113.99992
 11
629.99999
 21
161.99993
  0
LINE
  8
0-d
  6
CONTINUOUS
 62
    7
 10
509.99982
 20
53.99988
 11
509.99982
 21
113.99992
  0
LINE
  8
0-d
  6
CONTINUOUS
 62
    7
 10
171
 20
53.99988
 11
171
 21
113.99992
  0
LINE
  8
0-d
  6
CONTINUOUS
 62
    7
 10
411.00001
 20
53.99988
 11
411.00001
 21
113.99992
  0
LINE
  8
0-d
  6
CONTINUOUS
 62
    7
 10
531.00004
 20
53.99988
 11
531.00004
 21
113.99992
  0
LINE
  8
0-d
  6
CONTINUOUS
 62
    7
 10
609
 20
113.99992
 11
609
 21
161.99993
  0
LINE
  8
0-d
  6
CONTINUOUS
 62
    7
 10
930.00016
 20
113.99992
 11
930.00016
 21
161.99993
  0
LINE
  8
0-d
  6
CONTINUOUS
 62
    7
 10
951.00008
 20
113.99992
 11
951.00008
 21
161.99993
  0
LINE
  8
0-8
  6
CONTINUOUS
 62
    7
 10
304.99991
 20
1568.9174
 11
955.00096
 21
1568.9174
  0
LINE
  8
0-2
  6
CONTINUOUS
 62
    3
 10
304.99991
 20
1408.4739
 11
304.99991
 21
1296.7231
  0
LINE
  8
0-2
  6
CONTINUOUS
 62
    3
 10
304.99991
 20
1283.7233
 11
304.99991
 21
1261.4736
  0
LINE
  8
0-2
  6
CONTINUOUS
 62
    3
 10
955.00096
 20
1408.4739
 11
955.00096
 21
1296.7231
  0
LINE
  8
0-2
  6
CONTINUOUS
 62
    3
 10
422.49988
 20
1248.4741
 11
422.49988
 21
1216.4738
  0
LINE
  8
0-8
  6
CONTINUOUS
 62
    7
 10
304.99991
 20
1446.7892
 11
304.99991
 21
1568.9174
  0
LINE
  8
0-8
  6
CONTINUOUS
 62
    7
 10
955.00096
 20
1446.7892
 11
955.00096
 21
1568.9174
  0
LINE
  8
0-2
  6
CONTINUOUS
 62
    3
 10
955.00007
 20
1283.7233
 11
955.00007
 21
1261.4736
  0
LINE
  8
0-8
  6
CONTINUOUS
 62
    7
 10
319.99996
 20
982.69259
 11
319.99996
 21
928.93449
  0
LINE
  8
0-8
  6
CONTINUOUS
 62
    7
 10
939.99987
 20
982.69259
 11
939.99987
 21
928.93449
  0
LINE
  8
0-8
  6
CONTINUOUS
 62
    7
 10
150.00049
 20
1053.4741
 11
150.00049
 21
1483.474
  0
LINE
  8
0-8
  6
CONTINUOUS
 62
    7
 10
319.99996
 20
928.93449
 11
939.99987
 21
928.93449
  0
LINE
  8
0-8
  6
CONTINUOUS
 62
    7
 10
273.85976
 20
1053.4741
 11
150.00049
 21
1053.4741
  0
LINE
  8
0-8
  6
CONTINUOUS
 62
    7
 10
273.85976
 20
1483.474
 11
150.00049
 21
1483.474
  0
LINE
  8
0-2
  6
CONTINUOUS
 62
    3
 10
319.99996
 20
1053.4741
 11
319.99996
 21
1113.474
  0
LINE
  8
0-2
  6
CONTINUOUS
 62
    3
 10
319.99996
 20
1053.4741
 11
939.99987
 21
1053.4741
  0
LINE
  8
0-2
  6
CONTINUOUS
 62
    3
 10
939.99987
 20
1053.4741
 11
939.99987
 21
1113.474
  0
LINE
  8
0-2
  6
CONTINUOUS
 62
    3
 10
319.99996
 20
1113.474
 11
939.99987
 21
1113.474
  0
LINE
  8
0-2
  6
CONTINUOUS
 62
    3
 10
319.99996
 20
1113.474
 11
466.89904
 21
1198.2862
  0
LINE
  8
0-2
  6
CONTINUOUS
 62
    3
 10
466.89904
 20
1198.2862
 11
466.89904
 21
1113.474
  0
LINE
  8
0-2
  6
CONTINUOUS
 62
    3
 10
422.49988
 20
1203.4741
 11
422.49988
 21
1172.6525
  0
LINE
  8
0-3
  6
CONTINUOUS
 62
    3
 10
644.76235
 20
1285.0235
 11
648.64735
 21
1287.4111
  0
LINE
  8
0-3
  6
CONTINUOUS
 62
    3
 10
648.64735
 20
1287.4111
 11
652.5138
 21
1289.8462
  0
LINE
  8
0-3
  6
CONTINUOUS
 62
    3
 10
652.5138
 20
1289.8462
 11
656.34402
 21
1292.3725
  0
LINE
  8
0-3
  6
CONTINUOUS
 62
    3
 10
656.34402
 20
1292.3725
 11
660.09466
 21
1295.0393
  0
LINE
  8
0-3
  6
CONTINUOUS
 62
    3
 10
660.09466
 20
1295.0393
 11
663.69788
 21
1297.9004
  0
LINE
  8
0-3
  6
CONTINUOUS
 62
    3
 10
663.69788
 20
1297.9004
 11
667.07781
 21
1301.002
  0
LINE
  8
0-3
  6
CONTINUOUS
 62
    3
 10
667.07781
 20
1301.002
 11
670.16051
 21
1304.4001
  0
LINE
  8
0-3
  6
CONTINUOUS
 62
    3
 10
670.16051
 20
1304.4001
 11
672.8725
 21
1308.142
  0
LINE
  8
0-3
  6
CONTINUOUS
 62
    3
 10
672.8725
 20
1308.142
 11
675.23768
 21
1312.1897
  0
LINE
  8
0-3
  6
CONTINUOUS
 62
    3
 10
675.23768
 20
1312.1897
 11
677.47266
 21
1316.3233
  0
LINE
  8
0-3
  6
CONTINUOUS
 62
    3
 10
677.47266
 20
1316.3233
 11
679.80384
 21
1320.3089
  0
LINE
  8
0-3
  6
CONTINUOUS
 62
    3
 10
679.80384
 20
1320.3089
 11
682.47114
 21
1323.9136
  0
LINE
  8
0-3
  6
CONTINUOUS
 62
    3
 10
682.47114
 20
1323.9136
 11
685.69963
 21
1326.9024
  0
LINE
  8
0-3
  6
CONTINUOUS
 62
    3
 10
685.69963
 20
1326.9024
 11
689.56103
 21
1329.2135
  0
LINE
  8
0-3
  6
CONTINUOUS
 62
    3
 10
689.56103
 20
1329.2135
 11
693.81972
 21
1331.1014
  0
LINE
  8
0-3
  6
CONTINUOUS
 62
    3
 10
693.81972
 20
1331.1014
 11
695.83586
 21
1331.9069
  0
LINE
  8
0-3
  6
CONTINUOUS
 62
    3
 10
693.81972
 20
1331.1014
 11
696.6242
 21
1331.5471
  0
LINE
  8
0-3
  6
CONTINUOUS
 62
    3
 10
696.6242
 20
1331.5471
 11
699.45377
 21
1331.9347
  0
LINE
  8
0-3
  6
CONTINUOUS
 62
    3
 10
699.45377
 20
1331.9347
 11
702.32997
 21
1332.2122
  0
LINE
  8
0-3
  6
CONTINUOUS
 62
    3
 10
702.32997
 20
1332.2122
 11
705.27697
 21
1332.3176
  0
LINE
  8
0-3
  6
CONTINUOUS
 62
    3
 10
705.27697
 20
1332.3176
 11
708.3138
 21
1332.1987
  0
LINE
  8
0-3
  6
CONTINUOUS
 62
    3
 10
708.3138
 20
1332.1987
 11
711.35212
 21
1331.756
  0
LINE
  8
0-3
  6
CONTINUOUS
 62
    3
 10
711.35212
 20
1331.756
 11
714.18659
 21
1330.8677
  0
LINE
  8
0-3
  6
CONTINUOUS
 62
    3
 10
714.18659
 20
1330.8677
 11
716.60269
 21
1329.3961
  0
LINE
  8
0-3
  6
CONTINUOUS
 62
    3
 10
716.60269
 20
1329.3961
 11
718.42642
 21
1327.2456
  0
LINE
  8
0-3
  6
CONTINUOUS
 62
    3
 10
718.42642
 20
1327.2456
 11
719.84811
 21
1324.6634
  0
LINE
  8
0-3
  6
CONTINUOUS
 62
    3
 10
643.23718
 20
1274.3519
 11
647.78968
 21
1275.0276
  0
LINE
  8
0-3
  6
CONTINUOUS
 62
    3
 10
647.78968
 20
1275.0276
 11
652.31441
 21
1275.7926
  0
LINE
  8
0-3
  6
CONTINUOUS
 62
    3
 10
652.31441
 20
1275.7926
 11
656.78911
 21
1276.7271
  0
LINE
  8
0-3
  6
CONTINUOUS
 62
    3
 10
656.78911
 20
1276.7271
 11
661.18335
 21
1277.9229
  0
LINE
  8
0-3
  6
CONTINUOUS
 62
    3
 10
661.18335
 20
1277.9229
 11
665.47484
 21
1279.4625
  0
LINE
  8
0-3
  6
CONTINUOUS
 62
    3
 10
665.47484
 20
1279.4625
 11
669.63896
 21
1281.367
  0
LINE
  8
0-3
  6
CONTINUOUS
 62
    3
 10
669.63896
 20
1281.367
 11
673.65788
 21
1283.599
  0
LINE
  8
0-3
  6
CONTINUOUS
 62
    3
 10
673.65788
 20
1283.599
 11
677.51007
 21
1286.1334
  0
LINE
  8
0-3
  6
CONTINUOUS
 62
    3
 10
677.51007
 20
1286.1334
 11
681.17668
 21
1288.9252
  0
LINE
  8
0-3
  6
CONTINUOUS
 62
    3
 10
681.17668
 20
1288.9252
 11
684.64049
 21
1291.9467
  0
LINE
  8
0-3
  6
CONTINUOUS
 62
    3
 10
684.64049
 20
1291.9467
 11
687.92793
 21
1295.1437
  0
LINE
  8
0-3
  6
CONTINUOUS
 62
    3
 10
687.92793
 20
1295.1437
 11
691.1055
 21
1298.4432
  0
LINE
  8
0-3
  6
CONTINUOUS
 62
    3
 10
691.1055
 20
1298.4432
 11
694.24269
 21
1301.7732
  0
LINE
  8
0-3
  6
CONTINUOUS
 62
    3
 10
694.24269
 20
1301.7732
 11
697.40601
 21
1305.0584
  0
LINE
  8
0-3
  6
CONTINUOUS
 62
    3
 10
697.40601
 20
1305.0584
 11
700.66791
 21
1308.2286
  0
LINE
  8
0-3
  6
CONTINUOUS
 62
    3
 10
700.66791
 20
1308.2286
 11
704.09045
 21
1311.22
  0
LINE
  8
0-3
  6
CONTINUOUS
 62
    3
 10
704.09045
 20
1311.22
 11
707.66962
 21
1314.0308
  0
LINE
  8
0-3
  6
CONTINUOUS
 62
    3
 10
707.66962
 20
1314.0308
 11
711.37587
 21
1316.7035
  0
LINE
  8
0-3
  6
CONTINUOUS
 62
    3
 10
711.37587
 20
1316.7035
 11
715.17076
 21
1319.2722
  0
LINE
  8
0-3
  6
CONTINUOUS
 62
    3
 10
715.17076
 20
1319.2722
 11
719.02532
 21
1321.7765
  0
LINE
  8
0-3
  6
CONTINUOUS
 62
    3
 10
719.02532
 20
1321.7765
 11
721.75439
 21
1323.5207
  0
LINE
  8
0-3
  6
CONTINUOUS
 62
    3
 10
721.75439
 20
1323.5207
 11
726.01263
 21
1325.2869
  0
LINE
  8
0-3
  6
CONTINUOUS
 62
    3
 10
726.01263
 20
1325.2869
 11
730.29492
 21
1326.9358
  0
LINE
  8
0-3
  6
CONTINUOUS
 62
    3
 10
730.29492
 20
1326.9358
 11
734.62814
 21
1328.3515
  0
LINE
  8
0-3
  6
CONTINUOUS
 62
    3
 10
734.62814
 20
1328.3515
 11
739.03722
 21
1329.4184
  0
LINE
  8
0-3
  6
CONTINUOUS
 62
    3
 10
739.03722
 20
1329.4184
 11
743.5327
 21
1330.0716
  0
LINE
  8
0-3
  6
CONTINUOUS
 62
    3
 10
743.5327
 20
1330.0716
 11
748.09277
 21
1330.3588
  0
LINE
  8
0-3
  6
CONTINUOUS
 62
    3
 10
748.09277
 20
1330.3588
 11
752.69114
 21
1330.342
  0
LINE
  8
0-3
  6
CONTINUOUS
 62
    3
 10
752.69114
 20
1330.342
 11
757.30303
 21
1330.0832
  0
LINE
  8
0-3
  6
CONTINUOUS
 62
    3
 10
757.30303
 20
1330.0832
 11
761.90674
 21
1329.6463
  0
LINE
  8
0-3
  6
CONTINUOUS
 62
    3
 10
761.90674
 20
1329.6463
 11
766.47498
 21
1329.0846
  0
LINE
  8
0-3
  6
CONTINUOUS
 62
    3
 10
766.47498
 20
1329.0846
 11
771.00342
 21
1328.3857
  0
LINE
  8
0-3
  6
CONTINUOUS
 62
    3
 10
771.00342
 20
1328.3857
 11
775.49267
 21
1327.5351
  0
LINE
  8
0-3
  6
CONTINUOUS
 62
    3
 10
775.49267
 20
1327.5351
 11
779.93709
 21
1326.5032
  0
LINE
  8
0-3
  6
CONTINUOUS
 62
    3
 10
779.93709
 20
1326.5032
 11
784.33875
 21
1325.2727
  0
LINE
  8
0-3
  6
CONTINUOUS
 62
    3
 10
784.33875
 20
1325.2727
 11
788.69616
 21
1323.8155
  0
LINE
  8
0-3
  6
CONTINUOUS
 62
    3
 10
788.69616
 20
1323.8155
 11
792.99152
 21
1322.1113
  0
LINE
  8
0-3
  6
CONTINUOUS
 62
    3
 10
792.99152
 20
1322.1113
 11
797.18503
 21
1320.1412
  0
LINE
  8
0-3
  6
CONTINUOUS
 62
    3
 10
797.18503
 20
1320.1412
 11
801.21523
 21
1317.8928
  0
LINE
  8
0-3
  6
CONTINUOUS
 62
    3
 10
801.21523
 20
1317.8928
 11
805.02986
 21
1315.3456
  0
LINE
  8
0-3
  6
CONTINUOUS
 62
    3
 10
805.02986
 20
1315.3456
 11
808.5734
 21
1312.4803
  0
LINE
  8
0-3
  6
CONTINUOUS
 62
    3
 10
808.5734
 20
1312.4803
 11
811.79714
 21
1309.2888
  0
LINE
  8
0-3
  6
CONTINUOUS
 62
    3
 10
811.79714
 20
1309.2888
 11
814.74267
 21
1305.8178
  0
LINE
  8
0-3
  6
CONTINUOUS
 62
    3
 10
814.74267
 20
1305.8178
 11
817.48272
 21
1302.1447
  0
LINE
  8
0-3
  6
CONTINUOUS
 62
    3
 10
817.48272
 20
1302.1447
 11
820.09538
 21
1298.3467
  0
LINE
  8
0-3
  6
CONTINUOUS
 62
    3
 10
820.09538
 20
1298.3467
 11
821.61387
 21
1296.0784
  0
LINE
  8
0-3
  6
CONTINUOUS
 62
    3
 10
820.09538
 20
1298.3467
 11
822.13854
 21
1294.1163
  0
LINE
  8
0-3
  6
CONTINUOUS
 62
    3
 10
822.13854
 20
1294.1163
 11
824.07244
 21
1289.867
  0
LINE
  8
0-3
  6
CONTINUOUS
 62
    3
 10
824.07244
 20
1289.867
 11
825.79343
 21
1285.5881
  0
LINE
  8
0-3
  6
CONTINUOUS
 62
    3
 10
825.79343
 20
1285.5881
 11
827.19107
 21
1281.2558
  0
LINE
  8
0-3
  6
CONTINUOUS
 62
    3
 10
827.19107
 20
1281.2558
 11
828.15935
 21
1276.8588
  0
LINE
  8
0-3
  6
CONTINUOUS
 62
    3
 10
828.15935
 20
1276.8588
 11
828.59465
 21
1272.3787
  0
LINE
  8
0-3
  6
CONTINUOUS
 62
    3
 10
828.59465
 20
1272.3787
 11
828.46994
 21
1267.835
  0
LINE
  8
0-3
  6
CONTINUOUS
 62
    3
 10
828.46994
 20
1267.835
 11
827.86064
 21
1263.2709
  0
LINE
  8
0-3
  6
CONTINUOUS
 62
    3
 10
827.86064
 20
1263.2709
 11
826.84574
 21
1258.7395
  0
LINE
  8
0-3
  6
CONTINUOUS
 62
    3
 10
826.84574
 20
1258.7395
 11
825.49502
 21
1254.293
  0
LINE
  8
0-3
  6
CONTINUOUS
 62
    3
 10
825.49502
 20
1254.293
 11
823.83074
 21
1249.9923
  0
LINE
  8
0-3
  6
CONTINUOUS
 62
    3
 10
823.83074
 20
1249.9923
 11
821.80777
 21
1245.8985
  0
LINE
  8
0-3
  6
CONTINUOUS
 62
    3
 10
821.80777
 20
1245.8985
 11
819.37741
 21
1242.0749
  0
LINE
  8
0-3
  6
CONTINUOUS
 62
    3
 10
819.37741
 20
1242.0749
 11
816.54532
 21
1238.5442
  0
LINE
  8
0-3
  6
CONTINUOUS
 62
    3
 10
816.54532
 20
1238.5442
 11
813.39758
 21
1235.2408
  0
LINE
  8
0-3
  6
CONTINUOUS
 62
    3
 10
813.39758
 20
1235.2408
 11
810.0325
 21
1232.0961
  0
LINE
  8
0-3
  6
CONTINUOUS
 62
    3
 10
810.0325
 20
1232.0961
 11
806.54479
 21
1229.0428
  0
LINE
  8
0-3
  6
CONTINUOUS
 62
    3
 10
806.54479
 20
1229.0428
 11
805.60472
 21
1228.2348
  0
LINE
  8
0-3
  6
CONTINUOUS
 62
    3
 10
806.54479
 20
1229.0428
 11
802.5422
 21
1226.7989
  0
LINE
  8
0-3
  6
CONTINUOUS
 62
    3
 10
802.5422
 20
1226.7989
 11
798.52418
 21
1224.5961
  0
LINE
  8
0-3
  6
CONTINUOUS
 62
    3
 10
798.52418
 20
1224.5961
 11
794.47289
 21
1222.4738
  0
LINE
  8
0-3
  6
CONTINUOUS
 62
    3
 10
794.47289
 20
1222.4738
 11
790.36579
 21
1220.4716
  0
LINE
  8
0-3
  6
CONTINUOUS
 62
    3
 10
790.36579
 20
1220.4716
 11
786.19336
 21
1218.6294
  0
LINE
  8
0-3
  6
CONTINUOUS
 62
    3
 10
786.19336
 20
1218.6294
 11
781.93155
 21
1216.9867
  0
LINE
  8
0-3
  6
CONTINUOUS
 62
    3
 10
781.93155
 20
1216.9867
 11
777.57978
 21
1215.5668
  0
LINE
  8
0-3
  6
CONTINUOUS
 62
    3
 10
777.57978
 20
1215.5668
 11
773.15615
 21
1214.3754
  0
LINE
  8
0-3
  6
CONTINUOUS
 62
    3
 10
773.15615
 20
1214.3754
 11
768.67744
 21
1213.4099
  0
LINE
  8
0-3
  6
CONTINUOUS
 62
    3
 10
768.67744
 20
1213.4099
 11
764.15746
 21
1212.6717
  0
LINE
  8
0-3
  6
CONTINUOUS
 62
    3
 10
764.15746
 20
1212.6717
 11
759.61773
 21
1212.155
  0
LINE
  8
0-3
  6
CONTINUOUS
 62
    3
 10
759.61773
 20
1212.155
 11
755.06315
 21
1211.8207
  0
LINE
  8
0-3
  6
CONTINUOUS
 62
    3
 10
755.06315
 20
1211.8207
 11
750.4967
 21
1211.6256
  0
LINE
  8
0-3
  6
CONTINUOUS
 62
    3
 10
750.4967
 20
1211.6256
 11
745.92
 21
1211.5197
  0
LINE
  8
0-3
  6
CONTINUOUS
 62
    3
 10
745.92
 20
1211.5197
 11
741.95305
 21
1211.4641
  0
LINE
  8
0-3
  6
CONTINUOUS
 62
    3
 10
690.81615
 20
1211.0436
 11
695.09636
 21
1209.3112
  0
LINE
  8
0-3
  6
CONTINUOUS
 62
    3
 10
695.09636
 20
1209.3112
 11
699.40181
 21
1207.5986
  0
LINE
  8
0-3
  6
CONTINUOUS
 62
    3
 10
699.40181
 20
1207.5986
 11
703.7475
 21
1206.0203
  0
LINE
  8
0-3
  6
CONTINUOUS
 62
    3
 10
703.7475
 20
1206.0203
 11
708.13476
 21
1204.7044
  0
LINE
  8
0-3
  6
CONTINUOUS
 62
    3
 10
708.13476
 20
1204.7044
 11
712.57561
 21
1203.7764
  0
LINE
  8
0-3
  6
CONTINUOUS
 62
    3
 10
712.57561
 20
1203.7764
 11
717.07985
 21
1203.3607
  0
LINE
  8
0-3
  6
CONTINUOUS
 62
    3
 10
717.07985
 20
1203.3607
 11
721.63651
 21
1203.4257
  0
LINE
  8
0-3
  6
CONTINUOUS
 62
    3
 10
721.63651
 20
1203.4257
 11
726.22656
 21
1203.7643
  0
LINE
  8
0-3
  6
CONTINUOUS
 62
    3
 10
726.22656
 20
1203.7643
 11
727.08884
 21
1203.8405
  0
LINE
  8
0-3
  6
CONTINUOUS
 62
    3
 10
726.22656
 20
1203.7643
 11
729.97944
 21
1204.6012
  0
LINE
  8
0-3
  6
CONTINUOUS
 62
    3
 10
729.97944
 20
1204.6012
 11
733.58191
 21
1205.7594
  0
LINE
  8
0-3
  6
CONTINUOUS
 62
    3
 10
733.58191
 20
1205.7594
 11
736.88687
 21
1207.5627
  0
LINE
  8
0-3
  6
CONTINUOUS
 62
    3
 10
736.88687
 20
1207.5627
 11
739.70456
 21
1210.1501
  0
LINE
  8
0-3
  6
CONTINUOUS
 62
    3
 10
739.70456
 20
1210.1501
 11
741.79389
 21
1213.3933
  0
LINE
  8
0-3
  6
CONTINUOUS
 62
    3
 10
741.79389
 20
1213.3933
 11
742.93157
 21
1217.1017
  0
LINE
  8
0-3
  6
CONTINUOUS
 62
    3
 10
742.93157
 20
1217.1017
 11
743.0156
 21
1220.9369
  0
LINE
  8
0-3
  6
CONTINUOUS
 62
    3
 10
743.0156
 20
1220.9369
 11
742.00071
 21
1224.5304
  0
LINE
  8
0-3
  6
CONTINUOUS
 62
    3
 10
742.00071
 20
1224.5304
 11
740.10408
 21
1227.7992
  0
LINE
  8
0-3
  6
CONTINUOUS
 62
    3
 10
740.10408
 20
1227.7992
 11
737.76117
 21
1230.9022
  0
LINE
  8
0-3
  6
CONTINUOUS
 62
    3
 10
649.82289
 20
1268.436
 11
654.43566
 21
1267.6507
  0
LINE
  8
0-3
  6
CONTINUOUS
 62
    3
 10
654.43566
 20
1267.6507
 11
659.03314
 21
1266.9981
  0
LINE
  8
0-3
  6
CONTINUOUS
 62
    3
 10
659.03314
 20
1266.9981
 11
663.59692
 21
1266.6104
  0
LINE
  8
0-3
  6
CONTINUOUS
 62
    3
 10
663.59692
 20
1266.6104
 11
668.11141
 21
1266.6173
  0
LINE
  8
0-3
  6
CONTINUOUS
 62
    3
 10
668.11141
 20
1266.6173
 11
672.55984
 21
1267.1485
  0
LINE
  8
0-3
  6
CONTINUOUS
 62
    3
 10
672.55984
 20
1267.1485
 11
676.94279
 21
1268.2275
  0
LINE
  8
0-3
  6
CONTINUOUS
 62
    3
 10
676.94279
 20
1268.2275
 11
681.26992
 21
1269.7084
  0
LINE
  8
0-3
  6
CONTINUOUS
 62
    3
 10
681.26992
 20
1269.7084
 11
685.56201
 21
1271.4452
  0
LINE
  8
0-3
  6
CONTINUOUS
 62
    3
 10
685.56201
 20
1271.4452
 11
689.82738
 21
1273.2803
  0
LINE
  8
0-3
  6
CONTINUOUS
 62
    3
 10
689.82738
 20
1273.2803
 11
694.08799
 21
1275.0821
  0
LINE
  8
0-3
  6
CONTINUOUS
 62
    3
 10
694.08799
 20
1275.0821
 11
698.34416
 21
1276.8164
  0
LINE
  8
0-3
  6
CONTINUOUS
 62
    3
 10
698.34416
 20
1276.8164
 11
702.60017
 21
1278.499
  0
LINE
  8
0-3
  6
CONTINUOUS
 62
    3
 10
702.60017
 20
1278.499
 11
706.85143
 21
1280.1398
  0
LINE
  8
0-3
  6
CONTINUOUS
 62
    3
 10
706.85143
 20
1280.1398
 11
711.10255
 21
1281.7503
  0
LINE
  8
0-3
  6
CONTINUOUS
 62
    3
 10
711.10255
 20
1281.7503
 11
715.35485
 21
1283.3457
  0
LINE
  8
0-3
  6
CONTINUOUS
 62
    3
 10
715.35485
 20
1283.3457
 11
715.29547
 21
1279.4294
  0
LINE
  8
0-3
  6
CONTINUOUS
 62
    3
 10
715.29547
 20
1279.4294
 11
715.2392
 21
1275.5177
  0
LINE
  8
0-3
  6
CONTINUOUS
 62
    3
 10
715.2392
 20
1275.5177
 11
715.18278
 21
1271.6012
  0
LINE
  8
0-3
  6
CONTINUOUS
 62
    3
 10
715.18278
 20
1271.6012
 11
715.12384
 21
1267.6886
  0
LINE
  8
0-3
  6
CONTINUOUS
 62
    3
 10
715.12384
 20
1267.6886
 11
715.06802
 21
1263.7764
  0
LINE
  8
0-3
  6
CONTINUOUS
 62
    3
 10
715.06802
 20
1263.7764
 11
715.01131
 21
1259.8598
  0
LINE
  8
0-3
  6
CONTINUOUS
 62
    3
 10
715.01131
 20
1259.8598
 11
714.95237
 21
1255.9481
  0
LINE
  8
0-3
  6
CONTINUOUS
 62
    3
 10
714.95237
 20
1255.9481
 11
714.8961
 21
1252.0319
  0
LINE
  8
0-3
  6
CONTINUOUS
 62
    3
 10
714.8961
 20
1252.0319
 11
714.8379
 21
1248.1188
  0
LINE
  8
0-3
  6
CONTINUOUS
 62
    3
 10
714.8379
 20
1248.1188
 11
714.78089
 21
1244.2035
  0
LINE
  8
0-3
  6
CONTINUOUS
 62
    3
 10
737.76117
 20
1230.9022
 11
736.82555
 21
1231.727
  0
LINE
  8
0-3
  6
CONTINUOUS
 62
    3
 10
736.82555
 20
1231.727
 11
735.48047
 21
1232.7247
  0
LINE
  8
0-3
  6
CONTINUOUS
 62
    3
 10
735.48047
 20
1232.7247
 11
733.77967
 21
1233.866
  0
LINE
  8
0-3
  6
CONTINUOUS
 62
    3
 10
733.77967
 20
1233.866
 11
731.76857
 21
1235.1233
  0
LINE
  8
0-3
  6
CONTINUOUS
 62
    3
 10
731.76857
 20
1235.1233
 11
729.47629
 21
1236.4717
  0
LINE
  8
0-3
  6
CONTINUOUS
 62
    3
 10
729.47629
 20
1236.4717
 11
726.9432
 21
1237.8935
  0
LINE
  8
0-3
  6
CONTINUOUS
 62
    3
 10
726.9432
 20
1237.8935
 11
724.1938
 21
1239.3716
  0
LINE
  8
0-3
  6
CONTINUOUS
 62
    3
 10
724.1938
 20
1239.3716
 11
721.24872
 21
1240.8896
  0
LINE
  8
0-3
  6
CONTINUOUS
 62
    3
 10
721.24872
 20
1240.8896
 11
718.13454
 21
1242.4363
  0
LINE
  8
0-3
  6
CONTINUOUS
 62
    3
 10
718.13454
 20
1242.4363
 11
714.86819
 21
1243.9995
  0
LINE
  8
0-3
  6
CONTINUOUS
 62
    3
 10
714.86819
 20
1243.9995
 11
711.46198
 21
1245.5691
  0
LINE
  8
0-3
  6
CONTINUOUS
 62
    3
 10
711.46198
 20
1245.5691
 11
707.937
 21
1247.1409
  0
LINE
  8
0-3
  6
CONTINUOUS
 62
    3
 10
707.937
 20
1247.1409
 11
704.30335
 21
1248.7045
  0
LINE
  8
0-3
  6
CONTINUOUS
 62
    3
 10
704.30335
 20
1248.7045
 11
700.57898
 21
1250.2555
  0
LINE
  8
0-3
  6
CONTINUOUS
 62
    3
 10
700.57898
 20
1250.2555
 11
696.7737
 21
1251.7905
  0
LINE
  8
0-3
  6
CONTINUOUS
 62
    3
 10
696.7737
 20
1251.7905
 11
692.9031
 21
1253.3018
  0
LINE
  8
0-3
  6
CONTINUOUS
 62
    3
 10
692.9031
 20
1253.3018
 11
688.98098
 21
1254.7881
  0
LINE
  8
0-3
  6
CONTINUOUS
 62
    3
 10
688.98098
 20
1254.7881
 11
685.02323
 21
1256.2466
  0
LINE
  8
0-3
  6
CONTINUOUS
 62
    3
 10
685.02323
 20
1256.2466
 11
681.04648
 21
1257.6756
  0
LINE
  8
0-3
  6
CONTINUOUS
 62
    3
 10
681.04648
 20
1257.6756
 11
677.06572
 21
1259.0664
  0
LINE
  8
0-3
  6
CONTINUOUS
 62
    3
 10
677.06572
 20
1259.0664
 11
673.09668
 21
1260.4195
  0
LINE
  8
0-3
  6
CONTINUOUS
 62
    3
 10
673.09668
 20
1260.4195
 11
669.15912
 21
1261.7343
  0
LINE
  8
0-3
  6
CONTINUOUS
 62
    3
 10
669.15912
 20
1261.7343
 11
665.27471
 21
1263.0025
  0
LINE
  8
0-3
  6
CONTINUOUS
 62
    3
 10
665.27471
 20
1263.0025
 11
661.45771
 21
1264.2246
  0
LINE
  8
0-3
  6
CONTINUOUS
 62
    3
 10
661.45771
 20
1264.2246
 11
657.73319
 21
1265.3953
  0
LINE
  8
0-3
  6
CONTINUOUS
 62
    3
 10
657.73319
 20
1265.3953
 11
654.12047
 21
1266.509
  0
LINE
  8
0-3
  6
CONTINUOUS
 62
    3
 10
654.12047
 20
1266.509
 11
650.64003
 21
1267.5614
  0
LINE
  8
0-3
  6
CONTINUOUS
 62
    3
 10
650.64003
 20
1267.5614
 11
647.31014
 21
1268.5498
  0
LINE
  8
0-3
  6
CONTINUOUS
 62
    3
 10
647.31014
 20
1268.5498
 11
644.15231
 21
1269.4657
  0
LINE
  8
0-3
  6
CONTINUOUS
 62
    3
 10
715.35485
 20
1283.3457
 11
715.40904
 21
1283.3643
  0
LINE
  8
0-3
  6
CONTINUOUS
 62
    3
 10
653.11864
 20
1207.2195
 11
653.11864
 21
1198.2323
  0
LINE
  8
0-3
  6
CONTINUOUS
 62
    3
 10
653.11864
 20
1198.2323
 11
680.42917
 21
1198.2323
  0
LINE
  8
0-3
  6
CONTINUOUS
 62
    3
 10
680.42917
 20
1207.2195
 11
680.42917
 21
1198.2323
  0
LINE
  8
0-3
  6
CONTINUOUS
 62
    3
 10
653.11864
 20
1207.2195
 11
680.42917
 21
1207.2195
  0
LINE
  8
0-3
  6
CONTINUOUS
 62
    3
 10
640.46462
 20
1293.8646
 11
640.46462
 21
1264.3775
  0
LINE
  8
0-3
  6
CONTINUOUS
 62
    3
 10
644.76235
 20
1285.0235
 11
644.31621
 21
1284.7711
  0
LINE
  8
0-3
  6
CONTINUOUS
 62
    3
 10
644.31621
 20
1284.7711
 11
643.85939
 21
1284.506
  0
LINE
  8
0-3
  6
CONTINUOUS
 62
    3
 10
643.85939
 20
1284.506
 11
643.39737
 21
1284.2285
  0
LINE
  8
0-3
  6
CONTINUOUS
 62
    3
 10
643.39737
 20
1284.2285
 11
642.92526
 21
1283.9377
  0
LINE
  8
0-3
  6
CONTINUOUS
 62
    3
 10
642.92526
 20
1283.9377
 11
642.44364
 21
1283.6373
  0
LINE
  8
0-3
  6
CONTINUOUS
 62
    3
 10
642.44364
 20
1283.6373
 11
641.95401
 21
1283.3215
  0
LINE
  8
0-3
  6
CONTINUOUS
 62
    3
 10
641.95401
 20
1283.3215
 11
641.45591
 21
1282.9954
  0
LINE
  8
0-3
  6
CONTINUOUS
 62
    3
 10
641.45591
 20
1282.9954
 11
640.94801
 21
1282.6546
  0
LINE
  8
0-3
  6
CONTINUOUS
 62
    3
 10
640.94801
 20
1282.6546
 11
640.43329
 21
1282.304
  0
LINE
  8
0-3
  6
CONTINUOUS
 62
    3
 10
643.23718
 20
1274.3519
 11
642.90625
 21
1274.2884
  0
LINE
  8
0-3
  6
CONTINUOUS
 62
    3
 10
642.90625
 20
1274.2884
 11
642.58008
 21
1274.2295
  0
LINE
  8
0-3
  6
CONTINUOUS
 62
    3
 10
642.58008
 20
1274.2295
 11
642.25954
 21
1274.1711
  0
LINE
  8
0-3
  6
CONTINUOUS
 62
    3
 10
642.25954
 20
1274.1711
 11
641.94243
 21
1274.1138
  0
LINE
  8
0-3
  6
CONTINUOUS
 62
    3
 10
641.94243
 20
1274.1138
 11
641.63199
 21
1274.0595
  0
LINE
  8
0-3
  6
CONTINUOUS
 62
    3
 10
641.63199
 20
1274.0595
 11
641.32452
 21
1274.0085
  0
LINE
  8
0-3
  6
CONTINUOUS
 62
    3
 10
641.32452
 20
1274.0085
 11
641.02269
 21
1273.9609
  0
LINE
  8
0-3
  6
CONTINUOUS
 62
    3
 10
641.02269
 20
1273.9609
 11
640.72458
 21
1273.9144
  0
LINE
  8
0-3
  6
CONTINUOUS
 62
    3
 10
640.72458
 20
1273.9144
 11
640.43329
 21
1273.8691
  0
LINE
  8
0-3
  6
CONTINUOUS
 62
    3
 10
649.82289
 20
1268.436
 11
648.5657
 21
1268.7027
  0
LINE
  8
0-3
  6
CONTINUOUS
 62
    3
 10
648.5657
 20
1268.7027
 11
647.35928
 21
1268.9603
  0
LINE
  8
0-3
  6
CONTINUOUS
 62
    3
 10
647.35928
 20
1268.9603
 11
646.20824
 21
1269.2096
  0
LINE
  8
0-3
  6
CONTINUOUS
 62
    3
 10
646.20824
 20
1269.2096
 11
645.11094
 21
1269.4514
  0
LINE
  8
0-3
  6
CONTINUOUS
 62
    3
 10
645.11094
 20
1269.4514
 11
644.0668
 21
1269.6839
  0
LINE
  8
0-3
  6
CONTINUOUS
 62
    3
 10
644.0668
 20
1269.6839
 11
643.07803
 21
1269.9099
  0
LINE
  8
0-3
  6
CONTINUOUS
 62
    3
 10
643.07803
 20
1269.9099
 11
642.14211
 21
1270.1264
  0
LINE
  8
0-3
  6
CONTINUOUS
 62
    3
 10
642.14211
 20
1270.1264
 11
641.26083
 21
1270.3354
  0
LINE
  8
0-3
  6
CONTINUOUS
 62
    3
 10
641.26083
 20
1270.3354
 11
640.43329
 21
1270.5345
  0
LINE
  8
0-3
  6
CONTINUOUS
 62
    3
 10
644.15231
 20
1269.4657
 11
643.66015
 21
1269.5995
  0
LINE
  8
0-3
  6
CONTINUOUS
 62
    3
 10
643.66015
 20
1269.5995
 11
643.18819
 21
1269.7285
  0
LINE
  8
0-3
  6
CONTINUOUS
 62
    3
 10
643.18819
 20
1269.7285
 11
642.73656
 21
1269.8556
  0
LINE
  8
0-3
  6
CONTINUOUS
 62
    3
 10
642.73656
 20
1269.8556
 11
642.30616
 21
1269.9779
  0
LINE
  8
0-3
  6
CONTINUOUS
 62
    3
 10
642.30616
 20
1269.9779
 11
641.89774
 21
1270.0956
  0
LINE
  8
0-3
  6
CONTINUOUS
 62
    3
 10
641.89774
 20
1270.0956
 11
641.50757
 21
1270.2077
  0
LINE
  8
0-3
  6
CONTINUOUS
 62
    3
 10
641.50757
 20
1270.2077
 11
641.13879
 21
1270.3176
  0
LINE
  8
0-3
  6
CONTINUOUS
 62
    3
 10
641.13879
 20
1270.3176
 11
640.79153
 21
1270.4243
  0
LINE
  8
0-3
  6
CONTINUOUS
 62
    3
 10
640.79153
 20
1270.4243
 11
640.46462
 21
1270.5283
  0
LINE
  8
0-3
  6
CONTINUOUS
 62
    3
 10
636.4362
 20
1297.8951
 11
630.00073
 21
1297.8951
  0
LINE
  8
0-3
  6
CONTINUOUS
 62
    3
 10
636.4362
 20
1235.982
 11
630.00073
 21
1235.982
  0
LINE
  8
0-3
  6
CONTINUOUS
 62
    3
 10
633.3624
 20
1256.9739
 11
635.6964
 21
1254.3392
  0
LINE
  8
0-3
  6
CONTINUOUS
 62
    3
 10
635.6964
 20
1254.3392
 11
638.26201
 21
1251.6019
  0
LINE
  8
0-3
  6
CONTINUOUS
 62
    3
 10
638.26201
 20
1251.6019
 11
641.02121
 21
1248.7942
  0
LINE
  8
0-3
  6
CONTINUOUS
 62
    3
 10
641.02121
 20
1248.7942
 11
643.93912
 21
1245.9452
  0
LINE
  8
0-3
  6
CONTINUOUS
 62
    3
 10
643.93912
 20
1245.9452
 11
646.98188
 21
1243.0822
  0
LINE
  8
0-3
  6
CONTINUOUS
 62
    3
 10
646.98188
 20
1243.0822
 11
650.11922
 21
1240.2302
  0
LINE
  8
0-3
  6
CONTINUOUS
 62
    3
 10
650.11922
 20
1240.2302
 11
653.32144
 21
1237.4117
  0
LINE
  8
0-3
  6
CONTINUOUS
 62
    3
 10
653.32144
 20
1237.4117
 11
656.56226
 21
1234.6472
  0
LINE
  8
0-3
  6
CONTINUOUS
 62
    3
 10
656.56226
 20
1234.6472
 11
659.81674
 21
1231.956
  0
LINE
  8
0-3
  6
CONTINUOUS
 62
    3
 10
659.81674
 20
1231.956
 11
663.06245
 21
1229.3543
  0
LINE
  8
0-3
  6
CONTINUOUS
 62
    3
 10
663.06245
 20
1229.3543
 11
666.27907
 21
1226.8568
  0
LINE
  8
0-3
  6
CONTINUOUS
 62
    3
 10
666.27907
 20
1226.8568
 11
669.44818
 21
1224.4749
  0
LINE
  8
0-3
  6
CONTINUOUS
 62
    3
 10
669.44818
 20
1224.4749
 11
672.5536
 21
1222.2198
  0
LINE
  8
0-3
  6
CONTINUOUS
 62
    3
 10
672.5536
 20
1222.2198
 11
675.58182
 21
1220.0984
  0
LINE
  8
0-3
  6
CONTINUOUS
 62
    3
 10
675.58182
 20
1220.0984
 11
678.52096
 21
1218.1169
  0
LINE
  8
0-3
  6
CONTINUOUS
 62
    3
 10
678.52096
 20
1218.1169
 11
681.36078
 21
1216.2792
  0
LINE
  8
0-3
  6
CONTINUOUS
 62
    3
 10
681.36078
 20
1216.2792
 11
684.09444
 21
1214.5864
  0
LINE
  8
0-3
  6
CONTINUOUS
 62
    3
 10
684.09444
 20
1214.5864
 11
686.71617
 21
1213.0385
  0
LINE
  8
0-3
  6
CONTINUOUS
 62
    3
 10
686.71617
 20
1213.0385
 11
689.22253
 21
1211.6322
  0
LINE
  8
0-3
  6
CONTINUOUS
 62
    3
 10
689.22253
 20
1211.6322
 11
689.40707
 21
1211.5514
  0
LINE
  8
0-3
  6
CONTINUOUS
 62
    3
 10
689.40707
 20
1211.5514
 11
689.58968
 21
1211.4747
  0
LINE
  8
0-3
  6
CONTINUOUS
 62
    3
 10
689.58968
 20
1211.4747
 11
689.77081
 21
1211.4015
  0
LINE
  8
0-3
  6
CONTINUOUS
 62
    3
 10
689.77081
 20
1211.4015
 11
689.94956
 21
1211.3325
  0
LINE
  8
0-3
  6
CONTINUOUS
 62
    3
 10
689.94956
 20
1211.3325
 11
690.12653
 21
1211.2673
  0
LINE
  8
0-3
  6
CONTINUOUS
 62
    3
 10
690.12653
 20
1211.2673
 11
690.30172
 21
1211.2055
  0
LINE
  8
0-3
  6
CONTINUOUS
 62
    3
 10
690.30172
 20
1211.2055
 11
690.47527
 21
1211.1475
  0
LINE
  8
0-3
  6
CONTINUOUS
 62
    3
 10
690.47527
 20
1211.1475
 11
690.64675
 21
1211.0942
  0
LINE
  8
0-3
  6
CONTINUOUS
 62
    3
 10
690.64675
 20
1211.0942
 11
690.81615
 21
1211.0436
  0
LINE
  8
0-3
  6
CONTINUOUS
 62
    3
 10
633.3624
 20
1256.9739
 11
634.74237
 21
1257.6594
  0
LINE
  8
0-3
  6
CONTINUOUS
 62
    3
 10
634.74237
 20
1257.6594
 11
635.97433
 21
1258.3789
  0
LINE
  8
0-3
  6
CONTINUOUS
 62
    3
 10
635.97433
 20
1258.3789
 11
637.05871
 21
1259.1329
  0
LINE
  8
0-3
  6
CONTINUOUS
 62
    3
 10
637.05871
 20
1259.1329
 11
637.99566
 21
1259.9211
  0
LINE
  8
0-3
  6
CONTINUOUS
 62
    3
 10
637.99566
 20
1259.9211
 11
638.78475
 21
1260.7442
  0
LINE
  8
0-3
  6
CONTINUOUS
 62
    3
 10
638.78475
 20
1260.7442
 11
639.42626
 21
1261.601
  0
LINE
  8
0-3
  6
CONTINUOUS
 62
    3
 10
639.42626
 20
1261.601
 11
639.92005
 21
1262.4924
  0
LINE
  8
0-3
  6
CONTINUOUS
 62
    3
 10
639.92005
 20
1262.4924
 11
640.26627
 21
1263.4176
  0
LINE
  8
0-3
  6
CONTINUOUS
 62
    3
 10
640.26627
 20
1263.4176
 11
640.46462
 21
1264.3775
  0
LINE
  8
0-3
  6
CONTINUOUS
 62
    3
 10
640.4658
 20
1240.0123
 11
640.4658
 21
1249.3594
  0
LINE
  8
0-3
  6
CONTINUOUS
 62
    3
 10
692.79829
 20
1274.793
 11
684.86334
 21
1292.2822
  0
LINE
  8
0-3
  6
CONTINUOUS
 62
    3
 10
662.24843
 20
1179.796
 11
630.00073
 21
1179.796
  0
LINE
  8
0-3
  6
CONTINUOUS
 62
    3
 10
667.639
 20
1185.1865
 11
667.639
 21
1198.2323
  0
LINE
  8
0-3
  6
CONTINUOUS
 62
    3
 10
659.55321
 20
1174.9488
 11
630.00073
 21
1174.9488
  0
LINE
  8
0-3
  6
CONTINUOUS
 62
    3
 10
662.24843
 20
1177.6444
 11
662.24843
 21
1179.796
  0
LINE
  8
0-3
  6
CONTINUOUS
 62
    3
 10
667.639
 20
1224.569
 11
667.639
 21
1207.2195
  0
LINE
  8
0-3
  6
CONTINUOUS
 62
    3
 10
660.98411
 20
1231.224
 11
630.00073
 21
1231.224
  0
LINE
  8
0-2
  6
CONTINUOUS
 62
    3
 10
629.99999
 20
1348.4737
 11
837.50099
 21
1348.4737
  0
LINE
  8
0-2
  6
CONTINUOUS
 62
    3
 10
629.99999
 20
1335.4739
 11
837.50218
 21
1335.4739
  0
LINE
  8
0-2
  6
CONTINUOUS
 62
    3
 10
792.67767
 20
1443.474
 11
629.99999
 21
1360.5856
  0
LINE
  8
0-2
  6
CONTINUOUS
 62
    3
 10
837.5001
 20
1296.7231
 11
955.00096
 21
1296.7231
  0
LINE
  8
0-2
  6
CONTINUOUS
 62
    3
 10
837.5001
 20
1283.7233
 11
955.00096
 21
1283.7233
  0
LINE
  8
0-2
  6
CONTINUOUS
 62
    3
 10
837.5001
 20
1261.4736
 11
955.00096
 21
1261.4736
  0
LINE
  8
0-2
  6
CONTINUOUS
 62
    3
 10
837.5001
 20
1248.4741
 11
955.00096
 21
1248.4741
  0
LINE
  8
0-2
  6
CONTINUOUS
 62
    3
 10
304.99991
 20
1296.7231
 11
629.99999
 21
1296.7231
  0
LINE
  8
0-2
  6
CONTINUOUS
 62
    3
 10
304.99991
 20
1283.7233
 11
629.99999
 21
1283.7233
  0
LINE
  8
0-2
  6
CONTINUOUS
 62
    3
 10
304.99991
 20
1261.4736
 11
629.99999
 21
1261.4736
  0
LINE
  8
0-2
  6
CONTINUOUS
 62
    3
 10
304.99991
 20
1248.4741
 11
629.99999
 21
1248.4741
  0
LINE
  8
0-2
  6
CONTINUOUS
 62
    3
 10
837.5001
 20
1203.4741
 11
837.5001
 21
1172.6525
  0
LINE
  8
0-2
  6
CONTINUOUS
 62
    3
 10
837.5001
 20
1335.4739
 11
837.5001
 21
1216.4738
  0
LINE
  8
0-2
  6
CONTINUOUS
 62
    3
 10
780.35962
 20
1216.4738
 11
837.50099
 21
1216.4738
  0
LINE
  8
0-2
  6
CONTINUOUS
 62
    3
 10
422.49988
 20
1216.4738
 11
629.99999
 21
1216.4738
  0
LINE
  8
0-2
  6
CONTINUOUS
 62
    3
 10
422.49988
 20
1203.4741
 11
629.99999
 21
1203.4741
  0
LINE
  8
0-2
  6
CONTINUOUS
 62
    3
 10
680.42917
 20
1203.4741
 11
837.50099
 21
1203.4741
  0
LINE
  8
0-2
  6
CONTINUOUS
 62
    3
 10
289.95384
 20
1405.0017
 11
629.99999
 21
1483.474
  0
LINE
  8
0-2
  6
CONTINUOUS
 62
    3
 10
969.33396
 20
1405.1659
 11
629.99999
 21
1483.474
  0
LINE
  8
0-2
  6
CONTINUOUS
 62
    3
 10
629.99999
 20
1443.474
 11
792.67767
 21
1443.474
  0
LINE
  8
0-2
  6
CONTINUOUS
 62
    3
 10
304.99991
 20
1408.4739
 11
629.64368
 21
1408.4739
  0
LINE
  8
0-8
  6
CONTINUOUS
 62
    7
 10
1089.5036
 20
1053.4741
 11
1089.5036
 21
1113.474
  0
LINE
  8
0-8
  6
CONTINUOUS
 62
    7
 10
982.70254
 20
1053.4741
 11
1089.5036
 21
1053.4741
  0
LINE
  8
0-8
  6
CONTINUOUS
 62
    7
 10
982.70254
 20
1113.474
 11
1089.5036
 21
1113.474
  0
LINE
  8
0-8
  6
CONTINUOUS
 62
    7
 10
1089.5036
 20
1113.474
 11
1089.5036
 21
1248.4741
  0
LINE
  8
0-8
  6
CONTINUOUS
 62
    7
 10
982.70254
 20
1248.4741
 11
1089.5036
 21
1248.4741
  0
LINE
  8
0-8
  6
CONTINUOUS
 62
    7
 10
1089.5036
 20
1248.4741
 11
1089.5036
 21
1408.4745
  0
LINE
  8
0-8
  6
CONTINUOUS
 62
    7
 10
982.70254
 20
1408.4745
 11
1089.5036
 21
1408.4745
  0
LINE
  8
0-8
  6
CONTINUOUS
 62
    7
 10
1089.5036
 20
1408.4745
 11
1089.5036
 21
1483.474
  0
LINE
  8
0-8
  6
CONTINUOUS
 62
    7
 10
982.70254
 20
1483.474
 11
1089.5036
 21
1483.474
  0
LINE
  8
0-2
  6
CONTINUOUS
 62
    6
 10
629.99999
 20
1348.4736
 11
815.94701
 21
1440.5629
  0
LINE
  8
0-8
  6
CONTINUOUS
 62
    7
 10
911.48798
 20
1113.474
 11
911.48798
 21
1348.4737
  0
LINE
  8
0-8
  6
CONTINUOUS
 62
    7
 10
856.1632
 20
1113.474
 11
911.48798
 21
1113.474
  0
LINE
  8
0-8
  6
CONTINUOUS
 62
    7
 10
856.1632
 20
1348.4737
 11
911.48798
 21
1348.4737
  0
LINE
  8
0-2
  6
CONTINUOUS
 62
    3
 10
723.98639
 20
1408.4739
 11
955.00007
 21
1408.4739
  0
LINE
  8
0-1
  6
CENTER2
 62
    7
 10
629.99999
 20
1483.474
 11
629.99999
 21
1053.4741
  0
LINE
  8
0-2
  6
CONTINUOUS
 62
    3
 10
837.5001
 20
1203.4741
 11
837.5001
 21
1113.474
  0
LINE
  8
0-2
  6
CONTINUOUS
 62
    3
 10
939.99987
 20
1113.474
 11
837.5001
 21
1172.6522
  0
ARC
  8
0-2
  6
CONTINUOUS
 62
    3
 10
422.49988
 20
1209.9738
 40
6.4996993
 50
90
 51
270
  0
ARC
  8
0-2
  6
CONTINUOUS
 62
    3
 10
837.5001
 20
1209.9738
 40
6.4996993
 50
270
 51
90
  0
ARC
  8
0-2
  6
CONTINUOUS
 62
    3
 10
304.99991
 20
1290.2233
 40
6.4996993
 50
90
 51
270
  0
ARC
  8
0-2
  6
CONTINUOUS
 62
    3
 10
304.99991
 20
1254.9738
 40
6.4996993
 50
90
 51
270
  0
ARC
  8
0-2
  6
CONTINUOUS
 62
    3
 10
955.00007
 20
1290.2233
 40
6.4996993
 50
270
 51
90
  0
ARC
  8
0-2
  6
CONTINUOUS
 62
    3
 10
955.00007
 20
1254.9738
 40
6.4996993
 50
270
 51
90
  0
ARC
  8
0-3
  6
CONTINUOUS
 62
    3
 10
636.4362
 20
1240.0123
 40
4.0294089
 50
270
 51
0
  0
ARC
  8
0-3
  6
CONTINUOUS
 62
    3
 10
636.4362
 20
1293.8646
 40
4.0294089
 50
0
 51
90
  0
ARC
  8
0-3
  6
CONTINUOUS
 62
    3
 10
662.24843
 20
1185.1865
 40
5.3905493
 50
270
 51
0
  0
ARC
  8
0-3
  6
CONTINUOUS
 62
    3
 10
659.55321
 20
1177.6444
 40
2.6952746
 50
270
 51
0
  0
ARC
  8
0-2
  6
CONTINUOUS
 62
    3
 10
837.50099
 20
1341.974
 40
6.4996993
 50
270
 51
90
  0
ARC
  8
0-2
  6
DASHED3
 62
    3
 10
629.99999
 20
1348.4737
 40
207.50107
 50
0
 51
26.346679
  0
TEXT
  8
0-d
 10
152.99987
 20
94.49993
 40
15
 41
1
 50
0.0000305
  1
図
  0
TEXT
  8
0-d
 10
152.99987
 20
58.499969
 40
15
 41
1
 50
0
  1
番
  0
TEXT
  8
0-d
 10
393.00025
 20
94.49993
 40
15
 41
1
 50
0.0000305
  1
承
  0
TEXT
  8
0-d
 10
393.00025
 20
58.499969
 40
15
 41
1
 50
0
  1
認
  0
TEXT
  8
0-d
 10
612.00015
 20
142.49994
 40
15
 41
1
 50
0
  1
尺
  0
TEXT
  8
0-d
 10
612.00015
 20
118.49985
 40
15
 41
1
 50
0.0000762
  1
度
  0
TEXT
  8
0-d
 10
513.00005
 20
94.49993
 40
15
 41
1
 50
0.0000305
  1
製
  0
TEXT
  8
0-d
 10
513.00005
 20
58.499969
 40
15
 41
1
 50
0
  1
図
  0
TEXT
  8
0-d
 10
933.00002
 20
142.49994
 40
15
 41
1
 50
0
  1
日
  0
TEXT
  8
0-d
 10
933.00002
 20
118.49985
 40
15
 41
1
 50
0.0000762
  1
付
  0
TEXT
  8
0-d
 10
666.85578
 20
98.089351
 40
12
 41
1
 50
0
  1
株式
  0
TEXT
  8
0-d
 10
666.85578
 20
85.111074
 40
12
 41
1
 50
0.0000152
  1
会社
  0
TEXT
  8
0-d
 10
704.5348
 20
85.948271
 40
24
 41
1
 50
0
  1
スズキベンチレーター
  0
TEXT
  8
0-d
 10
742.75089
 20
56.414506
 40
12
 41
1
 50
0
  1
TEL(054)296-7000  FAX(054)296-7001
  0
TEXT
  8
0-d
 10
650.60938
 20
126.06037
 40
24
 41
1
 50
0.0000152
  1
１／６
  0
TEXT
  8
0-8
 10
612.3751
 20
1588.4181
 40
18
 41
1
 50
0.0002899
  1
650
  0
TEXT
  8
0-8
 10
185.10804
 20
1262.9999
 40
18
 41
1
 50
90
  1
430
  0
TEXT
  8
0-8
 10
1083.5035
 20
1075.2241
 40
18
 41
1
 50
90
  1
60
  0
TEXT
  8
0-8
 10
1083.5035
 20
1168.224
 40
18
 41
1
 50
90
  1
135
  0
TEXT
  8
0-8
 10
1083.5035
 20
1315.7242
 40
18
 41
1
 50
90
  1
160
  0
TEXT
  8
0-8
 10
1083.5035
 20
1437.7243
 40
18
 41
1
 50
90
  1
75
  0
TEXT
  8
0-8
 10
600.99994
 20
941.93458
 40
18
 41
1
 50
0
  1
620*620
  0
TEXT
  8
0-8
 10
905.48796
 20
1218.2238
 40
18
 41
1
 50
90
  1
230
  0
TEXT
  8
0-1
 10
152.99998
 20
1663.6207
 40
30
 41
1
 50
0
  1
ＳＴ－４０　架台型（ダンパー付）断面
  0
TEXT
  8
0-d
 10
185.07555
 20
84.181281
 40
18
 41
1
 50
0
  1
40-B04b
  0
TEXT
  8
0-d
 10
167.61649
 20
125.44811
 40
24
 41
1
 50
0
  1
ＳＴ－４０　架台型（ダンパー付）
  0
TEXT
  8
0-d
 10
741.40752
 20
71.187554
 40
12
 41
1
 50
0
  1
〒421-2114　静岡市葵区安倍口新田１５２番地
  0
POINT
  8
0-8
 62
    2
 10
150.00049
 20
1483.474
  0
POINT
  8
0-8
 62
    2
 10
304.99991
 20
1568.9174
  0
POINT
  8
0-8
 62
    2
 10
955.00096
 20
1568.9174
  0
POINT
  8
0-8
 62
    2
 10
319.99996
 20
928.93449
  0
POINT
  8
0-8
 62
    2
 10
939.99987
 20
928.93449
  0
POINT
  8
0-8
 62
    2
 10
150.00049
 20
1053.4741
  0
POINT
  8
0-8
 62
    2
 10
1089.5036
 20
1053.4741
  0
POINT
  8
0-8
 62
    2
 10
1089.5036
 20
1113.474
  0
POINT
  8
0-8
 62
    2
 10
1089.5036
 20
1248.4741
  0
POINT
  8
0-8
 62
    2
 10
1089.5036
 20
1408.4745
  0
POINT
  8
0-8
 62
    2
 10
1089.5036
 20
1483.474
  0
POINT
  8
0-8
 62
    2
 10
911.48798
 20
1113.474
  0
POINT
  8
0-8
 62
    2
 10
911.48798
 20
1348.4737
  0
ENDSEC
  0
EOF
