  0
SECTION
  2
HEADER
  9
$EXTMIN
 10
0
 20
0
  9
$EXTMAX
 10
2520
 20
1782
  0
ENDSEC
  0
SECTION
  2
TABLES
  0
TABLE
  2
LTYPE
 70
     9
  0
LTYPE
  2
CONTINUOUS
 70
    64
  3
実線
 72
    65
 73
     0
 40
0.0
  0
LTYPE
  2
DASHED1
 70
    64
  3
--  --  --  --  --  --  --  --  
 72
    65
 73
     2
 40
2.5
 49
1.25
 49
-1.25
  0
LTYPE
  2
DASHED2
 70
    64
  3
----    ----    ----    ----    
 72
    65
 73
     2
 40
5.0
 49
2.5
 49
-2.5
  0
LTYPE
  2
DASHED3
 70
    64
  3
------  ------  ------  ------  
 72
    65
 73
     2
 40
5.0
 49
3.75
 49
-1.25
  0
LTYPE
  2
CENTER1
 70
    64
  3
----- - ----- - ----- - ----- - 
 72
    65
 73
     4
 40
10.0
 49
6.25
 49
-1.25
 49
1.25
 49
-1.25
  0
LTYPE
  2
CENTER2
 70
    64
  3
----------  --  ----------  --  
 72
    65
 73
     4
 40
20.0
 49
12.5
 49
-2.5
 49
2.5
 49
-2.5
  0
LTYPE
  2
PHANTOM1
 70
    64
  3
--- - - --- - - --- - - --- - - 
 72
    65
 73
     6
 40
10.0
 49
3.25
 49
-1.25
 49
1.25
 49
-1.25
 49
1.25
 49
-1.25
  0
LTYPE
  2
PHANTOM2
 70
    64
  3
--------  -  -  --------  -  -  
 72
    65
 73
     6
 40
20.0
 49
10.0
 49
-2.5
 49
1.25
 49
-2.5
 49
1.25
 49
-2.5
  0
LTYPE
  2
DOT
 70
    64
  3
-   -   -   -   -   -   -   -   
 72
    65
 73
     2
 40
2.5
 49
0.625
 49
-1.875
  0
ENDTAB
  0
TABLE
  2
STYLE
 70
    1
  0
STYLE
  2
STANDARD
 70
    64
 40
0.0
 41
1.0
 42
0.0
 50
0.0
 71
     0
  3
TXT
  4
BIGFONT
  0
ENDTAB
  0
TABLE
  2
LAYER
 70
    4
  0
LAYER
  2
0-2
 70
   64
 62
    7
  6
CONTINUOUS
  0
LAYER
  2
0-8
 70
   64
 62
    7
  6
CONTINUOUS
  0
LAYER
  2
0-d
 70
   64
 62
    7
  6
CONTINUOUS
  0
LAYER
  2
ADD_LINE
 70
   64
 62
    7
  6
CONTINUOUS
  0
ENDTAB
  0
ENDSEC
  0
SECTION
  2
ENTITIES
  0
LINE
  8
0-d
  6
CONTINUOUS
 62
    7
 10
149.99978
 20
113.99992
 11
1110.0001
 21
113.99992
  0
LINE
  8
0-d
  6
CONTINUOUS
 62
    7
 10
149.99978
 20
53.99988
 11
149.99978
 21
161.99993
  0
LINE
  8
0-d
  6
CONTINUOUS
 62
    7
 10
149.99978
 20
53.99988
 11
1110.0001
 21
53.99988
  0
LINE
  8
0-d
  6
CONTINUOUS
 62
    7
 10
1110.0001
 20
161.99993
 11
1110.0001
 21
53.99988
  0
LINE
  8
0-d
  6
CONTINUOUS
 62
    7
 10
149.99978
 20
161.99993
 11
1110.0001
 21
161.99993
  0
LINE
  8
0-d
  6
CONTINUOUS
 62
    7
 10
629.99999
 20
161.99993
 11
629.99999
 21
53.99988
  0
LINE
  8
0-d
  6
CONTINUOUS
 62
    7
 10
390.00009
 20
53.99988
 11
390.00009
 21
113.99992
  0
LINE
  8
0-d
  6
CONTINUOUS
 62
    7
 10
629.99999
 20
113.99992
 11
629.99999
 21
161.99993
  0
LINE
  8
0-d
  6
CONTINUOUS
 62
    7
 10
509.99982
 20
53.99988
 11
509.99982
 21
113.99992
  0
LINE
  8
0-d
  6
CONTINUOUS
 62
    7
 10
171
 20
53.99988
 11
171
 21
113.99992
  0
LINE
  8
0-d
  6
CONTINUOUS
 62
    7
 10
411.00001
 20
53.99988
 11
411.00001
 21
113.99992
  0
LINE
  8
0-d
  6
CONTINUOUS
 62
    7
 10
531.00004
 20
53.99988
 11
531.00004
 21
113.99992
  0
LINE
  8
0-d
  6
CONTINUOUS
 62
    7
 10
609
 20
113.99992
 11
609
 21
161.99993
  0
LINE
  8
0-d
  6
CONTINUOUS
 62
    7
 10
930.00016
 20
113.99992
 11
930.00016
 21
161.99993
  0
LINE
  8
0-d
  6
CONTINUOUS
 62
    7
 10
951.00008
 20
113.99992
 11
951.00008
 21
161.99993
  0
LINE
  8
0-d
  6
CONTINUOUS
 62
    7
 10
149.99997
 20
1654.6207
 11
1109.9999
 21
1654.6207
  0
LINE
  8
0-d
  6
CONTINUOUS
 62
    7
 10
149.99997
 20
1660.6207
 11
1109.9999
 21
1660.6207
  0
LINE
  8
0-8
  6
CONTINUOUS
 62
    7
 10
304.99984
 20
1574.9174
 11
955.00103
 21
1574.9174
  0
LINE
  8
0-2
  6
CONTINUOUS
 62
    3
 10
304.99984
 20
1414.4739
 11
304.99984
 21
1302.7231
  0
LINE
  8
0-2
  6
CONTINUOUS
 62
    3
 10
304.99984
 20
1289.7233
 11
304.99984
 21
1267.4736
  0
LINE
  8
0-2
  6
CONTINUOUS
 62
    3
 10
955.00103
 20
1414.4739
 11
955.00103
 21
1302.7231
  0
LINE
  8
0-2
  6
CONTINUOUS
 62
    3
 10
422.49995
 20
1254.4741
 11
422.49995
 21
1222.4738
  0
LINE
  8
0-8
  6
CONTINUOUS
 62
    7
 10
304.99984
 20
1452.7892
 11
304.99984
 21
1574.9174
  0
LINE
  8
0-8
  6
CONTINUOUS
 62
    7
 10
955.00103
 20
1452.7892
 11
955.00103
 21
1574.9174
  0
LINE
  8
0-2
  6
CONTINUOUS
 62
    3
 10
955
 20
1289.7233
 11
955
 21
1267.4736
  0
LINE
  8
0-8
  6
CONTINUOUS
 62
    7
 10
320.00003
 20
988.69261
 11
320.00003
 21
934.93451
  0
LINE
  8
0-8
  6
CONTINUOUS
 62
    7
 10
939.99995
 20
988.69261
 11
939.99995
 21
934.93451
  0
LINE
  8
0-8
  6
CONTINUOUS
 62
    7
 10
150.00041
 20
1059.4741
 11
150.00041
 21
1489.474
  0
LINE
  8
0-8
  6
CONTINUOUS
 62
    7
 10
320.00003
 20
934.93451
 11
939.99995
 21
934.93451
  0
LINE
  8
0-8
  6
CONTINUOUS
 62
    7
 10
273.85983
 20
1059.4741
 11
150.00041
 21
1059.4741
  0
LINE
  8
0-8
  6
CONTINUOUS
 62
    7
 10
273.85983
 20
1489.474
 11
150.00041
 21
1489.474
  0
LINE
  8
0-2
  6
CONTINUOUS
 62
    3
 10
320.00003
 20
1059.4741
 11
320.00003
 21
1119.474
  0
LINE
  8
0-2
  6
CONTINUOUS
 62
    3
 10
320.00003
 20
1059.4741
 11
939.99995
 21
1059.4741
  0
LINE
  8
0-2
  6
CONTINUOUS
 62
    3
 10
939.99995
 20
1059.4741
 11
939.99995
 21
1119.474
  0
LINE
  8
0-2
  6
CONTINUOUS
 62
    3
 10
320.00003
 20
1119.474
 11
939.99995
 21
1119.474
  0
LINE
  8
0-2
  6
CONTINUOUS
 62
    3
 10
320.00003
 20
1119.474
 11
466.89912
 21
1204.2863
  0
LINE
  8
0-2
  6
CONTINUOUS
 62
    3
 10
466.89912
 20
1204.2863
 11
466.89912
 21
1119.474
  0
LINE
  8
0-2
  6
CONTINUOUS
 62
    3
 10
422.49995
 20
1209.4741
 11
422.49995
 21
1178.6525
  0
LINE
  8
0-2
  6
CONTINUOUS
 62
    3
 10
644.76227
 20
1291.0235
 11
648.64728
 21
1293.4111
  0
LINE
  8
0-2
  6
CONTINUOUS
 62
    3
 10
648.64728
 20
1293.4111
 11
652.51387
 21
1295.8462
  0
LINE
  8
0-2
  6
CONTINUOUS
 62
    3
 10
652.51387
 20
1295.8462
 11
656.34409
 21
1298.3725
  0
LINE
  8
0-2
  6
CONTINUOUS
 62
    3
 10
656.34409
 20
1298.3725
 11
660.09473
 21
1301.0394
  0
LINE
  8
0-2
  6
CONTINUOUS
 62
    3
 10
660.09473
 20
1301.0394
 11
663.69795
 21
1303.9004
  0
LINE
  8
0-2
  6
CONTINUOUS
 62
    3
 10
663.69795
 20
1303.9004
 11
667.07788
 21
1307.002
  0
LINE
  8
0-2
  6
CONTINUOUS
 62
    3
 10
667.07788
 20
1307.002
 11
670.16059
 21
1310.4002
  0
LINE
  8
0-2
  6
CONTINUOUS
 62
    3
 10
670.16059
 20
1310.4002
 11
672.87243
 21
1314.142
  0
LINE
  8
0-2
  6
CONTINUOUS
 62
    3
 10
672.87243
 20
1314.142
 11
675.23775
 21
1318.1898
  0
LINE
  8
0-2
  6
CONTINUOUS
 62
    3
 10
675.23775
 20
1318.1898
 11
677.47258
 21
1322.3233
  0
LINE
  8
0-2
  6
CONTINUOUS
 62
    3
 10
677.47258
 20
1322.3233
 11
679.80376
 21
1326.309
  0
LINE
  8
0-2
  6
CONTINUOUS
 62
    3
 10
679.80376
 20
1326.309
 11
682.47121
 21
1329.9137
  0
LINE
  8
0-2
  6
CONTINUOUS
 62
    3
 10
682.47121
 20
1329.9137
 11
685.69971
 21
1332.9024
  0
LINE
  8
0-2
  6
CONTINUOUS
 62
    3
 10
685.69971
 20
1332.9024
 11
689.56111
 21
1335.2135
  0
LINE
  8
0-2
  6
CONTINUOUS
 62
    3
 10
689.56111
 20
1335.2135
 11
693.81964
 21
1337.1014
  0
LINE
  8
0-2
  6
CONTINUOUS
 62
    3
 10
693.81964
 20
1337.1014
 11
695.83593
 21
1337.907
  0
LINE
  8
0-2
  6
CONTINUOUS
 62
    3
 10
693.81964
 20
1337.1014
 11
696.62413
 21
1337.5471
  0
LINE
  8
0-2
  6
CONTINUOUS
 62
    3
 10
696.62413
 20
1337.5471
 11
699.4537
 21
1337.9347
  0
LINE
  8
0-2
  6
CONTINUOUS
 62
    3
 10
699.4537
 20
1337.9347
 11
702.33004
 21
1338.2122
  0
LINE
  8
0-2
  6
CONTINUOUS
 62
    3
 10
702.33004
 20
1338.2122
 11
705.2769
 21
1338.3176
  0
LINE
  8
0-2
  6
CONTINUOUS
 62
    3
 10
705.2769
 20
1338.3176
 11
708.31373
 21
1338.1987
  0
LINE
  8
0-2
  6
CONTINUOUS
 62
    3
 10
708.31373
 20
1338.1987
 11
711.35204
 21
1337.756
  0
LINE
  8
0-2
  6
CONTINUOUS
 62
    3
 10
711.35204
 20
1337.756
 11
714.18666
 21
1336.8677
  0
LINE
  8
0-2
  6
CONTINUOUS
 62
    3
 10
714.18666
 20
1336.8677
 11
716.60262
 21
1335.3961
  0
LINE
  8
0-2
  6
CONTINUOUS
 62
    3
 10
716.60262
 20
1335.3961
 11
718.42649
 21
1333.2456
  0
LINE
  8
0-2
  6
CONTINUOUS
 62
    3
 10
718.42649
 20
1333.2456
 11
719.84818
 21
1330.6634
  0
LINE
  8
0-2
  6
CONTINUOUS
 62
    3
 10
643.2371
 20
1280.352
 11
647.7896
 21
1281.0276
  0
LINE
  8
0-2
  6
CONTINUOUS
 62
    3
 10
647.7896
 20
1281.0276
 11
652.31434
 21
1281.7927
  0
LINE
  8
0-2
  6
CONTINUOUS
 62
    3
 10
652.31434
 20
1281.7927
 11
656.78904
 21
1282.7271
  0
LINE
  8
0-2
  6
CONTINUOUS
 62
    3
 10
656.78904
 20
1282.7271
 11
661.18342
 21
1283.923
  0
LINE
  8
0-2
  6
CONTINUOUS
 62
    3
 10
661.18342
 20
1283.923
 11
665.47492
 21
1285.4625
  0
LINE
  8
0-2
  6
CONTINUOUS
 62
    3
 10
665.47492
 20
1285.4625
 11
669.63888
 21
1287.367
  0
LINE
  8
0-2
  6
CONTINUOUS
 62
    3
 10
669.63888
 20
1287.367
 11
673.65795
 21
1289.599
  0
LINE
  8
0-2
  6
CONTINUOUS
 62
    3
 10
673.65795
 20
1289.599
 11
677.50999
 21
1292.1335
  0
LINE
  8
0-2
  6
CONTINUOUS
 62
    3
 10
677.50999
 20
1292.1335
 11
681.17676
 21
1294.9252
  0
LINE
  8
0-2
  6
CONTINUOUS
 62
    3
 10
681.17676
 20
1294.9252
 11
684.64057
 21
1297.9467
  0
LINE
  8
0-2
  6
CONTINUOUS
 62
    3
 10
684.64057
 20
1297.9467
 11
687.928
 21
1301.1437
  0
LINE
  8
0-2
  6
CONTINUOUS
 62
    3
 10
687.928
 20
1301.1437
 11
691.10558
 21
1304.4432
  0
LINE
  8
0-2
  6
CONTINUOUS
 62
    3
 10
691.10558
 20
1304.4432
 11
694.24262
 21
1307.7732
  0
LINE
  8
0-2
  6
CONTINUOUS
 62
    3
 10
694.24262
 20
1307.7732
 11
697.40609
 21
1311.0585
  0
LINE
  8
0-2
  6
CONTINUOUS
 62
    3
 10
697.40609
 20
1311.0585
 11
700.66784
 21
1314.2286
  0
LINE
  8
0-2
  6
CONTINUOUS
 62
    3
 10
700.66784
 20
1314.2286
 11
704.09052
 21
1317.22
  0
LINE
  8
0-2
  6
CONTINUOUS
 62
    3
 10
704.09052
 20
1317.22
 11
707.66954
 21
1320.0309
  0
LINE
  8
0-2
  6
CONTINUOUS
 62
    3
 10
707.66954
 20
1320.0309
 11
711.37594
 21
1322.7035
  0
LINE
  8
0-2
  6
CONTINUOUS
 62
    3
 10
711.37594
 20
1322.7035
 11
715.17068
 21
1325.2722
  0
LINE
  8
0-2
  6
CONTINUOUS
 62
    3
 10
715.17068
 20
1325.2722
 11
719.0254
 21
1327.7765
  0
LINE
  8
0-2
  6
CONTINUOUS
 62
    3
 10
719.0254
 20
1327.7765
 11
721.75431
 21
1329.5207
  0
LINE
  8
0-2
  6
CONTINUOUS
 62
    3
 10
721.75431
 20
1329.5207
 11
726.01255
 21
1331.287
  0
LINE
  8
0-2
  6
CONTINUOUS
 62
    3
 10
726.01255
 20
1331.287
 11
730.29485
 21
1332.9358
  0
LINE
  8
0-2
  6
CONTINUOUS
 62
    3
 10
730.29485
 20
1332.9358
 11
734.62806
 21
1334.3515
  0
LINE
  8
0-2
  6
CONTINUOUS
 62
    3
 10
734.62806
 20
1334.3515
 11
739.03714
 21
1335.4184
  0
LINE
  8
0-2
  6
CONTINUOUS
 62
    3
 10
739.03714
 20
1335.4184
 11
743.53263
 21
1336.0717
  0
LINE
  8
0-2
  6
CONTINUOUS
 62
    3
 10
743.53263
 20
1336.0717
 11
748.0927
 21
1336.3588
  0
LINE
  8
0-2
  6
CONTINUOUS
 62
    3
 10
748.0927
 20
1336.3588
 11
752.69107
 21
1336.342
  0
LINE
  8
0-2
  6
CONTINUOUS
 62
    3
 10
752.69107
 20
1336.342
 11
757.30295
 21
1336.0832
  0
LINE
  8
0-2
  6
CONTINUOUS
 62
    3
 10
757.30295
 20
1336.0832
 11
761.90682
 21
1335.6463
  0
LINE
  8
0-2
  6
CONTINUOUS
 62
    3
 10
761.90682
 20
1335.6463
 11
766.47505
 21
1335.0847
  0
LINE
  8
0-2
  6
CONTINUOUS
 62
    3
 10
766.47505
 20
1335.0847
 11
771.00335
 21
1334.3857
  0
LINE
  8
0-2
  6
CONTINUOUS
 62
    3
 10
771.00335
 20
1334.3857
 11
775.49275
 21
1333.5351
  0
LINE
  8
0-2
  6
CONTINUOUS
 62
    3
 10
775.49275
 20
1333.5351
 11
779.93702
 21
1332.5032
  0
LINE
  8
0-2
  6
CONTINUOUS
 62
    3
 10
779.93702
 20
1332.5032
 11
784.33882
 21
1331.2727
  0
LINE
  8
0-2
  6
CONTINUOUS
 62
    3
 10
784.33882
 20
1331.2727
 11
788.69609
 21
1329.8155
  0
LINE
  8
0-2
  6
CONTINUOUS
 62
    3
 10
788.69609
 20
1329.8155
 11
792.99159
 21
1328.1113
  0
LINE
  8
0-2
  6
CONTINUOUS
 62
    3
 10
792.99159
 20
1328.1113
 11
797.18496
 21
1326.1412
  0
LINE
  8
0-2
  6
CONTINUOUS
 62
    3
 10
797.18496
 20
1326.1412
 11
801.21516
 21
1323.8929
  0
LINE
  8
0-2
  6
CONTINUOUS
 62
    3
 10
801.21516
 20
1323.8929
 11
805.02979
 21
1321.3457
  0
LINE
  8
0-2
  6
CONTINUOUS
 62
    3
 10
805.02979
 20
1321.3457
 11
808.57347
 21
1318.4803
  0
LINE
  8
0-2
  6
CONTINUOUS
 62
    3
 10
808.57347
 20
1318.4803
 11
811.79722
 21
1315.2888
  0
LINE
  8
0-2
  6
CONTINUOUS
 62
    3
 10
811.79722
 20
1315.2888
 11
814.74259
 21
1311.8178
  0
LINE
  8
0-2
  6
CONTINUOUS
 62
    3
 10
814.74259
 20
1311.8178
 11
817.48279
 21
1308.1447
  0
LINE
  8
0-2
  6
CONTINUOUS
 62
    3
 10
817.48279
 20
1308.1447
 11
820.09546
 21
1304.3467
  0
LINE
  8
0-2
  6
CONTINUOUS
 62
    3
 10
820.09546
 20
1304.3467
 11
821.6138
 21
1302.0785
  0
LINE
  8
0-2
  6
CONTINUOUS
 62
    3
 10
820.09546
 20
1304.3467
 11
822.13847
 21
1300.1164
  0
LINE
  8
0-2
  6
CONTINUOUS
 62
    3
 10
822.13847
 20
1300.1164
 11
824.07251
 21
1295.867
  0
LINE
  8
0-2
  6
CONTINUOUS
 62
    3
 10
824.07251
 20
1295.867
 11
825.79335
 21
1291.5882
  0
LINE
  8
0-2
  6
CONTINUOUS
 62
    3
 10
825.79335
 20
1291.5882
 11
827.19114
 21
1287.2558
  0
LINE
  8
0-2
  6
CONTINUOUS
 62
    3
 10
827.19114
 20
1287.2558
 11
828.15928
 21
1282.8588
  0
LINE
  8
0-2
  6
CONTINUOUS
 62
    3
 10
828.15928
 20
1282.8588
 11
828.59472
 21
1278.3787
  0
LINE
  8
0-2
  6
CONTINUOUS
 62
    3
 10
828.59472
 20
1278.3787
 11
828.46986
 21
1273.835
  0
LINE
  8
0-2
  6
CONTINUOUS
 62
    3
 10
828.46986
 20
1273.835
 11
827.86071
 21
1269.2709
  0
LINE
  8
0-2
  6
CONTINUOUS
 62
    3
 10
827.86071
 20
1269.2709
 11
826.84582
 21
1264.7395
  0
LINE
  8
0-2
  6
CONTINUOUS
 62
    3
 10
826.84582
 20
1264.7395
 11
825.49494
 21
1260.293
  0
LINE
  8
0-2
  6
CONTINUOUS
 62
    3
 10
825.49494
 20
1260.293
 11
823.83066
 21
1255.9923
  0
LINE
  8
0-2
  6
CONTINUOUS
 62
    3
 10
823.83066
 20
1255.9923
 11
821.80769
 21
1251.8986
  0
LINE
  8
0-2
  6
CONTINUOUS
 62
    3
 10
821.80769
 20
1251.8986
 11
819.37734
 21
1248.0749
  0
LINE
  8
0-2
  6
CONTINUOUS
 62
    3
 10
819.37734
 20
1248.0749
 11
816.54539
 21
1244.5443
  0
LINE
  8
0-2
  6
CONTINUOUS
 62
    3
 10
816.54539
 20
1244.5443
 11
813.39751
 21
1241.2408
  0
LINE
  8
0-2
  6
CONTINUOUS
 62
    3
 10
813.39751
 20
1241.2408
 11
810.03258
 21
1238.0961
  0
LINE
  8
0-2
  6
CONTINUOUS
 62
    3
 10
810.03258
 20
1238.0961
 11
806.54486
 21
1235.0428
  0
LINE
  8
0-2
  6
CONTINUOUS
 62
    3
 10
806.54486
 20
1235.0428
 11
805.60479
 21
1234.2348
  0
LINE
  8
0-2
  6
CONTINUOUS
 62
    3
 10
806.54486
 20
1235.0428
 11
802.54213
 21
1232.7989
  0
LINE
  8
0-2
  6
CONTINUOUS
 62
    3
 10
802.54213
 20
1232.7989
 11
798.5241
 21
1230.5961
  0
LINE
  8
0-2
  6
CONTINUOUS
 62
    3
 10
798.5241
 20
1230.5961
 11
794.47282
 21
1228.4738
  0
LINE
  8
0-2
  6
CONTINUOUS
 62
    3
 10
794.47282
 20
1228.4738
 11
790.36586
 21
1226.4716
  0
LINE
  8
0-2
  6
CONTINUOUS
 62
    3
 10
790.36586
 20
1226.4716
 11
786.19328
 21
1224.6295
  0
LINE
  8
0-2
  6
CONTINUOUS
 62
    3
 10
786.19328
 20
1224.6295
 11
781.93148
 21
1222.9867
  0
LINE
  8
0-2
  6
CONTINUOUS
 62
    3
 10
781.93148
 20
1222.9867
 11
777.57985
 21
1221.5669
  0
LINE
  8
0-2
  6
CONTINUOUS
 62
    3
 10
777.57985
 20
1221.5669
 11
773.15622
 21
1220.3754
  0
LINE
  8
0-2
  6
CONTINUOUS
 62
    3
 10
773.15622
 20
1220.3754
 11
768.67737
 21
1219.4099
  0
LINE
  8
0-2
  6
CONTINUOUS
 62
    3
 10
768.67737
 20
1219.4099
 11
764.15753
 21
1218.6717
  0
LINE
  8
0-2
  6
CONTINUOUS
 62
    3
 10
764.15753
 20
1218.6717
 11
759.6178
 21
1218.155
  0
LINE
  8
0-2
  6
CONTINUOUS
 62
    3
 10
759.6178
 20
1218.155
 11
755.06323
 21
1217.8208
  0
LINE
  8
0-2
  6
CONTINUOUS
 62
    3
 10
755.06323
 20
1217.8208
 11
750.49677
 21
1217.6256
  0
LINE
  8
0-2
  6
CONTINUOUS
 62
    3
 10
750.49677
 20
1217.6256
 11
745.91993
 21
1217.5197
  0
LINE
  8
0-2
  6
CONTINUOUS
 62
    3
 10
745.91993
 20
1217.5197
 11
741.95312
 21
1217.4641
  0
LINE
  8
0-2
  6
CONTINUOUS
 62
    3
 10
690.81622
 20
1217.0436
 11
695.09643
 21
1215.3113
  0
LINE
  8
0-2
  6
CONTINUOUS
 62
    3
 10
695.09643
 20
1215.3113
 11
699.40174
 21
1213.5986
  0
LINE
  8
0-2
  6
CONTINUOUS
 62
    3
 10
699.40174
 20
1213.5986
 11
703.74742
 21
1212.0203
  0
LINE
  8
0-2
  6
CONTINUOUS
 62
    3
 10
703.74742
 20
1212.0203
 11
708.13483
 21
1210.7044
  0
LINE
  8
0-2
  6
CONTINUOUS
 62
    3
 10
708.13483
 20
1210.7044
 11
712.57568
 21
1209.7765
  0
LINE
  8
0-2
  6
CONTINUOUS
 62
    3
 10
712.57568
 20
1209.7765
 11
717.07978
 21
1209.3608
  0
LINE
  8
0-2
  6
CONTINUOUS
 62
    3
 10
717.07978
 20
1209.3608
 11
721.63658
 21
1209.4257
  0
LINE
  8
0-2
  6
CONTINUOUS
 62
    3
 10
721.63658
 20
1209.4257
 11
726.22649
 21
1209.7643
  0
LINE
  8
0-2
  6
CONTINUOUS
 62
    3
 10
726.22649
 20
1209.7643
 11
727.08877
 21
1209.8405
  0
LINE
  8
0-2
  6
CONTINUOUS
 62
    3
 10
726.22649
 20
1209.7643
 11
729.97951
 21
1210.6013
  0
LINE
  8
0-2
  6
CONTINUOUS
 62
    3
 10
729.97951
 20
1210.6013
 11
733.58184
 21
1211.7594
  0
LINE
  8
0-2
  6
CONTINUOUS
 62
    3
 10
733.58184
 20
1211.7594
 11
736.88679
 21
1213.5627
  0
LINE
  8
0-2
  6
CONTINUOUS
 62
    3
 10
736.88679
 20
1213.5627
 11
739.70464
 21
1216.1501
  0
LINE
  8
0-2
  6
CONTINUOUS
 62
    3
 10
739.70464
 20
1216.1501
 11
741.79382
 21
1219.3933
  0
LINE
  8
0-2
  6
CONTINUOUS
 62
    3
 10
741.79382
 20
1219.3933
 11
742.93165
 21
1223.1018
  0
LINE
  8
0-2
  6
CONTINUOUS
 62
    3
 10
742.93165
 20
1223.1018
 11
743.01568
 21
1226.937
  0
LINE
  8
0-2
  6
CONTINUOUS
 62
    3
 10
743.01568
 20
1226.937
 11
742.00078
 21
1230.5304
  0
LINE
  8
0-2
  6
CONTINUOUS
 62
    3
 10
742.00078
 20
1230.5304
 11
740.104
 21
1233.7992
  0
LINE
  8
0-2
  6
CONTINUOUS
 62
    3
 10
740.104
 20
1233.7992
 11
737.76124
 21
1236.9022
  0
LINE
  8
0-2
  6
CONTINUOUS
 62
    3
 10
649.82281
 20
1274.436
 11
654.43559
 21
1273.6507
  0
LINE
  8
0-2
  6
CONTINUOUS
 62
    3
 10
654.43559
 20
1273.6507
 11
659.03307
 21
1272.9981
  0
LINE
  8
0-2
  6
CONTINUOUS
 62
    3
 10
659.03307
 20
1272.9981
 11
663.597
 21
1272.6105
  0
LINE
  8
0-2
  6
CONTINUOUS
 62
    3
 10
663.597
 20
1272.6105
 11
668.11149
 21
1272.6173
  0
LINE
  8
0-2
  6
CONTINUOUS
 62
    3
 10
668.11149
 20
1272.6173
 11
672.55976
 21
1273.1485
  0
LINE
  8
0-2
  6
CONTINUOUS
 62
    3
 10
672.55976
 20
1273.1485
 11
676.94286
 21
1274.2275
  0
LINE
  8
0-2
  6
CONTINUOUS
 62
    3
 10
676.94286
 20
1274.2275
 11
681.26984
 21
1275.7085
  0
LINE
  8
0-2
  6
CONTINUOUS
 62
    3
 10
681.26984
 20
1275.7085
 11
685.56193
 21
1277.4452
  0
LINE
  8
0-2
  6
CONTINUOUS
 62
    3
 10
685.56193
 20
1277.4452
 11
689.8273
 21
1279.2804
  0
LINE
  8
0-2
  6
CONTINUOUS
 62
    3
 10
689.8273
 20
1279.2804
 11
694.08792
 21
1281.0821
  0
LINE
  8
0-2
  6
CONTINUOUS
 62
    3
 10
694.08792
 20
1281.0821
 11
698.34423
 21
1282.8165
  0
LINE
  8
0-2
  6
CONTINUOUS
 62
    3
 10
698.34423
 20
1282.8165
 11
702.60024
 21
1284.499
  0
LINE
  8
0-2
  6
CONTINUOUS
 62
    3
 10
702.60024
 20
1284.499
 11
706.85151
 21
1286.1398
  0
LINE
  8
0-2
  6
CONTINUOUS
 62
    3
 10
706.85151
 20
1286.1398
 11
711.10262
 21
1287.7504
  0
LINE
  8
0-2
  6
CONTINUOUS
 62
    3
 10
711.10262
 20
1287.7504
 11
715.35493
 21
1289.3458
  0
LINE
  8
0-2
  6
CONTINUOUS
 62
    3
 10
715.35493
 20
1289.3458
 11
715.29554
 21
1285.4294
  0
LINE
  8
0-2
  6
CONTINUOUS
 62
    3
 10
715.29554
 20
1285.4294
 11
715.23912
 21
1281.5177
  0
LINE
  8
0-2
  6
CONTINUOUS
 62
    3
 10
715.23912
 20
1281.5177
 11
715.18286
 21
1277.6012
  0
LINE
  8
0-2
  6
CONTINUOUS
 62
    3
 10
715.18286
 20
1277.6012
 11
715.12377
 21
1273.6886
  0
LINE
  8
0-2
  6
CONTINUOUS
 62
    3
 10
715.12377
 20
1273.6886
 11
715.06794
 21
1269.7764
  0
LINE
  8
0-2
  6
CONTINUOUS
 62
    3
 10
715.06794
 20
1269.7764
 11
715.01123
 21
1265.8598
  0
LINE
  8
0-2
  6
CONTINUOUS
 62
    3
 10
715.01123
 20
1265.8598
 11
714.95229
 21
1261.9481
  0
LINE
  8
0-2
  6
CONTINUOUS
 62
    3
 10
714.95229
 20
1261.9481
 11
714.89617
 21
1258.0319
  0
LINE
  8
0-2
  6
CONTINUOUS
 62
    3
 10
714.89617
 20
1258.0319
 11
714.83783
 21
1254.1188
  0
LINE
  8
0-2
  6
CONTINUOUS
 62
    3
 10
714.83783
 20
1254.1188
 11
714.78096
 21
1250.2036
  0
LINE
  8
0-2
  6
CONTINUOUS
 62
    3
 10
737.76124
 20
1236.9022
 11
736.82548
 21
1237.727
  0
LINE
  8
0-2
  6
CONTINUOUS
 62
    3
 10
736.82548
 20
1237.727
 11
735.48039
 21
1238.7248
  0
LINE
  8
0-2
  6
CONTINUOUS
 62
    3
 10
735.48039
 20
1238.7248
 11
733.77959
 21
1239.866
  0
LINE
  8
0-2
  6
CONTINUOUS
 62
    3
 10
733.77959
 20
1239.866
 11
731.76865
 21
1241.1233
  0
LINE
  8
0-2
  6
CONTINUOUS
 62
    3
 10
731.76865
 20
1241.1233
 11
729.47622
 21
1242.4717
  0
LINE
  8
0-2
  6
CONTINUOUS
 62
    3
 10
729.47622
 20
1242.4717
 11
726.94327
 21
1243.8935
  0
LINE
  8
0-2
  6
CONTINUOUS
 62
    3
 10
726.94327
 20
1243.8935
 11
724.19372
 21
1245.3716
  0
LINE
  8
0-2
  6
CONTINUOUS
 62
    3
 10
724.19372
 20
1245.3716
 11
721.24864
 21
1246.8897
  0
LINE
  8
0-2
  6
CONTINUOUS
 62
    3
 10
721.24864
 20
1246.8897
 11
718.13447
 21
1248.4364
  0
LINE
  8
0-2
  6
CONTINUOUS
 62
    3
 10
718.13447
 20
1248.4364
 11
714.86811
 21
1249.9996
  0
LINE
  8
0-2
  6
CONTINUOUS
 62
    3
 10
714.86811
 20
1249.9996
 11
711.46191
 21
1251.5691
  0
LINE
  8
0-2
  6
CONTINUOUS
 62
    3
 10
711.46191
 20
1251.5691
 11
707.93708
 21
1253.1409
  0
LINE
  8
0-2
  6
CONTINUOUS
 62
    3
 10
707.93708
 20
1253.1409
 11
704.30327
 21
1254.7045
  0
LINE
  8
0-2
  6
CONTINUOUS
 62
    3
 10
704.30327
 20
1254.7045
 11
700.57891
 21
1256.2555
  0
LINE
  8
0-2
  6
CONTINUOUS
 62
    3
 10
700.57891
 20
1256.2555
 11
696.77363
 21
1257.7905
  0
LINE
  8
0-2
  6
CONTINUOUS
 62
    3
 10
696.77363
 20
1257.7905
 11
692.90303
 21
1259.3019
  0
LINE
  8
0-2
  6
CONTINUOUS
 62
    3
 10
692.90303
 20
1259.3019
 11
688.98091
 21
1260.7881
  0
LINE
  8
0-2
  6
CONTINUOUS
 62
    3
 10
688.98091
 20
1260.7881
 11
685.02331
 21
1262.2466
  0
LINE
  8
0-2
  6
CONTINUOUS
 62
    3
 10
685.02331
 20
1262.2466
 11
681.04655
 21
1263.6756
  0
LINE
  8
0-2
  6
CONTINUOUS
 62
    3
 10
681.04655
 20
1263.6756
 11
677.06564
 21
1265.0664
  0
LINE
  8
0-2
  6
CONTINUOUS
 62
    3
 10
677.06564
 20
1265.0664
 11
673.09661
 21
1266.4195
  0
LINE
  8
0-2
  6
CONTINUOUS
 62
    3
 10
673.09661
 20
1266.4195
 11
669.1592
 21
1267.7343
  0
LINE
  8
0-2
  6
CONTINUOUS
 62
    3
 10
669.1592
 20
1267.7343
 11
665.27464
 21
1269.0025
  0
LINE
  8
0-2
  6
CONTINUOUS
 62
    3
 10
665.27464
 20
1269.0025
 11
661.45763
 21
1270.2246
  0
LINE
  8
0-2
  6
CONTINUOUS
 62
    3
 10
661.45763
 20
1270.2246
 11
657.73312
 21
1271.3953
  0
LINE
  8
0-2
  6
CONTINUOUS
 62
    3
 10
657.73312
 20
1271.3953
 11
654.1204
 21
1272.5091
  0
LINE
  8
0-2
  6
CONTINUOUS
 62
    3
 10
654.1204
 20
1272.5091
 11
650.63996
 21
1273.5614
  0
LINE
  8
0-2
  6
CONTINUOUS
 62
    3
 10
650.63996
 20
1273.5614
 11
647.31021
 21
1274.5498
  0
LINE
  8
0-2
  6
CONTINUOUS
 62
    3
 10
647.31021
 20
1274.5498
 11
644.15224
 21
1275.4657
  0
LINE
  8
0-2
  6
CONTINUOUS
 62
    3
 10
715.35493
 20
1289.3458
 11
715.40911
 21
1289.3643
  0
LINE
  8
0-2
  6
CONTINUOUS
 62
    3
 10
653.11856
 20
1213.2195
 11
653.11856
 21
1204.2323
  0
LINE
  8
0-2
  6
CONTINUOUS
 62
    3
 10
653.11856
 20
1204.2323
 11
680.42909
 21
1204.2323
  0
LINE
  8
0-2
  6
CONTINUOUS
 62
    3
 10
680.42909
 20
1213.2195
 11
680.42909
 21
1204.2323
  0
LINE
  8
0-2
  6
CONTINUOUS
 62
    3
 10
653.11856
 20
1213.2195
 11
680.42909
 21
1213.2195
  0
LINE
  8
0-2
  6
CONTINUOUS
 62
    3
 10
640.46454
 20
1299.8646
 11
640.46454
 21
1270.3776
  0
LINE
  8
0-2
  6
CONTINUOUS
 62
    3
 10
644.76227
 20
1291.0235
 11
644.31629
 21
1290.7712
  0
LINE
  8
0-2
  6
CONTINUOUS
 62
    3
 10
644.31629
 20
1290.7712
 11
643.85947
 21
1290.506
  0
LINE
  8
0-2
  6
CONTINUOUS
 62
    3
 10
643.85947
 20
1290.506
 11
643.3973
 21
1290.2285
  0
LINE
  8
0-2
  6
CONTINUOUS
 62
    3
 10
643.3973
 20
1290.2285
 11
642.92518
 21
1289.9377
  0
LINE
  8
0-2
  6
CONTINUOUS
 62
    3
 10
642.92518
 20
1289.9377
 11
642.44371
 21
1289.6373
  0
LINE
  8
0-2
  6
CONTINUOUS
 62
    3
 10
642.44371
 20
1289.6373
 11
641.95393
 21
1289.3216
  0
LINE
  8
0-2
  6
CONTINUOUS
 62
    3
 10
641.95393
 20
1289.3216
 11
641.45598
 21
1288.9954
  0
LINE
  8
0-2
  6
CONTINUOUS
 62
    3
 10
641.45598
 20
1288.9954
 11
640.94809
 21
1288.6547
  0
LINE
  8
0-2
  6
CONTINUOUS
 62
    3
 10
640.94809
 20
1288.6547
 11
640.43336
 21
1288.304
  0
LINE
  8
0-2
  6
CONTINUOUS
 62
    3
 10
643.2371
 20
1280.352
 11
642.90633
 21
1280.2884
  0
LINE
  8
0-2
  6
CONTINUOUS
 62
    3
 10
642.90633
 20
1280.2884
 11
642.58
 21
1280.2295
  0
LINE
  8
0-2
  6
CONTINUOUS
 62
    3
 10
642.58
 20
1280.2295
 11
642.25962
 21
1280.1711
  0
LINE
  8
0-2
  6
CONTINUOUS
 62
    3
 10
642.25962
 20
1280.1711
 11
641.94235
 21
1280.1138
  0
LINE
  8
0-2
  6
CONTINUOUS
 62
    3
 10
641.94235
 20
1280.1138
 11
641.63191
 21
1280.0595
  0
LINE
  8
0-2
  6
CONTINUOUS
 62
    3
 10
641.63191
 20
1280.0595
 11
641.32459
 21
1280.0086
  0
LINE
  8
0-2
  6
CONTINUOUS
 62
    3
 10
641.32459
 20
1280.0086
 11
641.02277
 21
1279.9609
  0
LINE
  8
0-2
  6
CONTINUOUS
 62
    3
 10
641.02277
 20
1279.9609
 11
640.72465
 21
1279.9144
  0
LINE
  8
0-2
  6
CONTINUOUS
 62
    3
 10
640.72465
 20
1279.9144
 11
640.43336
 21
1279.8692
  0
LINE
  8
0-2
  6
CONTINUOUS
 62
    3
 10
649.82281
 20
1274.436
 11
648.56562
 21
1274.7028
  0
LINE
  8
0-2
  6
CONTINUOUS
 62
    3
 10
648.56562
 20
1274.7028
 11
647.3592
 21
1274.9603
  0
LINE
  8
0-2
  6
CONTINUOUS
 62
    3
 10
647.3592
 20
1274.9603
 11
646.20816
 21
1275.2096
  0
LINE
  8
0-2
  6
CONTINUOUS
 62
    3
 10
646.20816
 20
1275.2096
 11
645.11087
 21
1275.4515
  0
LINE
  8
0-2
  6
CONTINUOUS
 62
    3
 10
645.11087
 20
1275.4515
 11
644.06687
 21
1275.684
  0
LINE
  8
0-2
  6
CONTINUOUS
 62
    3
 10
644.06687
 20
1275.684
 11
643.0781
 21
1275.9099
  0
LINE
  8
0-2
  6
CONTINUOUS
 62
    3
 10
643.0781
 20
1275.9099
 11
642.14218
 21
1276.1264
  0
LINE
  8
0-2
  6
CONTINUOUS
 62
    3
 10
642.14218
 20
1276.1264
 11
641.26075
 21
1276.3354
  0
LINE
  8
0-2
  6
CONTINUOUS
 62
    3
 10
641.26075
 20
1276.3354
 11
640.43336
 21
1276.5345
  0
LINE
  8
0-2
  6
CONTINUOUS
 62
    3
 10
644.15224
 20
1275.4657
 11
643.66023
 21
1275.5995
  0
LINE
  8
0-2
  6
CONTINUOUS
 62
    3
 10
643.66023
 20
1275.5995
 11
643.18826
 21
1275.7285
  0
LINE
  8
0-2
  6
CONTINUOUS
 62
    3
 10
643.18826
 20
1275.7285
 11
642.73663
 21
1275.8556
  0
LINE
  8
0-2
  6
CONTINUOUS
 62
    3
 10
642.73663
 20
1275.8556
 11
642.30609
 21
1275.9779
  0
LINE
  8
0-2
  6
CONTINUOUS
 62
    3
 10
642.30609
 20
1275.9779
 11
641.89766
 21
1276.0957
  0
LINE
  8
0-2
  6
CONTINUOUS
 62
    3
 10
641.89766
 20
1276.0957
 11
641.50765
 21
1276.2077
  0
LINE
  8
0-2
  6
CONTINUOUS
 62
    3
 10
641.50765
 20
1276.2077
 11
641.13872
 21
1276.3176
  0
LINE
  8
0-2
  6
CONTINUOUS
 62
    3
 10
641.13872
 20
1276.3176
 11
640.79146
 21
1276.4244
  0
LINE
  8
0-2
  6
CONTINUOUS
 62
    3
 10
640.79146
 20
1276.4244
 11
640.46454
 21
1276.5283
  0
LINE
  8
0-2
  6
CONTINUOUS
 62
    3
 10
636.43627
 20
1303.8951
 11
630.00066
 21
1303.8951
  0
LINE
  8
0-2
  6
CONTINUOUS
 62
    3
 10
636.43627
 20
1241.982
 11
630.00066
 21
1241.982
  0
LINE
  8
0-2
  6
CONTINUOUS
 62
    3
 10
633.36233
 20
1262.974
 11
635.69633
 21
1260.3392
  0
LINE
  8
0-2
  6
CONTINUOUS
 62
    3
 10
635.69633
 20
1260.3392
 11
638.26193
 21
1257.602
  0
LINE
  8
0-2
  6
CONTINUOUS
 62
    3
 10
638.26193
 20
1257.602
 11
641.02113
 21
1254.7942
  0
LINE
  8
0-2
  6
CONTINUOUS
 62
    3
 10
641.02113
 20
1254.7942
 11
643.93904
 21
1251.9452
  0
LINE
  8
0-2
  6
CONTINUOUS
 62
    3
 10
643.93904
 20
1251.9452
 11
646.98196
 21
1249.0822
  0
LINE
  8
0-2
  6
CONTINUOUS
 62
    3
 10
646.98196
 20
1249.0822
 11
650.11915
 21
1246.2302
  0
LINE
  8
0-2
  6
CONTINUOUS
 62
    3
 10
650.11915
 20
1246.2302
 11
653.32151
 21
1243.4117
  0
LINE
  8
0-2
  6
CONTINUOUS
 62
    3
 10
653.32151
 20
1243.4117
 11
656.56233
 21
1240.6472
  0
LINE
  8
0-2
  6
CONTINUOUS
 62
    3
 10
656.56233
 20
1240.6472
 11
659.81666
 21
1237.956
  0
LINE
  8
0-2
  6
CONTINUOUS
 62
    3
 10
659.81666
 20
1237.956
 11
663.06238
 21
1235.3543
  0
LINE
  8
0-2
  6
CONTINUOUS
 62
    3
 10
663.06238
 20
1235.3543
 11
666.279
 21
1232.8568
  0
LINE
  8
0-2
  6
CONTINUOUS
 62
    3
 10
666.279
 20
1232.8568
 11
669.44811
 21
1230.4749
  0
LINE
  8
0-2
  6
CONTINUOUS
 62
    3
 10
669.44811
 20
1230.4749
 11
672.55368
 21
1228.2198
  0
LINE
  8
0-2
  6
CONTINUOUS
 62
    3
 10
672.55368
 20
1228.2198
 11
675.58175
 21
1226.0984
  0
LINE
  8
0-2
  6
CONTINUOUS
 62
    3
 10
675.58175
 20
1226.0984
 11
678.52089
 21
1224.1169
  0
LINE
  8
0-2
  6
CONTINUOUS
 62
    3
 10
678.52089
 20
1224.1169
 11
681.3607
 21
1222.2792
  0
LINE
  8
0-2
  6
CONTINUOUS
 62
    3
 10
681.3607
 20
1222.2792
 11
684.09437
 21
1220.5864
  0
LINE
  8
0-2
  6
CONTINUOUS
 62
    3
 10
684.09437
 20
1220.5864
 11
686.71609
 21
1219.0385
  0
LINE
  8
0-2
  6
CONTINUOUS
 62
    3
 10
686.71609
 20
1219.0385
 11
689.22261
 21
1217.6322
  0
LINE
  8
0-2
  6
CONTINUOUS
 62
    3
 10
689.22261
 20
1217.6322
 11
689.40715
 21
1217.5514
  0
LINE
  8
0-2
  6
CONTINUOUS
 62
    3
 10
689.40715
 20
1217.5514
 11
689.58976
 21
1217.4748
  0
LINE
  8
0-2
  6
CONTINUOUS
 62
    3
 10
689.58976
 20
1217.4748
 11
689.77074
 21
1217.4015
  0
LINE
  8
0-2
  6
CONTINUOUS
 62
    3
 10
689.77074
 20
1217.4015
 11
689.94964
 21
1217.3325
  0
LINE
  8
0-2
  6
CONTINUOUS
 62
    3
 10
689.94964
 20
1217.3325
 11
690.1266
 21
1217.2673
  0
LINE
  8
0-2
  6
CONTINUOUS
 62
    3
 10
690.1266
 20
1217.2673
 11
690.30179
 21
1217.2055
  0
LINE
  8
0-2
  6
CONTINUOUS
 62
    3
 10
690.30179
 20
1217.2055
 11
690.47535
 21
1217.1475
  0
LINE
  8
0-2
  6
CONTINUOUS
 62
    3
 10
690.47535
 20
1217.1475
 11
690.64667
 21
1217.0942
  0
LINE
  8
0-2
  6
CONTINUOUS
 62
    3
 10
690.64667
 20
1217.0942
 11
690.81622
 21
1217.0436
  0
LINE
  8
0-2
  6
CONTINUOUS
 62
    3
 10
633.36233
 20
1262.974
 11
634.7423
 21
1263.6594
  0
LINE
  8
0-2
  6
CONTINUOUS
 62
    3
 10
634.7423
 20
1263.6594
 11
635.97425
 21
1264.3789
  0
LINE
  8
0-2
  6
CONTINUOUS
 62
    3
 10
635.97425
 20
1264.3789
 11
637.05878
 21
1265.1329
  0
LINE
  8
0-2
  6
CONTINUOUS
 62
    3
 10
637.05878
 20
1265.1329
 11
637.99559
 21
1265.9211
  0
LINE
  8
0-2
  6
CONTINUOUS
 62
    3
 10
637.99559
 20
1265.9211
 11
638.78467
 21
1266.7442
  0
LINE
  8
0-2
  6
CONTINUOUS
 62
    3
 10
638.78467
 20
1266.7442
 11
639.42633
 21
1267.601
  0
LINE
  8
0-2
  6
CONTINUOUS
 62
    3
 10
639.42633
 20
1267.601
 11
639.91998
 21
1268.4924
  0
LINE
  8
0-2
  6
CONTINUOUS
 62
    3
 10
639.91998
 20
1268.4924
 11
640.26619
 21
1269.4176
  0
LINE
  8
0-2
  6
CONTINUOUS
 62
    3
 10
640.26619
 20
1269.4176
 11
640.46454
 21
1270.3776
  0
LINE
  8
0-2
  6
CONTINUOUS
 62
    3
 10
640.46573
 20
1246.0123
 11
640.46573
 21
1255.3594
  0
LINE
  8
0-2
  6
CONTINUOUS
 62
    3
 10
692.79836
 20
1280.7931
 11
684.86341
 21
1298.2822
  0
LINE
  8
0-2
  6
CONTINUOUS
 62
    3
 10
662.24835
 20
1185.7961
 11
630.00066
 21
1185.7961
  0
LINE
  8
0-2
  6
CONTINUOUS
 62
    3
 10
667.63908
 20
1191.1866
 11
667.63908
 21
1204.2323
  0
LINE
  8
0-2
  6
CONTINUOUS
 62
    3
 10
659.55329
 20
1180.9489
 11
630.00066
 21
1180.9489
  0
LINE
  8
0-2
  6
CONTINUOUS
 62
    3
 10
662.24835
 20
1183.6444
 11
662.24835
 21
1185.7961
  0
LINE
  8
0-2
  6
CONTINUOUS
 62
    3
 10
667.63908
 20
1230.5691
 11
667.63908
 21
1213.2195
  0
LINE
  8
0-2
  6
CONTINUOUS
 62
    3
 10
660.98418
 20
1237.224
 11
630.00066
 21
1237.224
  0
LINE
  8
0-2
  6
CONTINUOUS
 62
    3
 10
629.99992
 20
1354.4738
 11
837.50107
 21
1354.4738
  0
LINE
  8
0-2
  6
CONTINUOUS
 62
    3
 10
629.99992
 20
1341.474
 11
837.50211
 21
1341.474
  0
LINE
  8
0-2
  6
CONTINUOUS
 62
    3
 10
792.67774
 20
1449.474
 11
629.99992
 21
1366.5856
  0
LINE
  8
0-2
  6
CONTINUOUS
 62
    3
 10
837.50003
 20
1302.7231
 11
955.00103
 21
1302.7231
  0
LINE
  8
0-2
  6
CONTINUOUS
 62
    3
 10
837.50003
 20
1289.7233
 11
955.00103
 21
1289.7233
  0
LINE
  8
0-2
  6
CONTINUOUS
 62
    3
 10
837.50003
 20
1267.4736
 11
955.00103
 21
1267.4736
  0
LINE
  8
0-2
  6
CONTINUOUS
 62
    3
 10
837.50003
 20
1254.4741
 11
955.00103
 21
1254.4741
  0
LINE
  8
0-2
  6
CONTINUOUS
 62
    3
 10
304.99984
 20
1302.7231
 11
629.99992
 21
1302.7231
  0
LINE
  8
0-2
  6
CONTINUOUS
 62
    3
 10
304.99984
 20
1289.7233
 11
629.99992
 21
1289.7233
  0
LINE
  8
0-2
  6
CONTINUOUS
 62
    3
 10
304.99984
 20
1267.4736
 11
629.99992
 21
1267.4736
  0
LINE
  8
0-2
  6
CONTINUOUS
 62
    3
 10
304.99984
 20
1254.4741
 11
629.99992
 21
1254.4741
  0
LINE
  8
0-2
  6
CONTINUOUS
 62
    3
 10
837.50003
 20
1209.4741
 11
837.50003
 21
1178.6525
  0
LINE
  8
0-2
  6
CONTINUOUS
 62
    3
 10
837.50003
 20
1341.474
 11
837.50003
 21
1222.4738
  0
LINE
  8
0-2
  6
CONTINUOUS
 62
    3
 10
780.35969
 20
1222.4738
 11
837.50107
 21
1222.4738
  0
LINE
  8
0-2
  6
CONTINUOUS
 62
    3
 10
422.49995
 20
1222.4738
 11
629.99992
 21
1222.4738
  0
LINE
  8
0-2
  6
CONTINUOUS
 62
    3
 10
422.49995
 20
1209.4741
 11
629.99992
 21
1209.4741
  0
LINE
  8
0-2
  6
CONTINUOUS
 62
    3
 10
680.42909
 20
1209.4741
 11
837.50107
 21
1209.4741
  0
LINE
  8
0-2
  6
CONTINUOUS
 62
    3
 10
289.95391
 20
1411.0017
 11
629.99992
 21
1489.474
  0
LINE
  8
0-2
  6
CONTINUOUS
 62
    3
 10
969.33404
 20
1411.1659
 11
629.99992
 21
1489.474
  0
LINE
  8
0-2
  6
CONTINUOUS
 62
    3
 10
629.99992
 20
1449.474
 11
792.67774
 21
1449.474
  0
LINE
  8
0-2
  6
CONTINUOUS
 62
    3
 10
304.99984
 20
1414.4739
 11
629.64375
 21
1414.4739
  0
LINE
  8
0-8
  6
CONTINUOUS
 62
    7
 10
1089.5036
 20
1059.4741
 11
1089.5036
 21
1119.474
  0
LINE
  8
0-8
  6
CONTINUOUS
 62
    7
 10
982.70262
 20
1059.4741
 11
1089.5036
 21
1059.4741
  0
LINE
  8
0-8
  6
CONTINUOUS
 62
    7
 10
982.70262
 20
1119.474
 11
1089.5036
 21
1119.474
  0
LINE
  8
0-8
  6
CONTINUOUS
 62
    7
 10
1089.5036
 20
1119.474
 11
1089.5036
 21
1254.4741
  0
LINE
  8
0-8
  6
CONTINUOUS
 62
    7
 10
982.70262
 20
1254.4741
 11
1089.5036
 21
1254.4741
  0
LINE
  8
0-8
  6
CONTINUOUS
 62
    7
 10
1089.5036
 20
1254.4741
 11
1089.5036
 21
1414.4745
  0
LINE
  8
0-8
  6
CONTINUOUS
 62
    7
 10
982.70262
 20
1414.4745
 11
1089.5036
 21
1414.4745
  0
LINE
  8
0-8
  6
CONTINUOUS
 62
    7
 10
1089.5036
 20
1414.4745
 11
1089.5036
 21
1489.474
  0
LINE
  8
0-8
  6
CONTINUOUS
 62
    7
 10
982.70262
 20
1489.474
 11
1089.5036
 21
1489.474
  0
LINE
  8
0-8
  6
CONTINUOUS
 62
    7
 10
911.4879
 20
1119.474
 11
911.4879
 21
1354.4738
  0
LINE
  8
0-8
  6
CONTINUOUS
 62
    7
 10
856.16328
 20
1119.474
 11
911.4879
 21
1119.474
  0
LINE
  8
0-8
  6
CONTINUOUS
 62
    7
 10
856.16328
 20
1354.4738
 11
911.4879
 21
1354.4738
  0
LINE
  8
0-2
  6
CONTINUOUS
 62
    3
 10
723.98632
 20
1414.4739
 11
955
 21
1414.4739
  0
LINE
  8
0-2
  6
CENTER2
 62
    7
 10
629.99992
 20
1489.474
 11
629.99992
 21
1059.4739
  0
LINE
  8
0-2
  6
CENTER2
 62
    7
 10
629.99992
 20
1489.474
 11
629.99992
 21
1059.4741
  0
LINE
  8
0-2
  6
CONTINUOUS
 62
    3
 10
837.50003
 20
1119.474
 11
837.50003
 21
1209.4741
  0
LINE
  8
0-2
  6
CONTINUOUS
 62
    3
 10
939.99995
 20
1119.474
 11
837.50003
 21
1178.6524
  0
ARC
  8
0-2
  6
CONTINUOUS
 62
    3
 10
422.49995
 20
1215.9739
 40
6.4996993
 50
90
 51
270
  0
ARC
  8
0-2
  6
CONTINUOUS
 62
    3
 10
837.50003
 20
1215.9739
 40
6.4996993
 50
270
 51
90
  0
ARC
  8
0-2
  6
CONTINUOUS
 62
    3
 10
304.99984
 20
1296.2233
 40
6.4996993
 50
90
 51
270
  0
ARC
  8
0-2
  6
CONTINUOUS
 62
    3
 10
304.99984
 20
1260.9739
 40
6.4996993
 50
90
 51
270
  0
ARC
  8
0-2
  6
CONTINUOUS
 62
    3
 10
955
 20
1296.2233
 40
6.4996993
 50
270
 51
90
  0
ARC
  8
0-2
  6
CONTINUOUS
 62
    3
 10
955
 20
1260.9739
 40
6.4996993
 50
270
 51
90
  0
ARC
  8
0-2
  6
CONTINUOUS
 62
    3
 10
636.43627
 20
1246.0123
 40
4.0294089
 50
270
 51
0
  0
ARC
  8
0-2
  6
CONTINUOUS
 62
    3
 10
636.43627
 20
1299.8646
 40
4.0294089
 50
0
 51
90
  0
ARC
  8
0-2
  6
CONTINUOUS
 62
    3
 10
662.24835
 20
1191.1866
 40
5.3905493
 50
270
 51
0
  0
ARC
  8
0-2
  6
CONTINUOUS
 62
    3
 10
659.55329
 20
1183.6444
 40
2.6952746
 50
270
 51
0
  0
ARC
  8
0-2
  6
CONTINUOUS
 62
    3
 10
837.50107
 20
1347.974
 40
6.4996993
 50
270
 51
90
  0
TEXT
  8
0-d
 10
152.99987
 20
94.49993
 40
15
 41
1
 50
0.0000305
  1
図
  0
TEXT
  8
0-d
 10
152.99987
 20
58.499969
 40
15
 41
1
 50
0
  1
番
  0
TEXT
  8
0-d
 10
393.00025
 20
94.49993
 40
15
 41
1
 50
0.0000305
  1
承
  0
TEXT
  8
0-d
 10
393.00025
 20
58.499969
 40
15
 41
1
 50
0
  1
認
  0
TEXT
  8
0-d
 10
612.00015
 20
142.49994
 40
15
 41
1
 50
0
  1
尺
  0
TEXT
  8
0-d
 10
612.00015
 20
118.49985
 40
15
 41
1
 50
0.0000762
  1
度
  0
TEXT
  8
0-d
 10
513.00005
 20
94.49993
 40
15
 41
1
 50
0.0000305
  1
製
  0
TEXT
  8
0-d
 10
513.00005
 20
58.499969
 40
15
 41
1
 50
0
  1
図
  0
TEXT
  8
0-d
 10
933.00002
 20
142.49994
 40
15
 41
1
 50
0
  1
日
  0
TEXT
  8
0-d
 10
933.00002
 20
118.49985
 40
15
 41
1
 50
0.0000762
  1
付
  0
TEXT
  8
0-d
 10
666.85578
 20
98.089351
 40
12
 41
1
 50
0
  1
株式
  0
TEXT
  8
0-d
 10
666.85578
 20
85.111074
 40
12
 41
1
 50
0.0000152
  1
会社
  0
TEXT
  8
0-d
 10
704.5348
 20
85.948271
 40
24
 41
1
 50
0
  1
スズキベンチレーター
  0
TEXT
  8
0-d
 10
742.75089
 20
56.414506
 40
12
 41
1
 50
0
  1
TEL(054)296-7000  FAX(054)296-7001
  0
TEXT
  8
0-d
 10
650.60938
 20
126.06037
 40
24
 41
1
 50
0.0000152
  1
１／６
  0
TEXT
  8
0-8
 10
612.37502
 20
1594.4181
 40
18
 41
1
 50
0
  1
650
  0
TEXT
  8
0-8
 10
1083.5036
 20
1081.2241
 40
18
 41
1
 50
90
  1
60
  0
TEXT
  8
0-8
 10
1083.5036
 20
1174.224
 40
18
 41
1
 50
90
  1
135
  0
TEXT
  8
0-8
 10
1083.5036
 20
1321.7242
 40
18
 41
1
 50
90
  1
160
  0
TEXT
  8
0-8
 10
1083.5036
 20
1443.7243
 40
18
 41
1
 50
90
  1
75
  0
TEXT
  8
0-8
 10
600.99987
 20
947.9346
 40
18
 41
1
 50
0
  1
620*620
  0
TEXT
  8
0-8
 10
905.48788
 20
1224.2239
 40
18
 41
1
 50
90
  1
230
  0
TEXT
  8
0-8
 10
144.00039
 20
1261.7241
 40
18
 41
1
 50
90
  1
430
  0
TEXT
  8
0-d
 10
152.99998
 20
1669.6207
 40
30
 41
1
 50
0
  1
ＳＴ－４０　架台型　断面
  0
TEXT
  8
0-d
 10
169.70144
 20
125.58896
 40
30
 41
1
 50
0
  1
ＳＴ－４０　架台型 断面
  0
TEXT
  8
0-d
 10
185.07555
 20
84.181281
 40
18
 41
1
 50
0
  1
40-B03b
  0
TEXT
  8
0-d
 10
741.40752
 20
71.187554
 40
12
 41
1
 50
0
  1
〒421-2114　静岡市葵区安倍口新田１５２番地
  0
POINT
  8
0-8
 62
    2
 10
150.00041
 20
1489.474
  0
POINT
  8
0-8
 62
    2
 10
304.99984
 20
1574.9174
  0
POINT
  8
0-8
 62
    2
 10
955.00103
 20
1574.9174
  0
POINT
  8
0-8
 62
    2
 10
320.00003
 20
934.93451
  0
POINT
  8
0-8
 62
    2
 10
939.99995
 20
934.93451
  0
POINT
  8
0-8
 62
    2
 10
150.00041
 20
1059.4741
  0
POINT
  8
0-8
 62
    2
 10
1089.5036
 20
1059.4741
  0
POINT
  8
0-8
 62
    2
 10
1089.5036
 20
1119.474
  0
POINT
  8
0-8
 62
    2
 10
1089.5036
 20
1254.4741
  0
POINT
  8
0-8
 62
    2
 10
1089.5036
 20
1414.4745
  0
POINT
  8
0-8
 62
    2
 10
1089.5036
 20
1489.474
  0
POINT
  8
0-8
 62
    2
 10
911.4879
 20
1119.474
  0
POINT
  8
0-8
 62
    2
 10
911.4879
 20
1354.4738
  0
ENDSEC
  0
EOF
