  0
SECTION
  2
HEADER
  9
$EXTMIN
 10
0
 20
0
  9
$EXTMAX
 10
2520
 20
1782
  0
ENDSEC
  0
SECTION
  2
TABLES
  0
TABLE
  2
LTYPE
 70
     9
  0
LTYPE
  2
CONTINUOUS
 70
    64
  3
実線
 72
    65
 73
     0
 40
0.0
  0
LTYPE
  2
DASHED1
 70
    64
  3
--  --  --  --  --  --  --  --  
 72
    65
 73
     2
 40
2.5
 49
1.25
 49
-1.25
  0
LTYPE
  2
DASHED2
 70
    64
  3
----    ----    ----    ----    
 72
    65
 73
     2
 40
5.0
 49
2.5
 49
-2.5
  0
LTYPE
  2
DASHED3
 70
    64
  3
------  ------  ------  ------  
 72
    65
 73
     2
 40
5.0
 49
3.75
 49
-1.25
  0
LTYPE
  2
CENTER1
 70
    64
  3
----- - ----- - ----- - ----- - 
 72
    65
 73
     4
 40
10.0
 49
6.25
 49
-1.25
 49
1.25
 49
-1.25
  0
LTYPE
  2
CENTER2
 70
    64
  3
----------  --  ----------  --  
 72
    65
 73
     4
 40
20.0
 49
12.5
 49
-2.5
 49
2.5
 49
-2.5
  0
LTYPE
  2
PHANTOM1
 70
    64
  3
--- - - --- - - --- - - --- - - 
 72
    65
 73
     6
 40
10.0
 49
3.25
 49
-1.25
 49
1.25
 49
-1.25
 49
1.25
 49
-1.25
  0
LTYPE
  2
PHANTOM2
 70
    64
  3
--------  -  -  --------  -  -  
 72
    65
 73
     6
 40
20.0
 49
10.0
 49
-2.5
 49
1.25
 49
-2.5
 49
1.25
 49
-2.5
  0
LTYPE
  2
DOT
 70
    64
  3
-   -   -   -   -   -   -   -   
 72
    65
 73
     2
 40
2.5
 49
0.625
 49
-1.875
  0
ENDTAB
  0
TABLE
  2
STYLE
 70
    1
  0
STYLE
  2
STANDARD
 70
    64
 40
0.0
 41
1.0
 42
0.0
 50
0.0
 71
     0
  3
TXT
  4
BIGFONT
  0
ENDTAB
  0
TABLE
  2
LAYER
 70
    4
  0
LAYER
  2
0-2
 70
   64
 62
    7
  6
CONTINUOUS
  0
LAYER
  2
0-8
 70
   64
 62
    7
  6
CONTINUOUS
  0
LAYER
  2
0-d
 70
   64
 62
    7
  6
CONTINUOUS
  0
LAYER
  2
ADD_LINE
 70
   64
 62
    7
  6
CONTINUOUS
  0
ENDTAB
  0
ENDSEC
  0
SECTION
  2
ENTITIES
  0
LINE
  8
0-d
  6
CONTINUOUS
 62
    7
 10
149.99978
 20
113.99992
 11
1110.0001
 21
113.99992
  0
LINE
  8
0-d
  6
CONTINUOUS
 62
    7
 10
149.99978
 20
53.99988
 11
149.99978
 21
161.99993
  0
LINE
  8
0-d
  6
CONTINUOUS
 62
    7
 10
149.99978
 20
53.99988
 11
1110.0001
 21
53.99988
  0
LINE
  8
0-d
  6
CONTINUOUS
 62
    7
 10
1110.0001
 20
161.99993
 11
1110.0001
 21
53.99988
  0
LINE
  8
0-d
  6
CONTINUOUS
 62
    7
 10
149.99978
 20
161.99993
 11
1110.0001
 21
161.99993
  0
LINE
  8
0-d
  6
CONTINUOUS
 62
    7
 10
629.99999
 20
161.99993
 11
629.99999
 21
53.99988
  0
LINE
  8
0-d
  6
CONTINUOUS
 62
    7
 10
390.00009
 20
53.99988
 11
390.00009
 21
113.99992
  0
LINE
  8
0-d
  6
CONTINUOUS
 62
    7
 10
629.99999
 20
113.99992
 11
629.99999
 21
161.99993
  0
LINE
  8
0-d
  6
CONTINUOUS
 62
    7
 10
509.99982
 20
53.99988
 11
509.99982
 21
113.99992
  0
LINE
  8
0-d
  6
CONTINUOUS
 62
    7
 10
171
 20
53.99988
 11
171
 21
113.99992
  0
LINE
  8
0-d
  6
CONTINUOUS
 62
    7
 10
411.00001
 20
53.99988
 11
411.00001
 21
113.99992
  0
LINE
  8
0-d
  6
CONTINUOUS
 62
    7
 10
531.00004
 20
53.99988
 11
531.00004
 21
113.99992
  0
LINE
  8
0-d
  6
CONTINUOUS
 62
    7
 10
609
 20
113.99992
 11
609
 21
161.99993
  0
LINE
  8
0-d
  6
CONTINUOUS
 62
    7
 10
930.00016
 20
113.99992
 11
930.00016
 21
161.99993
  0
LINE
  8
0-d
  6
CONTINUOUS
 62
    7
 10
951.00008
 20
113.99992
 11
951.00008
 21
161.99993
  0
LINE
  8
0-d
  6
CONTINUOUS
 62
    7
 10
149.99997
 20
1654.6207
 11
1109.9999
 21
1654.6207
  0
LINE
  8
0-d
  6
CONTINUOUS
 62
    7
 10
149.99997
 20
1660.6207
 11
1109.9999
 21
1660.6207
  0
LINE
  8
0-2
  6
CONTINUOUS
 62
    3
 10
289.95391
 20
1378.8576
 11
629.99992
 21
1457.3298
  0
LINE
  8
0-2
  6
CONTINUOUS
 62
    3
 10
969.33404
 20
1379.0217
 11
629.99992
 21
1457.3298
  0
LINE
  8
0-8
  6
CONTINUOUS
 62
    7
 10
150.00041
 20
1072.3294
 11
150.00041
 21
1457.3298
  0
LINE
  8
0-8
  6
CONTINUOUS
 62
    7
 10
262.75132
 20
1072.3294
 11
150.00041
 21
1072.3294
  0
LINE
  8
0-8
  6
CONTINUOUS
 62
    7
 10
304.99984
 20
1542.7733
 11
955.00103
 21
1542.7733
  0
LINE
  8
0-8
  6
CONTINUOUS
 62
    7
 10
422.49995
 20
1002.79
 11
837.50003
 21
1002.79
  0
LINE
  8
0-2
  6
CONTINUOUS
 62
    3
 10
304.99984
 20
1382.3299
 11
304.99984
 21
1270.5789
  0
LINE
  8
0-2
  6
CONTINUOUS
 62
    3
 10
304.99984
 20
1257.5791
 11
304.99984
 21
1235.3293
  0
LINE
  8
0-2
  6
CONTINUOUS
 62
    3
 10
955
 20
1382.3299
 11
955.00103
 21
1270.5789
  0
LINE
  8
0-2
  6
CONTINUOUS
 62
    3
 10
422.49995
 20
1130.8295
 11
837.50107
 21
1130.8295
  0
LINE
  8
0-2
  6
CONTINUOUS
 62
    3
 10
422.49995
 20
1143.8291
 11
837.50107
 21
1143.8291
  0
LINE
  8
0-2
  6
CONTINUOUS
 62
    3
 10
422.49995
 20
1085.3293
 11
837.50107
 21
1085.3293
  0
LINE
  8
0-2
  6
CONTINUOUS
 62
    3
 10
422.49995
 20
1072.3296
 11
837.50107
 21
1072.3296
  0
LINE
  8
0-2
  6
CONTINUOUS
 62
    3
 10
422.49995
 20
1130.8295
 11
422.49995
 21
1085.3292
  0
LINE
  8
0-2
  6
CONTINUOUS
 62
    3
 10
837.50003
 20
1130.8295
 11
837.50003
 21
1085.3292
  0
LINE
  8
0-2
  6
CONTINUOUS
 62
    3
 10
422.49995
 20
1222.3298
 11
422.49995
 21
1143.8291
  0
LINE
  8
0-8
  6
CONTINUOUS
 62
    7
 10
304.99984
 20
1420.6451
 11
304.99984
 21
1542.7733
  0
LINE
  8
0-8
  6
CONTINUOUS
 62
    7
 10
370.06785
 20
1457.3298
 11
150.00041
 21
1457.3298
  0
LINE
  8
0-8
  6
CONTINUOUS
 62
    7
 10
955.00103
 20
1420.6451
 11
955.00103
 21
1542.7733
  0
LINE
  8
0-2
  6
CONTINUOUS
 62
    3
 10
837.50003
 20
1130.8295
 11
837.50003
 21
1085.3292
  0
LINE
  8
0-8
  6
CONTINUOUS
 62
    7
 10
422.49995
 20
1056.5482
 11
422.49995
 21
1002.79
  0
LINE
  8
0-8
  6
CONTINUOUS
 62
    7
 10
837.50003
 20
1056.5482
 11
837.50003
 21
1002.79
  0
LINE
  8
0-2
  6
CONTINUOUS
 62
    3
 10
644.76227
 20
1258.8795
 11
648.64728
 21
1261.2671
  0
LINE
  8
0-2
  6
CONTINUOUS
 62
    3
 10
648.64728
 20
1261.2671
 11
652.51387
 21
1263.7022
  0
LINE
  8
0-2
  6
CONTINUOUS
 62
    3
 10
652.51387
 20
1263.7022
 11
656.34409
 21
1266.2284
  0
LINE
  8
0-2
  6
CONTINUOUS
 62
    3
 10
656.34409
 20
1266.2284
 11
660.09473
 21
1268.8953
  0
LINE
  8
0-2
  6
CONTINUOUS
 62
    3
 10
660.09473
 20
1268.8953
 11
663.69795
 21
1271.7564
  0
LINE
  8
0-2
  6
CONTINUOUS
 62
    3
 10
663.69795
 20
1271.7564
 11
667.07788
 21
1274.8579
  0
LINE
  8
0-2
  6
CONTINUOUS
 62
    3
 10
667.07788
 20
1274.8579
 11
670.16059
 21
1278.2561
  0
LINE
  8
0-2
  6
CONTINUOUS
 62
    3
 10
670.16059
 20
1278.2561
 11
672.87243
 21
1281.998
  0
LINE
  8
0-2
  6
CONTINUOUS
 62
    3
 10
672.87243
 20
1281.998
 11
675.23775
 21
1286.0457
  0
LINE
  8
0-2
  6
CONTINUOUS
 62
    3
 10
675.23775
 20
1286.0457
 11
677.47258
 21
1290.1792
  0
LINE
  8
0-2
  6
CONTINUOUS
 62
    3
 10
677.47258
 20
1290.1792
 11
679.80376
 21
1294.1649
  0
LINE
  8
0-2
  6
CONTINUOUS
 62
    3
 10
679.80376
 20
1294.1649
 11
682.47121
 21
1297.7696
  0
LINE
  8
0-2
  6
CONTINUOUS
 62
    3
 10
682.47121
 20
1297.7696
 11
685.69971
 21
1300.7583
  0
LINE
  8
0-2
  6
CONTINUOUS
 62
    3
 10
685.69971
 20
1300.7583
 11
689.56111
 21
1303.0695
  0
LINE
  8
0-2
  6
CONTINUOUS
 62
    3
 10
689.56111
 20
1303.0695
 11
693.81964
 21
1304.9573
  0
LINE
  8
0-2
  6
CONTINUOUS
 62
    3
 10
693.81964
 20
1304.9573
 11
695.83593
 21
1305.7629
  0
LINE
  8
0-2
  6
CONTINUOUS
 62
    3
 10
693.81964
 20
1304.9573
 11
696.62413
 21
1305.403
  0
LINE
  8
0-2
  6
CONTINUOUS
 62
    3
 10
696.62413
 20
1305.403
 11
699.4537
 21
1305.7907
  0
LINE
  8
0-2
  6
CONTINUOUS
 62
    3
 10
699.4537
 20
1305.7907
 11
702.33004
 21
1306.0681
  0
LINE
  8
0-2
  6
CONTINUOUS
 62
    3
 10
702.33004
 20
1306.0681
 11
705.2769
 21
1306.1735
  0
LINE
  8
0-2
  6
CONTINUOUS
 62
    3
 10
705.2769
 20
1306.1735
 11
708.31373
 21
1306.0546
  0
LINE
  8
0-2
  6
CONTINUOUS
 62
    3
 10
708.31373
 20
1306.0546
 11
711.35204
 21
1305.6119
  0
LINE
  8
0-2
  6
CONTINUOUS
 62
    3
 10
711.35204
 20
1305.6119
 11
714.18666
 21
1304.7236
  0
LINE
  8
0-2
  6
CONTINUOUS
 62
    3
 10
714.18666
 20
1304.7236
 11
716.60262
 21
1303.2521
  0
LINE
  8
0-2
  6
CONTINUOUS
 62
    3
 10
716.60262
 20
1303.2521
 11
718.42649
 21
1301.1016
  0
LINE
  8
0-2
  6
CONTINUOUS
 62
    3
 10
718.42649
 20
1301.1016
 11
719.84818
 21
1298.5193
  0
LINE
  8
0-2
  6
CONTINUOUS
 62
    3
 10
643.2371
 20
1248.2079
 11
647.7896
 21
1248.8836
  0
LINE
  8
0-2
  6
CONTINUOUS
 62
    3
 10
647.7896
 20
1248.8836
 11
652.31434
 21
1249.6486
  0
LINE
  8
0-2
  6
CONTINUOUS
 62
    3
 10
652.31434
 20
1249.6486
 11
656.78904
 21
1250.583
  0
LINE
  8
0-2
  6
CONTINUOUS
 62
    3
 10
656.78904
 20
1250.583
 11
661.18342
 21
1251.7789
  0
LINE
  8
0-2
  6
CONTINUOUS
 62
    3
 10
661.18342
 20
1251.7789
 11
665.47492
 21
1253.3185
  0
LINE
  8
0-2
  6
CONTINUOUS
 62
    3
 10
665.47492
 20
1253.3185
 11
669.63888
 21
1255.223
  0
LINE
  8
0-2
  6
CONTINUOUS
 62
    3
 10
669.63888
 20
1255.223
 11
673.65795
 21
1257.455
  0
LINE
  8
0-2
  6
CONTINUOUS
 62
    3
 10
673.65795
 20
1257.455
 11
677.50999
 21
1259.9894
  0
LINE
  8
0-2
  6
CONTINUOUS
 62
    3
 10
677.50999
 20
1259.9894
 11
681.17676
 21
1262.7811
  0
LINE
  8
0-2
  6
CONTINUOUS
 62
    3
 10
681.17676
 20
1262.7811
 11
684.64057
 21
1265.8027
  0
LINE
  8
0-2
  6
CONTINUOUS
 62
    3
 10
684.64057
 20
1265.8027
 11
687.928
 21
1268.9997
  0
LINE
  8
0-2
  6
CONTINUOUS
 62
    3
 10
687.928
 20
1268.9997
 11
691.10558
 21
1272.2991
  0
LINE
  8
0-2
  6
CONTINUOUS
 62
    3
 10
691.10558
 20
1272.2991
 11
694.24262
 21
1275.6292
  0
LINE
  8
0-2
  6
CONTINUOUS
 62
    3
 10
694.24262
 20
1275.6292
 11
697.40609
 21
1278.9144
  0
LINE
  8
0-2
  6
CONTINUOUS
 62
    3
 10
697.40609
 20
1278.9144
 11
700.66784
 21
1282.0845
  0
LINE
  8
0-2
  6
CONTINUOUS
 62
    3
 10
700.66784
 20
1282.0845
 11
704.09052
 21
1285.0759
  0
LINE
  8
0-2
  6
CONTINUOUS
 62
    3
 10
704.09052
 20
1285.0759
 11
707.66954
 21
1287.8868
  0
LINE
  8
0-2
  6
CONTINUOUS
 62
    3
 10
707.66954
 20
1287.8868
 11
711.37594
 21
1290.5595
  0
LINE
  8
0-2
  6
CONTINUOUS
 62
    3
 10
711.37594
 20
1290.5595
 11
715.17068
 21
1293.1282
  0
LINE
  8
0-2
  6
CONTINUOUS
 62
    3
 10
715.17068
 20
1293.1282
 11
719.0254
 21
1295.6325
  0
LINE
  8
0-2
  6
CONTINUOUS
 62
    3
 10
719.0254
 20
1295.6325
 11
721.75431
 21
1297.3766
  0
LINE
  8
0-2
  6
CONTINUOUS
 62
    3
 10
721.75431
 20
1297.3766
 11
726.01255
 21
1299.1429
  0
LINE
  8
0-2
  6
CONTINUOUS
 62
    3
 10
726.01255
 20
1299.1429
 11
730.29485
 21
1300.7917
  0
LINE
  8
0-2
  6
CONTINUOUS
 62
    3
 10
730.29485
 20
1300.7917
 11
734.62806
 21
1302.2075
  0
LINE
  8
0-2
  6
CONTINUOUS
 62
    3
 10
734.62806
 20
1302.2075
 11
739.03714
 21
1303.2743
  0
LINE
  8
0-2
  6
CONTINUOUS
 62
    3
 10
739.03714
 20
1303.2743
 11
743.53263
 21
1303.9276
  0
LINE
  8
0-2
  6
CONTINUOUS
 62
    3
 10
743.53263
 20
1303.9276
 11
748.0927
 21
1304.2147
  0
LINE
  8
0-2
  6
CONTINUOUS
 62
    3
 10
748.0927
 20
1304.2147
 11
752.69107
 21
1304.1979
  0
LINE
  8
0-2
  6
CONTINUOUS
 62
    3
 10
752.69107
 20
1304.1979
 11
757.30295
 21
1303.9392
  0
LINE
  8
0-2
  6
CONTINUOUS
 62
    3
 10
757.30295
 20
1303.9392
 11
761.90682
 21
1303.5022
  0
LINE
  8
0-2
  6
CONTINUOUS
 62
    3
 10
761.90682
 20
1303.5022
 11
766.47505
 21
1302.9406
  0
LINE
  8
0-2
  6
CONTINUOUS
 62
    3
 10
766.47505
 20
1302.9406
 11
771.00335
 21
1302.2416
  0
LINE
  8
0-2
  6
CONTINUOUS
 62
    3
 10
771.00335
 20
1302.2416
 11
775.49275
 21
1301.3911
  0
LINE
  8
0-2
  6
CONTINUOUS
 62
    3
 10
775.49275
 20
1301.3911
 11
779.93702
 21
1300.3591
  0
LINE
  8
0-2
  6
CONTINUOUS
 62
    3
 10
779.93702
 20
1300.3591
 11
784.33882
 21
1299.1286
  0
LINE
  8
0-2
  6
CONTINUOUS
 62
    3
 10
784.33882
 20
1299.1286
 11
788.69609
 21
1297.6715
  0
LINE
  8
0-2
  6
CONTINUOUS
 62
    3
 10
788.69609
 20
1297.6715
 11
792.99159
 21
1295.9672
  0
LINE
  8
0-2
  6
CONTINUOUS
 62
    3
 10
792.99159
 20
1295.9672
 11
797.18496
 21
1293.9971
  0
LINE
  8
0-2
  6
CONTINUOUS
 62
    3
 10
797.18496
 20
1293.9971
 11
801.21516
 21
1291.7488
  0
LINE
  8
0-2
  6
CONTINUOUS
 62
    3
 10
801.21516
 20
1291.7488
 11
805.02979
 21
1289.2016
  0
LINE
  8
0-2
  6
CONTINUOUS
 62
    3
 10
805.02979
 20
1289.2016
 11
808.57347
 21
1286.3362
  0
LINE
  8
0-2
  6
CONTINUOUS
 62
    3
 10
808.57347
 20
1286.3362
 11
811.79722
 21
1283.1447
  0
LINE
  8
0-2
  6
CONTINUOUS
 62
    3
 10
811.79722
 20
1283.1447
 11
814.74259
 21
1279.6738
  0
LINE
  8
0-2
  6
CONTINUOUS
 62
    3
 10
814.74259
 20
1279.6738
 11
817.48279
 21
1276.0006
  0
LINE
  8
0-2
  6
CONTINUOUS
 62
    3
 10
817.48279
 20
1276.0006
 11
820.09546
 21
1272.2026
  0
LINE
  8
0-2
  6
CONTINUOUS
 62
    3
 10
820.09546
 20
1272.2026
 11
821.6138
 21
1269.9344
  0
LINE
  8
0-2
  6
CONTINUOUS
 62
    3
 10
820.09546
 20
1272.2026
 11
822.13847
 21
1267.9723
  0
LINE
  8
0-2
  6
CONTINUOUS
 62
    3
 10
822.13847
 20
1267.9723
 11
824.07251
 21
1263.723
  0
LINE
  8
0-2
  6
CONTINUOUS
 62
    3
 10
824.07251
 20
1263.723
 11
825.79335
 21
1259.4441
  0
LINE
  8
0-2
  6
CONTINUOUS
 62
    3
 10
825.79335
 20
1259.4441
 11
827.19114
 21
1255.1118
  0
LINE
  8
0-2
  6
CONTINUOUS
 62
    3
 10
827.19114
 20
1255.1118
 11
828.15928
 21
1250.7147
  0
LINE
  8
0-2
  6
CONTINUOUS
 62
    3
 10
828.15928
 20
1250.7147
 11
828.59472
 21
1246.2347
  0
LINE
  8
0-2
  6
CONTINUOUS
 62
    3
 10
828.59472
 20
1246.2347
 11
828.46986
 21
1241.6909
  0
LINE
  8
0-2
  6
CONTINUOUS
 62
    3
 10
828.46986
 20
1241.6909
 11
827.86071
 21
1237.1269
  0
LINE
  8
0-2
  6
CONTINUOUS
 62
    3
 10
827.86071
 20
1237.1269
 11
826.84582
 21
1232.5954
  0
LINE
  8
0-2
  6
CONTINUOUS
 62
    3
 10
826.84582
 20
1232.5954
 11
825.49494
 21
1228.1489
  0
LINE
  8
0-2
  6
CONTINUOUS
 62
    3
 10
825.49494
 20
1228.1489
 11
823.83066
 21
1223.8483
  0
LINE
  8
0-2
  6
CONTINUOUS
 62
    3
 10
823.83066
 20
1223.8483
 11
821.80769
 21
1219.7544
  0
LINE
  8
0-2
  6
CONTINUOUS
 62
    3
 10
821.80769
 20
1219.7544
 11
819.37734
 21
1215.9308
  0
LINE
  8
0-2
  6
CONTINUOUS
 62
    3
 10
819.37734
 20
1215.9308
 11
816.54539
 21
1212.4002
  0
LINE
  8
0-2
  6
CONTINUOUS
 62
    3
 10
816.54539
 20
1212.4002
 11
813.39751
 21
1209.0967
  0
LINE
  8
0-2
  6
CONTINUOUS
 62
    3
 10
813.39751
 20
1209.0967
 11
810.03258
 21
1205.952
  0
LINE
  8
0-2
  6
CONTINUOUS
 62
    3
 10
810.03258
 20
1205.952
 11
806.54486
 21
1202.8987
  0
LINE
  8
0-2
  6
CONTINUOUS
 62
    3
 10
806.54486
 20
1202.8987
 11
805.60479
 21
1202.0908
  0
LINE
  8
0-2
  6
CONTINUOUS
 62
    3
 10
806.54486
 20
1202.8987
 11
802.54213
 21
1200.6548
  0
LINE
  8
0-2
  6
CONTINUOUS
 62
    3
 10
802.54213
 20
1200.6548
 11
798.5241
 21
1198.4521
  0
LINE
  8
0-2
  6
CONTINUOUS
 62
    3
 10
798.5241
 20
1198.4521
 11
794.47282
 21
1196.3297
  0
LINE
  8
0-2
  6
CONTINUOUS
 62
    3
 10
794.47282
 20
1196.3297
 11
790.36586
 21
1194.3275
  0
LINE
  8
0-2
  6
CONTINUOUS
 62
    3
 10
790.36586
 20
1194.3275
 11
786.19328
 21
1192.4854
  0
LINE
  8
0-2
  6
CONTINUOUS
 62
    3
 10
786.19328
 20
1192.4854
 11
781.93148
 21
1190.8426
  0
LINE
  8
0-2
  6
CONTINUOUS
 62
    3
 10
781.93148
 20
1190.8426
 11
777.57985
 21
1189.4228
  0
LINE
  8
0-2
  6
CONTINUOUS
 62
    3
 10
777.57985
 20
1189.4228
 11
773.15622
 21
1188.2313
  0
LINE
  8
0-2
  6
CONTINUOUS
 62
    3
 10
773.15622
 20
1188.2313
 11
768.67737
 21
1187.2658
  0
LINE
  8
0-2
  6
CONTINUOUS
 62
    3
 10
768.67737
 20
1187.2658
 11
764.15753
 21
1186.5276
  0
LINE
  8
0-2
  6
CONTINUOUS
 62
    3
 10
764.15753
 20
1186.5276
 11
759.6178
 21
1186.011
  0
LINE
  8
0-2
  6
CONTINUOUS
 62
    3
 10
759.6178
 20
1186.011
 11
755.06323
 21
1185.6767
  0
LINE
  8
0-2
  6
CONTINUOUS
 62
    3
 10
755.06323
 20
1185.6767
 11
750.49677
 21
1185.4815
  0
LINE
  8
0-2
  6
CONTINUOUS
 62
    3
 10
750.49677
 20
1185.4815
 11
745.91993
 21
1185.3757
  0
LINE
  8
0-2
  6
CONTINUOUS
 62
    3
 10
745.91993
 20
1185.3757
 11
741.95312
 21
1185.32
  0
LINE
  8
0-2
  6
CONTINUOUS
 62
    3
 10
690.81622
 20
1184.8996
 11
695.09643
 21
1183.1672
  0
LINE
  8
0-2
  6
CONTINUOUS
 62
    3
 10
695.09643
 20
1183.1672
 11
699.40174
 21
1181.4545
  0
LINE
  8
0-2
  6
CONTINUOUS
 62
    3
 10
699.40174
 20
1181.4545
 11
703.74742
 21
1179.8762
  0
LINE
  8
0-2
  6
CONTINUOUS
 62
    3
 10
703.74742
 20
1179.8762
 11
708.13483
 21
1178.5604
  0
LINE
  8
0-2
  6
CONTINUOUS
 62
    3
 10
708.13483
 20
1178.5604
 11
712.57568
 21
1177.6324
  0
LINE
  8
0-2
  6
CONTINUOUS
 62
    3
 10
712.57568
 20
1177.6324
 11
717.07978
 21
1177.2167
  0
LINE
  8
0-2
  6
CONTINUOUS
 62
    3
 10
717.07978
 20
1177.2167
 11
721.63658
 21
1177.2816
  0
LINE
  8
0-2
  6
CONTINUOUS
 62
    3
 10
721.63658
 20
1177.2816
 11
726.22649
 21
1177.6202
  0
LINE
  8
0-2
  6
CONTINUOUS
 62
    3
 10
726.22649
 20
1177.6202
 11
727.08877
 21
1177.6965
  0
LINE
  8
0-2
  6
CONTINUOUS
 62
    3
 10
726.22649
 20
1177.6202
 11
729.97951
 21
1178.4572
  0
LINE
  8
0-2
  6
CONTINUOUS
 62
    3
 10
729.97951
 20
1178.4572
 11
733.58184
 21
1179.6154
  0
LINE
  8
0-2
  6
CONTINUOUS
 62
    3
 10
733.58184
 20
1179.6154
 11
736.88679
 21
1181.4187
  0
LINE
  8
0-2
  6
CONTINUOUS
 62
    3
 10
736.88679
 20
1181.4187
 11
739.70464
 21
1184.006
  0
LINE
  8
0-2
  6
CONTINUOUS
 62
    3
 10
739.70464
 20
1184.006
 11
741.79382
 21
1187.2492
  0
LINE
  8
0-2
  6
CONTINUOUS
 62
    3
 10
741.79382
 20
1187.2492
 11
742.93165
 21
1190.9577
  0
LINE
  8
0-2
  6
CONTINUOUS
 62
    3
 10
742.93165
 20
1190.9577
 11
743.01568
 21
1194.7929
  0
LINE
  8
0-2
  6
CONTINUOUS
 62
    3
 10
743.01568
 20
1194.7929
 11
742.00078
 21
1198.3863
  0
LINE
  8
0-2
  6
CONTINUOUS
 62
    3
 10
742.00078
 20
1198.3863
 11
740.104
 21
1201.6551
  0
LINE
  8
0-2
  6
CONTINUOUS
 62
    3
 10
740.104
 20
1201.6551
 11
737.76124
 21
1204.7582
  0
LINE
  8
0-2
  6
CONTINUOUS
 62
    3
 10
649.82281
 20
1242.2919
 11
654.43559
 21
1241.5067
  0
LINE
  8
0-2
  6
CONTINUOUS
 62
    3
 10
654.43559
 20
1241.5067
 11
659.03307
 21
1240.854
  0
LINE
  8
0-2
  6
CONTINUOUS
 62
    3
 10
659.03307
 20
1240.854
 11
663.597
 21
1240.4664
  0
LINE
  8
0-2
  6
CONTINUOUS
 62
    3
 10
663.597
 20
1240.4664
 11
668.11149
 21
1240.4732
  0
LINE
  8
0-2
  6
CONTINUOUS
 62
    3
 10
668.11149
 20
1240.4732
 11
672.55976
 21
1241.0044
  0
LINE
  8
0-2
  6
CONTINUOUS
 62
    3
 10
672.55976
 20
1241.0044
 11
676.94286
 21
1242.0835
  0
LINE
  8
0-2
  6
CONTINUOUS
 62
    3
 10
676.94286
 20
1242.0835
 11
681.26984
 21
1243.5644
  0
LINE
  8
0-2
  6
CONTINUOUS
 62
    3
 10
681.26984
 20
1243.5644
 11
685.56193
 21
1245.3011
  0
LINE
  8
0-2
  6
CONTINUOUS
 62
    3
 10
685.56193
 20
1245.3011
 11
689.8273
 21
1247.1363
  0
LINE
  8
0-2
  6
CONTINUOUS
 62
    3
 10
689.8273
 20
1247.1363
 11
694.08792
 21
1248.938
  0
LINE
  8
0-2
  6
CONTINUOUS
 62
    3
 10
694.08792
 20
1248.938
 11
698.34423
 21
1250.6724
  0
LINE
  8
0-2
  6
CONTINUOUS
 62
    3
 10
698.34423
 20
1250.6724
 11
702.60024
 21
1252.3549
  0
LINE
  8
0-2
  6
CONTINUOUS
 62
    3
 10
702.60024
 20
1252.3549
 11
706.85151
 21
1253.9958
  0
LINE
  8
0-2
  6
CONTINUOUS
 62
    3
 10
706.85151
 20
1253.9958
 11
711.10262
 21
1255.6063
  0
LINE
  8
0-2
  6
CONTINUOUS
 62
    3
 10
711.10262
 20
1255.6063
 11
715.35493
 21
1257.2017
  0
LINE
  8
0-2
  6
CONTINUOUS
 62
    3
 10
715.35493
 20
1257.2017
 11
715.29554
 21
1253.2854
  0
LINE
  8
0-2
  6
CONTINUOUS
 62
    3
 10
715.29554
 20
1253.2854
 11
715.23912
 21
1249.3736
  0
LINE
  8
0-2
  6
CONTINUOUS
 62
    3
 10
715.23912
 20
1249.3736
 11
715.18286
 21
1245.4572
  0
LINE
  8
0-2
  6
CONTINUOUS
 62
    3
 10
715.18286
 20
1245.4572
 11
715.12377
 21
1241.5445
  0
LINE
  8
0-2
  6
CONTINUOUS
 62
    3
 10
715.12377
 20
1241.5445
 11
715.06794
 21
1237.6324
  0
LINE
  8
0-2
  6
CONTINUOUS
 62
    3
 10
715.06794
 20
1237.6324
 11
715.01123
 21
1233.7158
  0
LINE
  8
0-2
  6
CONTINUOUS
 62
    3
 10
715.01123
 20
1233.7158
 11
714.95229
 21
1229.8041
  0
LINE
  8
0-2
  6
CONTINUOUS
 62
    3
 10
714.95229
 20
1229.8041
 11
714.89617
 21
1225.8879
  0
LINE
  8
0-2
  6
CONTINUOUS
 62
    3
 10
714.89617
 20
1225.8879
 11
714.83783
 21
1221.9748
  0
LINE
  8
0-2
  6
CONTINUOUS
 62
    3
 10
714.83783
 20
1221.9748
 11
714.78096
 21
1218.0595
  0
LINE
  8
0-2
  6
CONTINUOUS
 62
    3
 10
737.76124
 20
1204.7582
 11
736.82548
 21
1205.5829
  0
LINE
  8
0-2
  6
CONTINUOUS
 62
    3
 10
736.82548
 20
1205.5829
 11
735.48039
 21
1206.5807
  0
LINE
  8
0-2
  6
CONTINUOUS
 62
    3
 10
735.48039
 20
1206.5807
 11
733.77959
 21
1207.7219
  0
LINE
  8
0-2
  6
CONTINUOUS
 62
    3
 10
733.77959
 20
1207.7219
 11
731.76865
 21
1208.9793
  0
LINE
  8
0-2
  6
CONTINUOUS
 62
    3
 10
731.76865
 20
1208.9793
 11
729.47622
 21
1210.3276
  0
LINE
  8
0-2
  6
CONTINUOUS
 62
    3
 10
729.47622
 20
1210.3276
 11
726.94327
 21
1211.7495
  0
LINE
  8
0-2
  6
CONTINUOUS
 62
    3
 10
726.94327
 20
1211.7495
 11
724.19372
 21
1213.2276
  0
LINE
  8
0-2
  6
CONTINUOUS
 62
    3
 10
724.19372
 20
1213.2276
 11
721.24864
 21
1214.7455
  0
LINE
  8
0-2
  6
CONTINUOUS
 62
    3
 10
721.24864
 20
1214.7455
 11
718.13447
 21
1216.2922
  0
LINE
  8
0-2
  6
CONTINUOUS
 62
    3
 10
718.13447
 20
1216.2922
 11
714.86811
 21
1217.8555
  0
LINE
  8
0-2
  6
CONTINUOUS
 62
    3
 10
714.86811
 20
1217.8555
 11
711.46191
 21
1219.4251
  0
LINE
  8
0-2
  6
CONTINUOUS
 62
    3
 10
711.46191
 20
1219.4251
 11
707.93708
 21
1220.9968
  0
LINE
  8
0-2
  6
CONTINUOUS
 62
    3
 10
707.93708
 20
1220.9968
 11
704.30327
 21
1222.5604
  0
LINE
  8
0-2
  6
CONTINUOUS
 62
    3
 10
704.30327
 20
1222.5604
 11
700.57891
 21
1224.1115
  0
LINE
  8
0-2
  6
CONTINUOUS
 62
    3
 10
700.57891
 20
1224.1115
 11
696.77363
 21
1225.6464
  0
LINE
  8
0-2
  6
CONTINUOUS
 62
    3
 10
696.77363
 20
1225.6464
 11
692.90303
 21
1227.1577
  0
LINE
  8
0-2
  6
CONTINUOUS
 62
    3
 10
692.90303
 20
1227.1577
 11
688.98091
 21
1228.6441
  0
LINE
  8
0-2
  6
CONTINUOUS
 62
    3
 10
688.98091
 20
1228.6441
 11
685.02331
 21
1230.1026
  0
LINE
  8
0-2
  6
CONTINUOUS
 62
    3
 10
685.02331
 20
1230.1026
 11
681.04655
 21
1231.5315
  0
LINE
  8
0-2
  6
CONTINUOUS
 62
    3
 10
681.04655
 20
1231.5315
 11
677.06564
 21
1232.9224
  0
LINE
  8
0-2
  6
CONTINUOUS
 62
    3
 10
677.06564
 20
1232.9224
 11
673.09661
 21
1234.2755
  0
LINE
  8
0-2
  6
CONTINUOUS
 62
    3
 10
673.09661
 20
1234.2755
 11
669.1592
 21
1235.5903
  0
LINE
  8
0-2
  6
CONTINUOUS
 62
    3
 10
669.1592
 20
1235.5903
 11
665.27464
 21
1236.8584
  0
LINE
  8
0-2
  6
CONTINUOUS
 62
    3
 10
665.27464
 20
1236.8584
 11
661.45763
 21
1238.0806
  0
LINE
  8
0-2
  6
CONTINUOUS
 62
    3
 10
661.45763
 20
1238.0806
 11
657.73312
 21
1239.2512
  0
LINE
  8
0-2
  6
CONTINUOUS
 62
    3
 10
657.73312
 20
1239.2512
 11
654.1204
 21
1240.365
  0
LINE
  8
0-2
  6
CONTINUOUS
 62
    3
 10
654.1204
 20
1240.365
 11
650.63996
 21
1241.4173
  0
LINE
  8
0-2
  6
CONTINUOUS
 62
    3
 10
650.63996
 20
1241.4173
 11
647.31021
 21
1242.4058
  0
LINE
  8
0-2
  6
CONTINUOUS
 62
    3
 10
647.31021
 20
1242.4058
 11
644.15224
 21
1243.3217
  0
LINE
  8
0-2
  6
CONTINUOUS
 62
    3
 10
715.35493
 20
1257.2017
 11
715.40911
 21
1257.2203
  0
LINE
  8
0-2
  6
CONTINUOUS
 62
    3
 10
653.11856
 20
1181.0754
 11
653.11856
 21
1172.0882
  0
LINE
  8
0-2
  6
CONTINUOUS
 62
    3
 10
653.11856
 20
1172.0882
 11
680.42909
 21
1172.0882
  0
LINE
  8
0-2
  6
CONTINUOUS
 62
    3
 10
680.42909
 20
1181.0754
 11
680.42909
 21
1172.0882
  0
LINE
  8
0-2
  6
CONTINUOUS
 62
    3
 10
653.11856
 20
1181.0754
 11
680.42909
 21
1181.0754
  0
LINE
  8
0-2
  6
CONTINUOUS
 62
    3
 10
640.46454
 20
1267.7205
 11
640.46454
 21
1238.2335
  0
LINE
  8
0-2
  6
CONTINUOUS
 62
    3
 10
644.76227
 20
1258.8795
 11
644.31629
 21
1258.6271
  0
LINE
  8
0-2
  6
CONTINUOUS
 62
    3
 10
644.31629
 20
1258.6271
 11
643.85947
 21
1258.3619
  0
LINE
  8
0-2
  6
CONTINUOUS
 62
    3
 10
643.85947
 20
1258.3619
 11
643.3973
 21
1258.0845
  0
LINE
  8
0-2
  6
CONTINUOUS
 62
    3
 10
643.3973
 20
1258.0845
 11
642.92518
 21
1257.7936
  0
LINE
  8
0-2
  6
CONTINUOUS
 62
    3
 10
642.92518
 20
1257.7936
 11
642.44371
 21
1257.4933
  0
LINE
  8
0-2
  6
CONTINUOUS
 62
    3
 10
642.44371
 20
1257.4933
 11
641.95393
 21
1257.1775
  0
LINE
  8
0-2
  6
CONTINUOUS
 62
    3
 10
641.95393
 20
1257.1775
 11
641.45598
 21
1256.8513
  0
LINE
  8
0-2
  6
CONTINUOUS
 62
    3
 10
641.45598
 20
1256.8513
 11
640.94809
 21
1256.5106
  0
LINE
  8
0-2
  6
CONTINUOUS
 62
    3
 10
640.94809
 20
1256.5106
 11
640.43336
 21
1256.1599
  0
LINE
  8
0-2
  6
CONTINUOUS
 62
    3
 10
643.2371
 20
1248.2079
 11
642.90633
 21
1248.1444
  0
LINE
  8
0-2
  6
CONTINUOUS
 62
    3
 10
642.90633
 20
1248.1444
 11
642.58
 21
1248.0854
  0
LINE
  8
0-2
  6
CONTINUOUS
 62
    3
 10
642.58
 20
1248.0854
 11
642.25962
 21
1248.0271
  0
LINE
  8
0-2
  6
CONTINUOUS
 62
    3
 10
642.25962
 20
1248.0271
 11
641.94235
 21
1247.9698
  0
LINE
  8
0-2
  6
CONTINUOUS
 62
    3
 10
641.94235
 20
1247.9698
 11
641.63191
 21
1247.9154
  0
LINE
  8
0-2
  6
CONTINUOUS
 62
    3
 10
641.63191
 20
1247.9154
 11
641.32459
 21
1247.8645
  0
LINE
  8
0-2
  6
CONTINUOUS
 62
    3
 10
641.32459
 20
1247.8645
 11
641.02277
 21
1247.8168
  0
LINE
  8
0-2
  6
CONTINUOUS
 62
    3
 10
641.02277
 20
1247.8168
 11
640.72465
 21
1247.7704
  0
LINE
  8
0-2
  6
CONTINUOUS
 62
    3
 10
640.72465
 20
1247.7704
 11
640.43336
 21
1247.7251
  0
LINE
  8
0-2
  6
CONTINUOUS
 62
    3
 10
649.82281
 20
1242.2919
 11
648.56562
 21
1242.5587
  0
LINE
  8
0-2
  6
CONTINUOUS
 62
    3
 10
648.56562
 20
1242.5587
 11
647.3592
 21
1242.8163
  0
LINE
  8
0-2
  6
CONTINUOUS
 62
    3
 10
647.3592
 20
1242.8163
 11
646.20816
 21
1243.0656
  0
LINE
  8
0-2
  6
CONTINUOUS
 62
    3
 10
646.20816
 20
1243.0656
 11
645.11087
 21
1243.3074
  0
LINE
  8
0-2
  6
CONTINUOUS
 62
    3
 10
645.11087
 20
1243.3074
 11
644.06687
 21
1243.5399
  0
LINE
  8
0-2
  6
CONTINUOUS
 62
    3
 10
644.06687
 20
1243.5399
 11
643.0781
 21
1243.7659
  0
LINE
  8
0-2
  6
CONTINUOUS
 62
    3
 10
643.0781
 20
1243.7659
 11
642.14218
 21
1243.9823
  0
LINE
  8
0-2
  6
CONTINUOUS
 62
    3
 10
642.14218
 20
1243.9823
 11
641.26075
 21
1244.1914
  0
LINE
  8
0-2
  6
CONTINUOUS
 62
    3
 10
641.26075
 20
1244.1914
 11
640.43336
 21
1244.3904
  0
LINE
  8
0-2
  6
CONTINUOUS
 62
    3
 10
644.15224
 20
1243.3217
 11
643.66023
 21
1243.4554
  0
LINE
  8
0-2
  6
CONTINUOUS
 62
    3
 10
643.66023
 20
1243.4554
 11
643.18826
 21
1243.5844
  0
LINE
  8
0-2
  6
CONTINUOUS
 62
    3
 10
643.18826
 20
1243.5844
 11
642.73663
 21
1243.7115
  0
LINE
  8
0-2
  6
CONTINUOUS
 62
    3
 10
642.73663
 20
1243.7115
 11
642.30609
 21
1243.8339
  0
LINE
  8
0-2
  6
CONTINUOUS
 62
    3
 10
642.30609
 20
1243.8339
 11
641.89766
 21
1243.9516
  0
LINE
  8
0-2
  6
CONTINUOUS
 62
    3
 10
641.89766
 20
1243.9516
 11
641.50765
 21
1244.0637
  0
LINE
  8
0-2
  6
CONTINUOUS
 62
    3
 10
641.50765
 20
1244.0637
 11
641.13872
 21
1244.1735
  0
LINE
  8
0-2
  6
CONTINUOUS
 62
    3
 10
641.13872
 20
1244.1735
 11
640.79146
 21
1244.2803
  0
LINE
  8
0-2
  6
CONTINUOUS
 62
    3
 10
640.79146
 20
1244.2803
 11
640.46454
 21
1244.3842
  0
LINE
  8
0-2
  6
CONTINUOUS
 62
    3
 10
636.43627
 20
1271.751
 11
630.00066
 21
1271.751
  0
LINE
  8
0-2
  6
CONTINUOUS
 62
    3
 10
636.43627
 20
1209.8379
 11
630.00066
 21
1209.8379
  0
LINE
  8
0-2
  6
CONTINUOUS
 62
    3
 10
633.36233
 20
1230.83
 11
635.69633
 21
1228.1951
  0
LINE
  8
0-2
  6
CONTINUOUS
 62
    3
 10
635.69633
 20
1228.1951
 11
638.26193
 21
1225.4579
  0
LINE
  8
0-2
  6
CONTINUOUS
 62
    3
 10
638.26193
 20
1225.4579
 11
641.02113
 21
1222.6502
  0
LINE
  8
0-2
  6
CONTINUOUS
 62
    3
 10
641.02113
 20
1222.6502
 11
643.93904
 21
1219.8012
  0
LINE
  8
0-2
  6
CONTINUOUS
 62
    3
 10
643.93904
 20
1219.8012
 11
646.98196
 21
1216.9381
  0
LINE
  8
0-2
  6
CONTINUOUS
 62
    3
 10
646.98196
 20
1216.9381
 11
650.11915
 21
1214.0861
  0
LINE
  8
0-2
  6
CONTINUOUS
 62
    3
 10
650.11915
 20
1214.0861
 11
653.32151
 21
1211.2676
  0
LINE
  8
0-2
  6
CONTINUOUS
 62
    3
 10
653.32151
 20
1211.2676
 11
656.56233
 21
1208.5032
  0
LINE
  8
0-2
  6
CONTINUOUS
 62
    3
 10
656.56233
 20
1208.5032
 11
659.81666
 21
1205.812
  0
LINE
  8
0-2
  6
CONTINUOUS
 62
    3
 10
659.81666
 20
1205.812
 11
663.06238
 21
1203.2103
  0
LINE
  8
0-2
  6
CONTINUOUS
 62
    3
 10
663.06238
 20
1203.2103
 11
666.279
 21
1200.7127
  0
LINE
  8
0-2
  6
CONTINUOUS
 62
    3
 10
666.279
 20
1200.7127
 11
669.44811
 21
1198.3309
  0
LINE
  8
0-2
  6
CONTINUOUS
 62
    3
 10
669.44811
 20
1198.3309
 11
672.55368
 21
1196.0758
  0
LINE
  8
0-2
  6
CONTINUOUS
 62
    3
 10
672.55368
 20
1196.0758
 11
675.58175
 21
1193.9544
  0
LINE
  8
0-2
  6
CONTINUOUS
 62
    3
 10
675.58175
 20
1193.9544
 11
678.52089
 21
1191.9728
  0
LINE
  8
0-2
  6
CONTINUOUS
 62
    3
 10
678.52089
 20
1191.9728
 11
681.3607
 21
1190.1351
  0
LINE
  8
0-2
  6
CONTINUOUS
 62
    3
 10
681.3607
 20
1190.1351
 11
684.09437
 21
1188.4423
  0
LINE
  8
0-2
  6
CONTINUOUS
 62
    3
 10
684.09437
 20
1188.4423
 11
686.71609
 21
1186.8945
  0
LINE
  8
0-2
  6
CONTINUOUS
 62
    3
 10
686.71609
 20
1186.8945
 11
689.22261
 21
1185.4881
  0
LINE
  8
0-2
  6
CONTINUOUS
 62
    3
 10
689.22261
 20
1185.4881
 11
689.40715
 21
1185.4074
  0
LINE
  8
0-2
  6
CONTINUOUS
 62
    3
 10
689.40715
 20
1185.4074
 11
689.58976
 21
1185.3307
  0
LINE
  8
0-2
  6
CONTINUOUS
 62
    3
 10
689.58976
 20
1185.3307
 11
689.77074
 21
1185.2574
  0
LINE
  8
0-2
  6
CONTINUOUS
 62
    3
 10
689.77074
 20
1185.2574
 11
689.94964
 21
1185.1885
  0
LINE
  8
0-2
  6
CONTINUOUS
 62
    3
 10
689.94964
 20
1185.1885
 11
690.1266
 21
1185.1232
  0
LINE
  8
0-2
  6
CONTINUOUS
 62
    3
 10
690.1266
 20
1185.1232
 11
690.30179
 21
1185.0615
  0
LINE
  8
0-2
  6
CONTINUOUS
 62
    3
 10
690.30179
 20
1185.0615
 11
690.47535
 21
1185.0034
  0
LINE
  8
0-2
  6
CONTINUOUS
 62
    3
 10
690.47535
 20
1185.0034
 11
690.64667
 21
1184.9501
  0
LINE
  8
0-2
  6
CONTINUOUS
 62
    3
 10
690.64667
 20
1184.9501
 11
690.81622
 21
1184.8996
  0
LINE
  8
0-2
  6
CONTINUOUS
 62
    3
 10
633.36233
 20
1230.83
 11
634.7423
 21
1231.5154
  0
LINE
  8
0-2
  6
CONTINUOUS
 62
    3
 10
634.7423
 20
1231.5154
 11
635.97425
 21
1232.2348
  0
LINE
  8
0-2
  6
CONTINUOUS
 62
    3
 10
635.97425
 20
1232.2348
 11
637.05878
 21
1232.9889
  0
LINE
  8
0-2
  6
CONTINUOUS
 62
    3
 10
637.05878
 20
1232.9889
 11
637.99559
 21
1233.7771
  0
LINE
  8
0-2
  6
CONTINUOUS
 62
    3
 10
637.99559
 20
1233.7771
 11
638.78467
 21
1234.6001
  0
LINE
  8
0-2
  6
CONTINUOUS
 62
    3
 10
638.78467
 20
1234.6001
 11
639.42633
 21
1235.4569
  0
LINE
  8
0-2
  6
CONTINUOUS
 62
    3
 10
639.42633
 20
1235.4569
 11
639.91998
 21
1236.3483
  0
LINE
  8
0-2
  6
CONTINUOUS
 62
    3
 10
639.91998
 20
1236.3483
 11
640.26619
 21
1237.2735
  0
LINE
  8
0-2
  6
CONTINUOUS
 62
    3
 10
640.26619
 20
1237.2735
 11
640.46454
 21
1238.2335
  0
LINE
  8
0-2
  6
CONTINUOUS
 62
    3
 10
640.46573
 20
1213.8683
 11
640.46573
 21
1223.2153
  0
LINE
  8
0-2
  6
CONTINUOUS
 62
    3
 10
692.79836
 20
1248.649
 11
684.86341
 21
1266.1382
  0
LINE
  8
0-2
  6
CONTINUOUS
 62
    3
 10
662.24835
 20
1153.652
 11
630.00066
 21
1153.652
  0
LINE
  8
0-2
  6
CONTINUOUS
 62
    3
 10
667.63908
 20
1159.0425
 11
667.63908
 21
1172.0882
  0
LINE
  8
0-2
  6
CONTINUOUS
 62
    3
 10
659.55329
 20
1148.8048
 11
630.00066
 21
1148.8048
  0
LINE
  8
0-2
  6
CONTINUOUS
 62
    3
 10
662.24835
 20
1151.5004
 11
662.24835
 21
1153.652
  0
LINE
  8
0-2
  6
CONTINUOUS
 62
    3
 10
667.63908
 20
1198.425
 11
667.63908
 21
1181.0754
  0
LINE
  8
0-2
  6
CONTINUOUS
 62
    3
 10
660.98418
 20
1205.08
 11
630.00066
 21
1205.08
  0
LINE
  8
0-2
  6
CONTINUOUS
 62
    3
 10
837.50107
 20
1309.3299
 11
837.50107
 21
1287.0801
  0
LINE
  8
0-2
  6
CONTINUOUS
 62
    3
 10
629.99992
 20
1322.3297
 11
837.50107
 21
1322.3297
  0
LINE
  8
0-2
  6
CONTINUOUS
 62
    3
 10
629.99992
 20
1309.3299
 11
837.50211
 21
1309.3299
  0
LINE
  8
0-2
  6
CONTINUOUS
 62
    3
 10
837.50003
 20
1270.5789
 11
955.00103
 21
1270.5789
  0
LINE
  8
0-2
  6
CONTINUOUS
 62
    3
 10
837.50003
 20
1257.5791
 11
955.00103
 21
1257.5791
  0
LINE
  8
0-2
  6
CONTINUOUS
 62
    3
 10
837.50003
 20
1235.3295
 11
955.00103
 21
1235.3295
  0
LINE
  8
0-2
  6
CONTINUOUS
 62
    3
 10
304.99984
 20
1222.3298
 11
629.99992
 21
1222.3298
  0
LINE
  8
0-2
  6
CONTINUOUS
 62
    3
 10
304.99984
 20
1235.3295
 11
629.99992
 21
1235.3295
  0
LINE
  8
0-2
  6
CONTINUOUS
 62
    3
 10
304.99984
 20
1257.5791
 11
629.99992
 21
1257.5791
  0
LINE
  8
0-2
  6
CONTINUOUS
 62
    3
 10
304.99984
 20
1270.5789
 11
629.99992
 21
1270.5789
  0
LINE
  8
0-2
  6
CONTINUOUS
 62
    3
 10
818.80367
 20
1274.0806
 11
837.50211
 21
1274.0806
  0
LINE
  8
0-2
  6
CONTINUOUS
 62
    3
 10
807.65315
 20
1287.0803
 11
837.50211
 21
1287.0803
  0
LINE
  8
0-2
  6
CONTINUOUS
 62
    3
 10
837.50003
 20
1274.0806
 11
837.50003
 21
1143.8291
  0
LINE
  8
0-2
  6
CONTINUOUS
 62
    3
 10
304.99984
 20
1382.3299
 11
629.64375
 21
1382.3299
  0
LINE
  8
0-2
  6
CONTINUOUS
 62
    3
 10
832.58988
 20
1167.991
 11
846.02141
 21
1167.991
  0
LINE
  8
0-2
  6
CONTINUOUS
 62
    3
 10
948.04817
 20
1251.2501
 11
959.91534
 21
1251.2501
  0
LINE
  8
0-2
  6
CONTINUOUS
 62
    3
 10
840.50108
 20
1309.3299
 11
840.50108
 21
1299.6637
  0
LINE
  8
0-2
  6
CONTINUOUS
 62
    3
 10
832.31122
 20
1304.6608
 11
846.25821
 21
1304.6608
  0
LINE
  8
0-8
  6
CONTINUOUS
 62
    7
 10
1089.5036
 20
1072.3296
 11
1089.5036
 21
1222.3298
  0
LINE
  8
0-8
  6
CONTINUOUS
 62
    7
 10
982.70262
 20
1072.3296
 11
1089.5036
 21
1072.3296
  0
LINE
  8
0-8
  6
CONTINUOUS
 62
    7
 10
982.70262
 20
1222.3298
 11
1089.5036
 21
1222.3298
  0
LINE
  8
0-8
  6
CONTINUOUS
 62
    7
 10
1089.5036
 20
1222.3298
 11
1089.5036
 21
1382.3299
  0
LINE
  8
0-8
  6
CONTINUOUS
 62
    7
 10
982.70262
 20
1382.3299
 11
1089.5036
 21
1382.3299
  0
LINE
  8
0-8
  6
CONTINUOUS
 62
    7
 10
1089.5036
 20
1382.3299
 11
1089.5036
 21
1457.3298
  0
LINE
  8
0-8
  6
CONTINUOUS
 62
    7
 10
982.70262
 20
1457.3298
 11
1089.5036
 21
1457.3298
  0
LINE
  8
0-8
  6
CONTINUOUS
 62
    7
 10
911.4879
 20
1072.3296
 11
911.4879
 21
1322.3297
  0
LINE
  8
0-8
  6
CONTINUOUS
 62
    7
 10
856.16328
 20
1072.3296
 11
911.4879
 21
1072.3296
  0
LINE
  8
0-8
  6
CONTINUOUS
 62
    7
 10
856.16328
 20
1322.3297
 11
911.4879
 21
1322.3297
  0
LINE
  8
0-2
  6
CONTINUOUS
 62
    3
 10
723.98617
 20
1382.3299
 11
955
 21
1382.3299
  0
LINE
  8
0-2
  6
CENTER2
 62
    7
 10
629.99992
 20
1457.3298
 11
629.99992
 21
1072.3296
  0
LINE
  8
0-2
  6
CONTINUOUS
 62
    3
 10
952.00103
 20
1257.5791
 11
952.00103
 21
1225.3297
  0
LINE
  8
0-2
  6
PHANTOM2
 62
    3
 10
955.00103
 20
1232.3295
 11
955.00103
 21
1222.3298
  0
LINE
  8
0-2
  6
CONTINUOUS
 62
    3
 10
955
 20
1257.5791
 11
955
 21
1222.3298
  0
LINE
  8
0-2
  6
CONTINUOUS
 62
    3
 10
837.50003
 20
1222.3298
 11
955
 21
1222.3298
  0
LINE
  8
0-2
  6
CONTINUOUS
 62
    3
 10
926.65037
 20
1228.9939
 11
926.65037
 21
1216.0528
  0
LINE
  8
0-2
  6
CONTINUOUS
 62
    3
 10
911.83501
 20
1228.3297
 11
840.50108
 21
1299.6637
  0
LINE
  8
0-2
  6
CONTINUOUS
 62
    3
 10
952.00103
 20
1228.3297
 11
911.83501
 21
1228.3297
  0
LINE
  8
0-2
  6
CONTINUOUS
 62
    3
 10
910.59237
 20
1225.3297
 11
837.50107
 21
1298.4211
  0
LINE
  8
0-2
  6
CONTINUOUS
 62
    3
 10
795.99895
 20
1419.0221
 11
629.99992
 21
1334.4415
  0
LINE
  8
0-2
  6
CONTINUOUS
 62
    3
 10
795.99895
 20
1419.0221
 11
629.99992
 21
1419.0221
  0
LINE
  8
0-2
  6
CONTINUOUS
 62
    3
 10
952.00103
 20
1225.3297
 11
837.50003
 21
1225.3297
  0
LINE
  8
0-2
  6
CONTINUOUS
 62
    3
 10
840.50004
 20
1222.3298
 11
840.50004
 21
1157.3301
  0
ARC
  8
0-2
  6
CONTINUOUS
 62
    3
 10
422.49995
 20
1078.8294
 40
6.4996993
 50
90
 51
270
  0
ARC
  8
0-2
  6
CONTINUOUS
 62
    3
 10
422.49995
 20
1137.3292
 40
6.4996993
 50
90
 51
270
  0
ARC
  8
0-2
  6
CONTINUOUS
 62
    3
 10
837.50003
 20
1078.8294
 40
6.4996993
 50
270
 51
90
  0
ARC
  8
0-2
  6
CONTINUOUS
 62
    3
 10
837.50003
 20
1137.3292
 40
6.4996993
 50
270
 51
90
  0
ARC
  8
0-2
  6
CONTINUOUS
 62
    3
 10
304.99984
 20
1264.0791
 40
6.4996993
 50
90
 51
270
  0
ARC
  8
0-2
  6
CONTINUOUS
 62
    3
 10
304.99984
 20
1228.8296
 40
6.4996993
 50
90
 51
270
  0
ARC
  8
0-2
  6
CONTINUOUS
 62
    3
 10
955
 20
1264.0791
 40
6.4996993
 50
270
 51
90
  0
ARC
  8
0-2
  6
CONTINUOUS
 62
    3
 10
955
 20
1228.8296
 40
6.4996993
 50
270
 51
90
  0
ARC
  8
0-2
  6
CONTINUOUS
 62
    3
 10
636.43627
 20
1213.8683
 40
4.0294089
 50
270
 51
0
  0
ARC
  8
0-2
  6
CONTINUOUS
 62
    3
 10
636.43627
 20
1267.7205
 40
4.0294089
 50
0
 51
90
  0
ARC
  8
0-2
  6
CONTINUOUS
 62
    3
 10
662.24835
 20
1159.0425
 40
5.3905493
 50
270
 51
0
  0
ARC
  8
0-2
  6
CONTINUOUS
 62
    3
 10
659.55329
 20
1151.5004
 40
2.6952746
 50
270
 51
0
  0
ARC
  8
0-2
  6
CONTINUOUS
 62
    3
 10
837.50107
 20
1315.8299
 40
6.4996993
 50
270
 51
90
  0
ARC
  8
0-2
  6
CONTINUOUS
 62
    3
 10
837.50107
 20
1280.5803
 40
6.4996993
 50
270
 51
90
  0
TEXT
  8
0-d
 10
152.99987
 20
94.49993
 40
15
 41
1
 50
0.0000305
  1
図
  0
TEXT
  8
0-d
 10
152.99987
 20
58.499969
 40
15
 41
1
 50
0
  1
番
  0
TEXT
  8
0-d
 10
393.00025
 20
94.49993
 40
15
 41
1
 50
0.0000305
  1
承
  0
TEXT
  8
0-d
 10
393.00025
 20
58.499969
 40
15
 41
1
 50
0
  1
認
  0
TEXT
  8
0-d
 10
612.00015
 20
142.49994
 40
15
 41
1
 50
0
  1
尺
  0
TEXT
  8
0-d
 10
612.00015
 20
118.49985
 40
15
 41
1
 50
0.0000762
  1
度
  0
TEXT
  8
0-d
 10
513.00005
 20
94.49993
 40
15
 41
1
 50
0.0000305
  1
製
  0
TEXT
  8
0-d
 10
513.00005
 20
58.499969
 40
15
 41
1
 50
0
  1
図
  0
TEXT
  8
0-d
 10
933.00002
 20
142.49994
 40
15
 41
1
 50
0
  1
日
  0
TEXT
  8
0-d
 10
933.00002
 20
118.49985
 40
15
 41
1
 50
0.0000762
  1
付
  0
TEXT
  8
0-d
 10
666.85578
 20
98.089351
 40
12
 41
1
 50
0
  1
株式
  0
TEXT
  8
0-d
 10
666.85578
 20
85.111074
 40
12
 41
1
 50
0.0000152
  1
会社
  0
TEXT
  8
0-d
 10
704.5348
 20
85.948271
 40
24
 41
1
 50
0
  1
スズキベンチレーター
  0
TEXT
  8
0-d
 10
742.75089
 20
56.414506
 40
12
 41
1
 50
0
  1
TEL(054)296-7000  FAX(054)296-7001
  0
TEXT
  8
0-d
 10
650.60938
 20
126.06037
 40
24
 41
1
 50
0.0000152
  1
１／６
  0
TEXT
  8
0-8
 10
612.37502
 20
1562.2741
 40
18
 41
1
 50
0
  1
650
  0
TEXT
  8
0-8
 10
170.60609
 20
1246.9794
 40
18
 41
1
 50
90
  1
385
  0
TEXT
  8
0-8
 10
1083.5036
 20
1134.5797
 40
18
 41
1
 50
90
  1
150
  0
TEXT
  8
0-8
 10
1083.5036
 20
1289.5799
 40
18
 41
1
 50
90
  1
160
  0
TEXT
  8
0-8
 10
1083.5036
 20
1411.5798
 40
18
 41
1
 50
90
  1
75
  0
TEXT
  8
0-8
 10
905.48788
 20
1184.5797
 40
18
 41
1
 50
90
  1
250
  0
TEXT
  8
0-8
 10
600.99987
 20
1015.7901
 40
18
 41
1
 50
0
  1
415φ
  0
TEXT
  8
0-d
 10
152.99998
 20
1663.6207
 40
30
 41
1
 50
0
  1
ＳＴ－４０　直付型 断面
  0
TEXT
  8
0-d
 10
169.70144
 20
125.58896
 40
24
 41
1
 50
0
  1
ＳＴ－４０　直付型 断面
  0
TEXT
  8
0-d
 10
185.07555
 20
84.181281
 40
18
 41
1
 50
0
  1
40-B03a
  0
TEXT
  8
0-d
 10
741.40752
 20
71.187554
 40
12
 41
1
 50
0
  1
〒421-2114　静岡市葵区安倍口新田１５２番地
  0
POINT
  8
0-8
 62
    2
 10
150.00041
 20
1072.3294
  0
POINT
  8
0-8
 62
    2
 10
150.00041
 20
1457.3298
  0
POINT
  8
0-8
 62
    2
 10
304.99984
 20
1542.7733
  0
POINT
  8
0-8
 62
    2
 10
955.00103
 20
1542.7733
  0
POINT
  8
0-8
 62
    2
 10
422.49995
 20
1002.79
  0
POINT
  8
0-8
 62
    2
 10
837.50003
 20
1002.79
  0
POINT
  8
0-8
 62
    2
 10
1089.5036
 20
1072.3296
  0
POINT
  8
0-8
 62
    2
 10
1089.5036
 20
1222.3298
  0
POINT
  8
0-8
 62
    2
 10
1089.5036
 20
1382.3299
  0
POINT
  8
0-8
 62
    2
 10
1089.5036
 20
1457.3298
  0
POINT
  8
0-8
 62
    2
 10
911.4879
 20
1072.3296
  0
POINT
  8
0-8
 62
    2
 10
911.4879
 20
1322.3297
  0
ENDSEC
  0
EOF
