  0
SECTION
  2
HEADER
  9
$EXTMIN
 10
0
 20
0
  9
$EXTMAX
 10
4200
 20
2970
  0
ENDSEC
  0
SECTION
  2
TABLES
  0
TABLE
  2
LTYPE
 70
     9
  0
LTYPE
  2
CONTINUOUS
 70
    64
  3
実線
 72
    65
 73
     0
 40
0.0
  0
LTYPE
  2
DASHED1
 70
    64
  3
--  --  --  --  --  --  --  --  
 72
    65
 73
     2
 40
2.5
 49
1.25
 49
-1.25
  0
LTYPE
  2
DASHED2
 70
    64
  3
----    ----    ----    ----    
 72
    65
 73
     2
 40
5.0
 49
2.5
 49
-2.5
  0
LTYPE
  2
DASHED3
 70
    64
  3
------  ------  ------  ------  
 72
    65
 73
     2
 40
5.0
 49
3.75
 49
-1.25
  0
LTYPE
  2
CENTER1
 70
    64
  3
----- - ----- - ----- - ----- - 
 72
    65
 73
     4
 40
10.0
 49
6.25
 49
-1.25
 49
1.25
 49
-1.25
  0
LTYPE
  2
CENTER2
 70
    64
  3
----------  --  ----------  --  
 72
    65
 73
     4
 40
20.0
 49
12.5
 49
-2.5
 49
2.5
 49
-2.5
  0
LTYPE
  2
PHANTOM1
 70
    64
  3
--- - - --- - - --- - - --- - - 
 72
    65
 73
     6
 40
10.0
 49
3.25
 49
-1.25
 49
1.25
 49
-1.25
 49
1.25
 49
-1.25
  0
LTYPE
  2
PHANTOM2
 70
    64
  3
--------  -  -  --------  -  -  
 72
    65
 73
     6
 40
20.0
 49
10.0
 49
-2.5
 49
1.25
 49
-2.5
 49
1.25
 49
-2.5
  0
LTYPE
  2
DOT
 70
    64
  3
-   -   -   -   -   -   -   -   
 72
    65
 73
     2
 40
2.5
 49
0.625
 49
-1.875
  0
ENDTAB
  0
TABLE
  2
STYLE
 70
    1
  0
STYLE
  2
STANDARD
 70
    64
 40
0.0
 41
1.0
 42
0.0
 50
0.0
 71
     0
  3
TXT
  4
BIGFONT
  0
ENDTAB
  0
TABLE
  2
LAYER
 70
    5
  0
LAYER
  2
0-1
 70
   64
 62
    7
  6
CONTINUOUS
  0
LAYER
  2
0-2
 70
   64
 62
    7
  6
CONTINUOUS
  0
LAYER
  2
0-8
 70
   64
 62
    7
  6
CONTINUOUS
  0
LAYER
  2
0-d
 70
   64
 62
    7
  6
CONTINUOUS
  0
LAYER
  2
ADD_LINE
 70
   64
 62
    7
  6
CONTINUOUS
  0
ENDTAB
  0
ENDSEC
  0
SECTION
  2
ENTITIES
  0
LINE
  8
0-2
  6
CONTINUOUS
 62
    3
 10
710.31019
 20
2436.5818
 11
1050
 21
2520.1064
  0
LINE
  8
0-2
  6
CONTINUOUS
 62
    3
 10
1389.6904
 20
2436.5818
 11
1050
 21
2520.1064
  0
LINE
  8
0-8
  6
CONTINUOUS
 62
    7
 10
370.00049
 20
2135.1061
 11
370.00049
 21
2520.1064
  0
LINE
  8
0-8
  6
CONTINUOUS
 62
    7
 10
682.75133
 20
2135.1061
 11
370.00049
 21
2135.1061
  0
LINE
  8
0-8
  6
CONTINUOUS
 62
    7
 10
724.99995
 20
2605.5498
 11
1375.0011
 21
2605.5498
  0
LINE
  8
0-8
  6
CONTINUOUS
 62
    7
 10
842.49997
 20
2065.5667
 11
1257.5001
 21
2065.5667
  0
LINE
  8
0-d
  6
CONTINUOUS
 62
    7
 10
250.00003
 20
2757.7013
 11
1850.0001
 21
2757.7013
  0
LINE
  8
0-d
  6
CONTINUOUS
 62
    7
 10
250.00003
 20
2767.7014
 11
1850.0001
 21
2767.7014
  0
LINE
  8
0-2
  6
CONTINUOUS
 62
    3
 10
724.99995
 20
2440.1064
 11
1375.0011
 21
2440.1064
  0
LINE
  8
0-2
  6
CONTINUOUS
 62
    3
 10
724.99995
 20
2320.3556
 11
1375.0011
 21
2320.3556
  0
LINE
  8
0-2
  6
CONTINUOUS
 62
    3
 10
724.99995
 20
2333.3554
 11
1375.0011
 21
2333.3554
  0
LINE
  8
0-2
  6
CONTINUOUS
 62
    3
 10
724.99995
 20
2298.1061
 11
1375.0011
 21
2298.1061
  0
LINE
  8
0-2
  6
CONTINUOUS
 62
    3
 10
724.99995
 20
2440.1064
 11
724.99995
 21
2333.3554
  0
LINE
  8
0-2
  6
CONTINUOUS
 62
    3
 10
724.99995
 20
2320.3556
 11
724.99995
 21
2298.1058
  0
LINE
  8
0-2
  6
CONTINUOUS
 62
    3
 10
1375.0011
 20
2440.1064
 11
1375.0011
 21
2333.3554
  0
LINE
  8
0-2
  6
CONTINUOUS
 62
    3
 10
842.49997
 20
2193.6061
 11
1257.5011
 21
2193.6061
  0
LINE
  8
0-2
  6
CONTINUOUS
 62
    3
 10
842.49997
 20
2206.6058
 11
1257.5011
 21
2206.6058
  0
LINE
  8
0-2
  6
CONTINUOUS
 62
    3
 10
842.49997
 20
2148.1061
 11
1257.5011
 21
2148.1061
  0
LINE
  8
0-2
  6
CONTINUOUS
 62
    3
 10
842.49997
 20
2135.1063
 11
1257.5011
 21
2135.1063
  0
LINE
  8
0-2
  6
CONTINUOUS
 62
    3
 10
842.49997
 20
2193.6061
 11
842.49997
 21
2148.1058
  0
LINE
  8
0-2
  6
CONTINUOUS
 62
    3
 10
1257.5001
 20
2193.6061
 11
1257.5001
 21
2148.1058
  0
LINE
  8
0-2
  6
CONTINUOUS
 62
    3
 10
842.49997
 20
2285.1063
 11
842.49997
 21
2206.6058
  0
LINE
  8
0-2
  6
CONTINUOUS
 62
    3
 10
1257.5001
 20
2285.1063
 11
1257.5001
 21
2206.6058
  0
LINE
  8
0-8
  6
CONTINUOUS
 62
    7
 10
724.99995
 20
2483.4217
 11
724.99995
 21
2605.5498
  0
LINE
  8
0-8
  6
CONTINUOUS
 62
    7
 10
790.06797
 20
2520.1064
 11
370.00049
 21
2520.1064
  0
LINE
  8
0-8
  6
CONTINUOUS
 62
    7
 10
1375.0011
 20
2483.4217
 11
1375.0011
 21
2605.5498
  0
LINE
  8
0-2
  6
CONTINUOUS
 62
    3
 10
1257.5001
 20
2193.6061
 11
1257.5001
 21
2148.1058
  0
LINE
  8
0-2
  6
CONTINUOUS
 62
    3
 10
1375.0001
 20
2320.3556
 11
1375.0001
 21
2298.1058
  0
LINE
  8
0-2
  6
CONTINUOUS
 62
    3
 10
724.99995
 20
2285.1063
 11
1375.0011
 21
2285.1063
  0
LINE
  8
0-8
  6
CONTINUOUS
 62
    7
 10
682.75133
 20
1637.4213
 11
370.00049
 21
1637.4213
  0
LINE
  8
0-8
  6
CONTINUOUS
 62
    7
 10
682.75133
 20
1847.4213
 11
370.00049
 21
1847.4213
  0
LINE
  8
0-8
  6
CONTINUOUS
 62
    7
 10
682.75133
 20
1907.421
 11
370.00049
 21
1907.421
  0
LINE
  8
0-2
  6
CONTINUOUS
 62
    3
 10
799.99995
 20
584.01201
 11
799.99995
 21
1084.0118
  0
LINE
  8
0-2
  6
CONTINUOUS
 62
    3
 10
799.99995
 20
1084.0118
 11
1300.0001
 21
1084.0118
  0
LINE
  8
0-2
  6
CONTINUOUS
 62
    3
 10
1300.0001
 20
1084.0118
 11
1300.0001
 21
584.01195
  0
LINE
  8
0-2
  6
CONTINUOUS
 62
    3
 10
1300.0001
 20
584.01195
 11
799.99995
 21
584.01201
  0
LINE
  8
0-8
  6
CONTINUOUS
 62
    7
 10
370.00049
 20
386.512
 11
370.00049
 21
1281.512
  0
LINE
  8
0-8
  6
CONTINUOUS
 62
    7
 10
1730.0005
 20
584.01201
 11
1730.0005
 21
1084.0118
  0
LINE
  8
0-8
  6
CONTINUOUS
 62
    7
 10
799.99995
 20
1389.2373
 11
1300.0001
 21
1389.2373
  0
LINE
  8
0-2
  6
CONTINUOUS
 62
    3
 10
799.99995
 20
1084.0118
 11
868.94288
 21
1015.0687
  0
LINE
  8
0-2
  6
CONTINUOUS
 62
    3
 10
1300.0001
 20
1084.0118
 11
1231.0572
 21
1015.0687
  0
LINE
  8
0-2
  6
CONTINUOUS
 62
    3
 10
799.99995
 20
584.01201
 11
868.94288
 21
652.95469
  0
LINE
  8
0-2
  6
CONTINUOUS
 62
    3
 10
1300.0001
 20
584.01195
 11
1231.0572
 21
652.95462
  0
LINE
  8
0-2
  6
CONTINUOUS
 62
    3
 10
847.49999
 20
1847.4213
 11
1252.5001
 21
1847.4213
  0
LINE
  8
0-2
  6
CONTINUOUS
 62
    3
 10
847.49999
 20
1907.421
 11
1252.5001
 21
1907.421
  0
LINE
  8
0-8
  6
CONTINUOUS
 62
    7
 10
847.49999
 20
1971.0668
 11
1252.5001
 21
1971.0668
  0
LINE
  8
0-8
  6
CONTINUOUS
 62
    7
 10
799.99995
 20
1585.6648
 11
799.99995
 21
1389.2373
  0
LINE
  8
0-8
  6
CONTINUOUS
 62
    7
 10
1300.0001
 20
1585.6648
 11
1300.0001
 21
1389.2373
  0
LINE
  8
0-8
  6
CONTINUOUS
 62
    7
 10
532.15029
 20
1281.512
 11
370.00049
 21
1281.512
  0
LINE
  8
0-8
  6
CONTINUOUS
 62
    7
 10
532.15029
 20
386.512
 11
370.00049
 21
386.512
  0
LINE
  8
0-8
  6
CONTINUOUS
 62
    7
 10
1567.2601
 20
1084.0118
 11
1730.0005
 21
1084.0118
  0
LINE
  8
0-8
  6
CONTINUOUS
 62
    7
 10
1567.2601
 20
584.01201
 11
1730.0005
 21
584.01201
  0
LINE
  8
0-2
  6
CONTINUOUS
 62
    3
 10
847.49999
 20
1894.4209
 11
1252.5001
 21
1894.4209
  0
LINE
  8
0-2
  6
CONTINUOUS
 62
    3
 10
847.49999
 20
1907.421
 11
847.49999
 21
1894.4209
  0
LINE
  8
0-2
  6
CONTINUOUS
 62
    3
 10
847.49999
 20
1881.4207
 11
847.49999
 21
1847.4213
  0
LINE
  8
0-2
  6
CONTINUOUS
 62
    3
 10
847.49999
 20
1881.4209
 11
1252.5001
 21
1881.4209
  0
LINE
  8
0-2
  6
CONTINUOUS
 62
    3
 10
1252.5001
 20
1881.4209
 11
1252.5001
 21
1847.4213
  0
LINE
  8
0-2
  6
CONTINUOUS
 62
    3
 10
1252.5003
 20
1907.421
 11
1252.5003
 21
1894.4209
  0
LINE
  8
0-d
  6
CONTINUOUS
 62
    7
 10
403.46178
 20
1494.5281
 11
494.20218
 21
1494.5281
  0
LINE
  8
0-d
  6
CONTINUOUS
 62
    7
 10
403.46178
 20
1494.5281
 11
494.20218
 21
1521.7491
  0
LINE
  8
0-d
  6
CONTINUOUS
 62
    7
 10
494.20218
 20
1494.5281
 11
494.20218
 21
1521.7491
  0
LINE
  8
0-8
  6
CONTINUOUS
 62
    7
 10
858.88494
 20
767.0701
 11
1241.1154
 21
900.95336
  0
LINE
  8
0-8
  6
CONTINUOUS
 62
    7
 10
842.49997
 20
2119.3249
 11
842.49997
 21
2065.5667
  0
LINE
  8
0-8
  6
CONTINUOUS
 62
    7
 10
1257.5001
 20
2119.3249
 11
1257.5001
 21
2065.5667
  0
LINE
  8
0-8
  6
CONTINUOUS
 62
    7
 10
847.49999
 20
1927.8819
 11
847.49999
 21
1971.0668
  0
LINE
  8
0-8
  6
CONTINUOUS
 62
    7
 10
1252.5001
 20
1927.8819
 11
1252.5001
 21
1971.0668
  0
LINE
  8
0-1
  6
CENTER2
 62
    7
 10
602.50016
 20
834.01192
 11
1497.4999
 21
834.01192
  0
LINE
  8
0-8
  6
CONTINUOUS
 62
    7
 10
370.00049
 20
1637.4213
 11
370.00049
 21
1907.421
  0
LINE
  8
0-2
  6
CONTINUOUS
 62
    3
 10
847.49999
 20
1847.4213
 11
799.99995
 21
1637.4213
  0
LINE
  8
0-2
  6
CONTINUOUS
 62
    3
 10
1252.5001
 20
1847.4213
 11
1299.9307
 21
1637.4213
  0
LINE
  8
0-1
  6
CENTER2
 62
    7
 10
1050
 20
2520.1064
 11
1050
 21
209.99996
  0
LINE
  8
0-d
  6
CONTINUOUS
 62
    7
 10
249.99966
 20
189.99989
 11
1850.0003
 21
189.99989
  0
LINE
  8
0-d
  6
CONTINUOUS
 62
    7
 10
249.99966
 20
89.999806
 11
249.99966
 21
269.99991
  0
LINE
  8
0-d
  6
CONTINUOUS
 62
    7
 10
249.99966
 20
89.999806
 11
1850.0003
 21
89.999806
  0
LINE
  8
0-d
  6
CONTINUOUS
 62
    7
 10
1850.0003
 20
269.99991
 11
1850.0003
 21
89.999806
  0
LINE
  8
0-d
  6
CONTINUOUS
 62
    7
 10
249.99966
 20
269.99991
 11
1850.0003
 21
269.99991
  0
LINE
  8
0-d
  6
CONTINUOUS
 62
    7
 10
1050
 20
269.99991
 11
1050
 21
89.999806
  0
LINE
  8
0-d
  6
CONTINUOUS
 62
    7
 10
650.00019
 20
89.999806
 11
650.00019
 21
189.99989
  0
LINE
  8
0-d
  6
CONTINUOUS
 62
    7
 10
1050
 20
189.99989
 11
1050
 21
269.99991
  0
LINE
  8
0-d
  6
CONTINUOUS
 62
    7
 10
849.99975
 20
89.999806
 11
849.99975
 21
189.99989
  0
LINE
  8
0-d
  6
CONTINUOUS
 62
    7
 10
285.00002
 20
89.999806
 11
285.00002
 21
189.99989
  0
LINE
  8
0-d
  6
CONTINUOUS
 62
    7
 10
685.00006
 20
89.999806
 11
685.00006
 21
189.99989
  0
LINE
  8
0-d
  6
CONTINUOUS
 62
    7
 10
885.00011
 20
89.999806
 11
885.00011
 21
189.99989
  0
LINE
  8
0-d
  6
CONTINUOUS
 62
    7
 10
1015
 20
189.99989
 11
1015
 21
269.99991
  0
LINE
  8
0-d
  6
CONTINUOUS
 62
    7
 10
1550.0003
 20
189.99989
 11
1550.0003
 21
269.99991
  0
LINE
  8
0-d
  6
CONTINUOUS
 62
    7
 10
1585.0002
 20
189.99989
 11
1585.0002
 21
269.99991
  0
LINE
  8
0-2
  6
CONTINUOUS
 62
    3
 10
1500.1023
 20
1281.512
 11
1500.1023
 21
386.512
  0
LINE
  8
0-2
  6
CONTINUOUS
 62
    3
 10
599.89771
 20
1281.512
 11
1500.1023
 21
1281.512
  0
LINE
  8
0-2
  6
CONTINUOUS
 62
    3
 10
599.89771
 20
1281.512
 11
599.89771
 21
386.512
  0
LINE
  8
0-2
  6
CONTINUOUS
 62
    3
 10
1500.1023
 20
386.512
 11
599.89771
 21
386.512
  0
LINE
  8
0-2
  6
CONTINUOUS
 62
    3
 10
1050
 20
1712.4182
 11
599.89771
 21
1577.393
  0
LINE
  8
0-2
  6
CONTINUOUS
 62
    3
 10
1500.1023
 20
1577.1123
 11
1050
 21
1712.4182
  0
ARC
  8
0-2
  6
CONTINUOUS
 62
    3
 10
842.49997
 20
2141.6061
 40
6.4996998
 50
90
 51
270
  0
ARC
  8
0-2
  6
CONTINUOUS
 62
    3
 10
842.49997
 20
2200.1058
 40
6.4996998
 50
90
 51
270
  0
ARC
  8
0-2
  6
CONTINUOUS
 62
    3
 10
1257.5001
 20
2141.6061
 40
6.4996998
 50
270
 51
90
  0
ARC
  8
0-2
  6
CONTINUOUS
 62
    3
 10
1257.5001
 20
2200.1058
 40
6.4996998
 50
270
 51
90
  0
ARC
  8
0-2
  6
CONTINUOUS
 62
    3
 10
724.99995
 20
2326.8556
 40
6.4996998
 50
90
 51
270
  0
ARC
  8
0-2
  6
CONTINUOUS
 62
    3
 10
724.99995
 20
2291.6061
 40
6.4996998
 50
90
 51
270
  0
ARC
  8
0-2
  6
CONTINUOUS
 62
    3
 10
1375.0001
 20
2326.8556
 40
6.4996998
 50
270
 51
90
  0
ARC
  8
0-2
  6
CONTINUOUS
 62
    3
 10
1375.0001
 20
2291.6061
 40
6.4996998
 50
270
 51
90
  0
ARC
  8
0-2
  6
CONTINUOUS
 62
    3
 10
1252.5003
 20
1887.9209
 40
6.4996998
 50
90
 51
270
  0
ARC
  8
0-2
  6
CONTINUOUS
 62
    3
 10
847.49974
 20
1887.9209
 40
6.4996998
 50
270
 51
90
  0
CIRCLE
  8
0-2
  6
CONTINUOUS
 62
    3
 10
1050
 20
834.01204
 40
202.49999
  0
TEXT
  8
0-d
 10
510.82469
 20
1494.7763
 40
30
 41
1
 50
0
  1
3
  0
TEXT
  8
0-d
 10
437.83142
 20
1459.0301
 40
30
 41
1
 50
0.0002136
  1
10
  0
TEXT
  8
0-8
 10
1022.3751
 20
2625.0506
 40
30
 41
1
 50
0
  1
650
  0
TEXT
  8
0-8
 10
1004.5
 20
2078.5668
 40
30
 41
1
 50
0
  1
415φ
  0
TEXT
  8
0-8
 10
1004.5
 20
1984.0669
 40
30
 41
1
 50
0
  1
405φ
  0
TEXT
  8
0-8
 10
350.5005
 20
2291.105
 40
30
 41
1
 50
90
  1
385
  0
TEXT
  8
0-8
 10
350.5005
 20
1862.0461
 40
30
 41
1
 50
90
  1
60
  0
TEXT
  8
0-8
 10
350.5005
 20
1730.0464
 40
30
 41
1
 50
90
  1
210
  0
TEXT
  8
0-8
 10
1022.3533
 20
1402.2373
 40
30
 41
1
 50
0
  1
500
  0
TEXT
  8
0-8
 10
1717.0001
 20
806.38718
 40
30
 41
1
 50
90
  1
500
  0
TEXT
  8
0-8
 10
1002.7608
 20
831.2396
 40
30
 41
1
 50
19.303741
  1
405φ
  0
TEXT
  8
0-d
 10
254.9998
 20
157.49989
 40
25
 41
1
 50
0.0000305
  1
図
  0
TEXT
  8
0-d
 10
254.9998
 20
97.499955
 40
25
 41
1
 50
0
  1
番
  0
TEXT
  8
0-d
 10
655.00046
 20
157.49989
 40
25
 41
1
 50
0.0000305
  1
承
  0
TEXT
  8
0-d
 10
655.00046
 20
97.499955
 40
25
 41
1
 50
0
  1
認
  0
TEXT
  8
0-d
 10
1020.0003
 20
237.49992
 40
25
 41
1
 50
0
  1
尺
  0
TEXT
  8
0-d
 10
1020.0003
 20
197.49976
 40
25
 41
1
 50
0.0000762
  1
度
  0
TEXT
  8
0-d
 10
855.00014
 20
157.49989
 40
25
 41
1
 50
0.0000305
  1
製
  0
TEXT
  8
0-d
 10
855.00014
 20
97.499955
 40
25
 41
1
 50
0
  1
図
  0
TEXT
  8
0-d
 10
1555.0001
 20
237.49992
 40
25
 41
1
 50
0
  1
日
  0
TEXT
  8
0-d
 10
1555.0001
 20
197.49976
 40
25
 41
1
 50
0.0000762
  1
付
  0
TEXT
  8
0-d
 10
1111.4263
 20
163.48226
 40
20
 41
1
 50
0
  1
株式
  0
TEXT
  8
0-d
 10
1111.4263
 20
141.85179
 40
20
 41
1
 50
0.0000152
  1
会社
  0
TEXT
  8
0-d
 10
1174.2247
 20
143.24712
 40
40
 41
1
 50
0
  1
スズキベンチレーター
  0
TEXT
  8
0-d
 10
1237.9182
 20
94.024183
 40
20
 41
1
 50
0
  1
TEL(054)296-7000  FAX(054)296-7001
  0
TEXT
  8
0-8
 10
357.0005
 20
806.38718
 40
30
 41
1
 50
90
  1
≒ 895
  0
TEXT
  8
0-d
 10
1084.349
 20
210.10063
 40
40
 41
1
 50
0.0000152
  1
１／１０
  0
TEXT
  8
0-d
 10
308.45927
 20
140.30214
 40
30
 41
1
 50
0
  1
40-B01
  0
TEXT
  8
0-8
 10
270.98116
 20
211.22792
 40
30
 41
1
 50
0
  1
ＳＴ－４０　直付型 立面、直付袴立面・平面
  0
TEXT
  8
0-d
 10
255.00003
 20
2772.7014
 40
50
 41
1
 50
0
  1
ＳＴ－４０　直付型 立面、直付袴立面・平面
  0
TEXT
  8
0-d
 10
1235.6792
 20
118.64593
 40
20
 41
1
 50
0
  1
〒421-2114　静岡市葵区安倍口新田１５２番地
  0
POINT
  8
0-8
 62
    2
 10
370.00049
 20
2135.1061
  0
POINT
  8
0-8
 62
    2
 10
370.00049
 20
2520.1064
  0
POINT
  8
0-8
 62
    2
 10
724.99995
 20
2605.5498
  0
POINT
  8
0-8
 62
    2
 10
1375.0011
 20
2605.5498
  0
POINT
  8
0-8
 62
    2
 10
842.49997
 20
2065.5667
  0
POINT
  8
0-8
 62
    2
 10
1257.5001
 20
2065.5667
  0
POINT
  8
0-8
 62
    2
 10
370.00049
 20
1637.4213
  0
POINT
  8
0-8
 62
    2
 10
370.00049
 20
1847.4213
  0
POINT
  8
0-8
 62
    2
 10
370.00049
 20
1907.421
  0
POINT
  8
0-8
 62
    2
 10
370.00049
 20
386.512
  0
POINT
  8
0-8
 62
    2
 10
370.00049
 20
1281.512
  0
POINT
  8
0-8
 62
    2
 10
1730.0005
 20
584.01201
  0
POINT
  8
0-8
 62
    2
 10
1730.0005
 20
1084.0118
  0
POINT
  8
0-8
 62
    2
 10
799.99995
 20
1389.2373
  0
POINT
  8
0-8
 62
    2
 10
1300.0001
 20
1389.2373
  0
POINT
  8
0-8
 62
    2
 10
858.88494
 20
767.0701
  0
POINT
  8
0-8
 62
    2
 10
1241.1154
 20
900.95336
  0
POINT
  8
0-8
 62
    2
 10
847.49999
 20
1971.0668
  0
POINT
  8
0-8
 62
    2
 10
1252.5001
 20
1971.0668
  0
ENDSEC
  0
EOF
