  0
SECTION
  2
HEADER
  9
$EXTMIN
 10
0
 20
0
  9
$EXTMAX
 10
4200
 20
2970
  0
ENDSEC
  0
SECTION
  2
TABLES
  0
TABLE
  2
LTYPE
 70
     9
  0
LTYPE
  2
CONTINUOUS
 70
    64
  3
実線
 72
    65
 73
     0
 40
0.0
  0
LTYPE
  2
DASHED1
 70
    64
  3
--  --  --  --  --  --  --  --  
 72
    65
 73
     2
 40
2.5
 49
1.25
 49
-1.25
  0
LTYPE
  2
DASHED2
 70
    64
  3
----    ----    ----    ----    
 72
    65
 73
     2
 40
5.0
 49
2.5
 49
-2.5
  0
LTYPE
  2
DASHED3
 70
    64
  3
------  ------  ------  ------  
 72
    65
 73
     2
 40
5.0
 49
3.75
 49
-1.25
  0
LTYPE
  2
CENTER1
 70
    64
  3
----- - ----- - ----- - ----- - 
 72
    65
 73
     4
 40
10.0
 49
6.25
 49
-1.25
 49
1.25
 49
-1.25
  0
LTYPE
  2
CENTER2
 70
    64
  3
----------  --  ----------  --  
 72
    65
 73
     4
 40
20.0
 49
12.5
 49
-2.5
 49
2.5
 49
-2.5
  0
LTYPE
  2
PHANTOM1
 70
    64
  3
--- - - --- - - --- - - --- - - 
 72
    65
 73
     6
 40
10.0
 49
3.25
 49
-1.25
 49
1.25
 49
-1.25
 49
1.25
 49
-1.25
  0
LTYPE
  2
PHANTOM2
 70
    64
  3
--------  -  -  --------  -  -  
 72
    65
 73
     6
 40
20.0
 49
10.0
 49
-2.5
 49
1.25
 49
-2.5
 49
1.25
 49
-2.5
  0
LTYPE
  2
DOT
 70
    64
  3
-   -   -   -   -   -   -   -   
 72
    65
 73
     2
 40
2.5
 49
0.625
 49
-1.875
  0
ENDTAB
  0
TABLE
  2
STYLE
 70
    1
  0
STYLE
  2
STANDARD
 70
    64
 40
0.0
 41
1.0
 42
0.0
 50
0.0
 71
     0
  3
TXT
  4
BIGFONT
  0
ENDTAB
  0
TABLE
  2
LAYER
 70
    4
  0
LAYER
  2
1-0
 70
   64
 62
    7
  6
CONTINUOUS
  0
LAYER
  2
1-2
 70
   64
 62
    7
  6
CONTINUOUS
  0
LAYER
  2
1-d
 70
   64
 62
    7
  6
CONTINUOUS
  0
LAYER
  2
ADD_LINE
 70
   64
 62
    7
  6
CONTINUOUS
  0
ENDTAB
  0
ENDSEC
  0
SECTION
  2
ENTITIES
  0
LINE
  8
1-d
  6
CONTINUOUS
 62
    7
 10
250.00003
 20
2757.7013
 11
1850.0001
 21
2757.7013
  0
LINE
  8
1-d
  6
CONTINUOUS
 62
    7
 10
250.00003
 20
2767.7014
 11
1850.0001
 21
2767.7014
  0
LINE
  8
1-d
  6
CONTINUOUS
 62
    7
 10
249.99984
 20
129.99994
 11
1850.0005
 21
129.99994
  0
LINE
  8
1-d
  6
CONTINUOUS
 62
    7
 10
249.99984
 20
29.999945
 11
249.99984
 21
209.99993
  0
LINE
  8
1-d
  6
CONTINUOUS
 62
    7
 10
249.99984
 20
29.999945
 11
1850.0005
 21
29.999945
  0
LINE
  8
1-d
  6
CONTINUOUS
 62
    7
 10
1850.0005
 20
209.99993
 11
1850.0005
 21
29.999945
  0
LINE
  8
1-d
  6
CONTINUOUS
 62
    7
 10
249.99984
 20
209.99993
 11
1850.0005
 21
209.99993
  0
LINE
  8
1-d
  6
CONTINUOUS
 62
    7
 10
1050
 20
209.99993
 11
1050
 21
29.999945
  0
LINE
  8
1-d
  6
CONTINUOUS
 62
    7
 10
650.00019
 20
29.999945
 11
650.00019
 21
129.99994
  0
LINE
  8
1-d
  6
CONTINUOUS
 62
    7
 10
1050
 20
129.99994
 11
1050
 21
209.99996
  0
LINE
  8
1-d
  6
CONTINUOUS
 62
    7
 10
849.99987
 20
29.999945
 11
849.99987
 21
129.99994
  0
LINE
  8
1-d
  6
CONTINUOUS
 62
    7
 10
285.00021
 20
29.999945
 11
285.00021
 21
129.99994
  0
LINE
  8
1-d
  6
CONTINUOUS
 62
    7
 10
685.00006
 20
29.999945
 11
685.00006
 21
129.99994
  0
LINE
  8
1-d
  6
CONTINUOUS
 62
    7
 10
884.99999
 20
29.999945
 11
884.99999
 21
129.99994
  0
LINE
  8
1-d
  6
CONTINUOUS
 62
    7
 10
1015.0001
 20
129.99994
 11
1015.0001
 21
209.99996
  0
LINE
  8
1-d
  6
CONTINUOUS
 62
    7
 10
1550.0004
 20
129.99994
 11
1550.0004
 21
209.99996
  0
LINE
  8
1-d
  6
CONTINUOUS
 62
    7
 10
1585.0003
 20
129.99994
 11
1585.0003
 21
209.99996
  0
LINE
  8
1-0
  6
CONTINUOUS
 62
    7
 10
624.99986
 20
2460.6179
 11
1475.0014
 21
2460.6179
  0
LINE
  8
1-2
  6
CONTINUOUS
 62
    3
 10
625.0011
 20
1740.1782
 11
624.99986
 21
1656.8437
  0
LINE
  8
1-2
  6
CONTINUOUS
 62
    3
 10
787.4988
 20
1415.1784
 11
1312.4998
 21
1415.1784
  0
LINE
  8
1-2
  6
CONTINUOUS
 62
    3
 10
787.4988
 20
1431.8447
 11
1312.4998
 21
1431.8447
  0
LINE
  8
1-2
  6
CONTINUOUS
 62
    3
 10
787.50004
 20
1381.8445
 11
1312.5013
 21
1381.8445
  0
LINE
  8
1-2
  6
CONTINUOUS
 62
    3
 10
787.50004
 20
1365.1782
 11
1312.5013
 21
1365.1777
  0
LINE
  8
1-2
  6
CONTINUOUS
 62
    3
 10
787.4988
 20
1415.1784
 11
787.50004
 21
1381.8435
  0
LINE
  8
1-2
  6
CONTINUOUS
 62
    3
 10
1312.4988
 20
1415.1784
 11
1312.4998
 21
1381.8435
  0
LINE
  8
1-2
  6
CONTINUOUS
 62
    3
 10
787.50004
 20
1556.8446
 11
787.4988
 21
1431.8447
  0
LINE
  8
1-2
  6
CONTINUOUS
 62
    3
 10
1312.4988
 20
1415.1784
 11
1312.4998
 21
1381.8435
  0
LINE
  8
1-2
  6
CONTINUOUS
 62
    3
 10
1475.0014
 20
1740.1782
 11
1474.9999
 21
1656.8437
  0
LINE
  8
1-2
  6
CONTINUOUS
 62
    3
 10
624.99986
 20
2090.1779
 11
624.99986
 21
2006.8434
  0
LINE
  8
1-2
  6
CONTINUOUS
 62
    3
 10
1474.9999
 20
2090.1779
 11
1474.9999
 21
2006.8434
  0
LINE
  8
1-0
  6
CONTINUOUS
 62
    7
 10
568.55166
 20
2315.1777
 11
266.6669
 21
2315.1777
  0
LINE
  8
1-0
  6
CONTINUOUS
 62
    7
 10
1475.0014
 20
2239.5091
 11
1475.0014
 21
2460.6179
  0
LINE
  8
1-2
  6
CONTINUOUS
 62
    3
 10
624.99986
 20
1640.1774
 11
708.33314
 21
1556.8446
  0
LINE
  8
1-2
  6
CONTINUOUS
 62
    3
 10
975.96061
 20
2183.2895
 11
976.64651
 21
2183.4734
  0
LINE
  8
1-2
  6
CONTINUOUS
 62
    3
 10
976.64651
 20
2183.4734
 11
977.29084
 21
2183.7228
  0
LINE
  8
1-2
  6
CONTINUOUS
 62
    3
 10
977.29084
 20
2183.7228
 11
977.89385
 21
2184.0343
  0
LINE
  8
1-2
  6
CONTINUOUS
 62
    3
 10
977.89385
 20
2184.0343
 11
978.45678
 21
2184.402
  0
LINE
  8
1-2
  6
CONTINUOUS
 62
    3
 10
978.45678
 20
2184.402
 11
978.98011
 21
2184.8224
  0
LINE
  8
1-2
  6
CONTINUOUS
 62
    3
 10
978.98011
 20
2184.8224
 11
979.46485
 21
2185.2901
  0
LINE
  8
1-2
  6
CONTINUOUS
 62
    3
 10
979.46485
 20
2185.2901
 11
979.91148
 21
2185.8001
  0
LINE
  8
1-2
  6
CONTINUOUS
 62
    3
 10
979.91148
 20
2185.8001
 11
980.32099
 21
2186.3491
  0
LINE
  8
1-2
  6
CONTINUOUS
 62
    3
 10
980.32099
 20
2186.3491
 11
980.69364
 21
2186.9309
  0
LINE
  8
1-2
  6
CONTINUOUS
 62
    3
 10
980.69364
 20
2186.9309
 11
981.0309
 21
2187.5413
  0
LINE
  8
1-2
  6
CONTINUOUS
 62
    3
 10
981.0309
 20
2187.5413
 11
981.33302
 21
2188.1765
  0
LINE
  8
1-2
  6
CONTINUOUS
 62
    3
 10
981.33302
 20
2188.1765
 11
981.601
 21
2188.8305
  0
LINE
  8
1-2
  6
CONTINUOUS
 62
    3
 10
981.601
 20
2188.8305
 11
981.83557
 21
2189.499
  0
LINE
  8
1-2
  6
CONTINUOUS
 62
    3
 10
981.83557
 20
2189.499
 11
982.03723
 21
2190.1773
  0
LINE
  8
1-2
  6
CONTINUOUS
 62
    3
 10
972.19309
 20
2183.2527
 11
971.40004
 21
2183.5075
  0
LINE
  8
1-2
  6
CONTINUOUS
 62
    3
 10
971.40004
 20
2183.5075
 11
970.65574
 21
2183.8092
  0
LINE
  8
1-2
  6
CONTINUOUS
 62
    3
 10
970.65574
 20
2183.8092
 11
969.95994
 21
2184.1538
  0
LINE
  8
1-2
  6
CONTINUOUS
 62
    3
 10
969.95994
 20
2184.1538
 11
969.31215
 21
2184.5406
  0
LINE
  8
1-2
  6
CONTINUOUS
 62
    3
 10
969.31215
 20
2184.5406
 11
968.71161
 21
2184.9662
  0
LINE
  8
1-2
  6
CONTINUOUS
 62
    3
 10
968.71161
 20
2184.9662
 11
968.15809
 21
2185.4289
  0
LINE
  8
1-2
  6
CONTINUOUS
 62
    3
 10
968.15809
 20
2185.4289
 11
967.65083
 21
2185.9263
  0
LINE
  8
1-2
  6
CONTINUOUS
 62
    3
 10
967.65083
 20
2185.9263
 11
967.18961
 21
2186.4555
  0
LINE
  8
1-2
  6
CONTINUOUS
 62
    3
 10
967.18961
 20
2186.4555
 11
966.77341
 21
2187.0147
  0
LINE
  8
1-2
  6
CONTINUOUS
 62
    3
 10
966.77341
 20
2187.0147
 11
966.40201
 21
2187.6014
  0
LINE
  8
1-2
  6
CONTINUOUS
 62
    3
 10
966.40201
 20
2187.6014
 11
966.07489
 21
2188.2136
  0
LINE
  8
1-2
  6
CONTINUOUS
 62
    3
 10
966.07489
 20
2188.2136
 11
965.79157
 21
2188.8485
  0
LINE
  8
1-2
  6
CONTINUOUS
 62
    3
 10
965.79157
 20
2188.8485
 11
965.55155
 21
2189.504
  0
LINE
  8
1-2
  6
CONTINUOUS
 62
    3
 10
965.55155
 20
2189.504
 11
965.35385
 21
2190.1773
  0
LINE
  8
1-2
  6
CONTINUOUS
 62
    3
 10
932.63909
 20
2190.1773
 11
931.87079
 21
2189.0588
  0
LINE
  8
1-2
  6
CONTINUOUS
 62
    3
 10
931.87079
 20
2189.0588
 11
931.09358
 21
2188.0639
  0
LINE
  8
1-2
  6
CONTINUOUS
 62
    3
 10
931.09358
 20
2188.0639
 11
930.31043
 21
2187.1855
  0
LINE
  8
1-2
  6
CONTINUOUS
 62
    3
 10
930.31043
 20
2187.1855
 11
929.52456
 21
2186.4167
  0
LINE
  8
1-2
  6
CONTINUOUS
 62
    3
 10
929.52456
 20
2186.4167
 11
928.73919
 21
2185.7506
  0
LINE
  8
1-2
  6
CONTINUOUS
 62
    3
 10
928.73919
 20
2185.7506
 11
927.95678
 21
2185.1815
  0
LINE
  8
1-2
  6
CONTINUOUS
 62
    3
 10
927.95678
 20
2185.1815
 11
927.18081
 21
2184.7007
  0
LINE
  8
1-2
  6
CONTINUOUS
 62
    3
 10
927.18081
 20
2184.7007
 11
926.41424
 21
2184.3023
  0
LINE
  8
1-2
  6
CONTINUOUS
 62
    3
 10
926.41424
 20
2184.3023
 11
925.66029
 21
2183.9789
  0
LINE
  8
1-2
  6
CONTINUOUS
 62
    3
 10
925.66029
 20
2183.9789
 11
924.92169
 21
2183.725
  0
LINE
  8
1-2
  6
CONTINUOUS
 62
    3
 10
924.92169
 20
2183.725
 11
924.20164
 21
2183.5315
  0
LINE
  8
1-2
  6
CONTINUOUS
 62
    3
 10
924.20164
 20
2183.5315
 11
923.50336
 21
2183.3935
  0
LINE
  8
1-2
  6
CONTINUOUS
 62
    3
 10
923.50336
 20
2183.3935
 11
922.82958
 21
2183.3022
  0
LINE
  8
1-2
  6
CONTINUOUS
 62
    3
 10
922.82958
 20
2183.3022
 11
922.18352
 21
2183.2527
  0
LINE
  8
1-2
  6
CONTINUOUS
 62
    3
 10
916.68615
 20
2190.1773
 11
916.70916
 21
2189.3731
  0
LINE
  8
1-2
  6
CONTINUOUS
 62
    3
 10
916.70916
 20
2189.3731
 11
916.77869
 21
2188.6293
  0
LINE
  8
1-2
  6
CONTINUOUS
 62
    3
 10
916.77869
 20
2188.6293
 11
916.89696
 21
2187.9434
  0
LINE
  8
1-2
  6
CONTINUOUS
 62
    3
 10
916.89696
 20
2187.9434
 11
917.0672
 21
2187.3119
  0
LINE
  8
1-2
  6
CONTINUOUS
 62
    3
 10
917.0672
 20
2187.3119
 11
917.29188
 21
2186.7314
  0
LINE
  8
1-2
  6
CONTINUOUS
 62
    3
 10
917.29188
 20
2186.7314
 11
917.57322
 21
2186.1989
  0
LINE
  8
1-2
  6
CONTINUOUS
 62
    3
 10
917.57322
 20
2186.1989
 11
917.91419
 21
2185.711
  0
LINE
  8
1-2
  6
CONTINUOUS
 62
    3
 10
917.91419
 20
2185.711
 11
918.31702
 21
2185.2631
  0
LINE
  8
1-2
  6
CONTINUOUS
 62
    3
 10
918.31702
 20
2185.2631
 11
918.78468
 21
2184.8541
  0
LINE
  8
1-2
  6
CONTINUOUS
 62
    3
 10
918.78468
 20
2184.8541
 11
919.3194
 21
2184.4787
  0
LINE
  8
1-2
  6
CONTINUOUS
 62
    3
 10
919.3194
 20
2184.4787
 11
919.92439
 21
2184.1341
  0
LINE
  8
1-2
  6
CONTINUOUS
 62
    3
 10
919.92439
 20
2184.1341
 11
920.60139
 21
2183.8173
  0
LINE
  8
1-2
  6
CONTINUOUS
 62
    3
 10
920.60139
 20
2183.8173
 11
921.35385
 21
2183.5241
  0
LINE
  8
1-2
  6
CONTINUOUS
 62
    3
 10
921.35385
 20
2183.5241
 11
922.18352
 21
2183.2527
  0
LINE
  8
1-2
  6
CONTINUOUS
 62
    3
 10
870.90409
 20
2190.1773
 11
871.29578
 21
2189.2326
  0
LINE
  8
1-2
  6
CONTINUOUS
 62
    3
 10
871.29578
 20
2189.2326
 11
871.70381
 21
2188.3752
  0
LINE
  8
1-2
  6
CONTINUOUS
 62
    3
 10
871.70381
 20
2188.3752
 11
872.12792
 21
2187.6014
  0
LINE
  8
1-2
  6
CONTINUOUS
 62
    3
 10
872.12792
 20
2187.6014
 11
872.56738
 21
2186.9071
  0
LINE
  8
1-2
  6
CONTINUOUS
 62
    3
 10
872.56738
 20
2186.9071
 11
873.02168
 21
2186.2875
  0
LINE
  8
1-2
  6
CONTINUOUS
 62
    3
 10
873.02168
 20
2186.2875
 11
873.49082
 21
2185.7394
  0
LINE
  8
1-2
  6
CONTINUOUS
 62
    3
 10
873.49082
 20
2185.7394
 11
873.97407
 21
2185.2579
  0
LINE
  8
1-2
  6
CONTINUOUS
 62
    3
 10
873.97407
 20
2185.2579
 11
874.47143
 21
2184.8388
  0
LINE
  8
1-2
  6
CONTINUOUS
 62
    3
 10
874.47143
 20
2184.8388
 11
874.98189
 21
2184.478
  0
LINE
  8
1-2
  6
CONTINUOUS
 62
    3
 10
874.98189
 20
2184.478
 11
875.50548
 21
2184.1712
  0
LINE
  8
1-2
  6
CONTINUOUS
 62
    3
 10
875.50548
 20
2184.1712
 11
876.04168
 21
2183.9146
  0
LINE
  8
1-2
  6
CONTINUOUS
 62
    3
 10
876.04168
 20
2183.9146
 11
876.59025
 21
2183.703
  0
LINE
  8
1-2
  6
CONTINUOUS
 62
    3
 10
876.59025
 20
2183.703
 11
877.15021
 21
2183.5335
  0
LINE
  8
1-2
  6
CONTINUOUS
 62
    3
 10
877.15021
 20
2183.5335
 11
877.72204
 21
2183.4009
  0
LINE
  8
1-2
  6
CONTINUOUS
 62
    3
 10
878.97904
 20
2183.4009
 11
879.57512
 21
2183.5137
  0
LINE
  8
1-2
  6
CONTINUOUS
 62
    3
 10
879.57512
 20
2183.5137
 11
880.1665
 21
2183.6941
  0
LINE
  8
1-2
  6
CONTINUOUS
 62
    3
 10
880.1665
 20
2183.6941
 11
880.75293
 21
2183.9411
  0
LINE
  8
1-2
  6
CONTINUOUS
 62
    3
 10
880.75293
 20
2183.9411
 11
881.33466
 21
2184.2546
  0
LINE
  8
1-2
  6
CONTINUOUS
 62
    3
 10
881.33466
 20
2184.2546
 11
881.91145
 21
2184.6351
  0
LINE
  8
1-2
  6
CONTINUOUS
 62
    3
 10
881.91145
 20
2184.6351
 11
882.48353
 21
2185.0825
  0
LINE
  8
1-2
  6
CONTINUOUS
 62
    3
 10
882.48353
 20
2185.0825
 11
883.05066
 21
2185.5972
  0
LINE
  8
1-2
  6
CONTINUOUS
 62
    3
 10
883.05066
 20
2185.5972
 11
883.61309
 21
2186.1784
  0
LINE
  8
1-2
  6
CONTINUOUS
 62
    3
 10
883.61309
 20
2186.1784
 11
884.17057
 21
2186.8262
  0
LINE
  8
1-2
  6
CONTINUOUS
 62
    3
 10
828.99891
 20
2190.1773
 11
829.11224
 21
2189.4572
  0
LINE
  8
1-2
  6
CONTINUOUS
 62
    3
 10
829.11224
 20
2189.4572
 11
829.27308
 21
2188.7867
  0
LINE
  8
1-2
  6
CONTINUOUS
 62
    3
 10
829.27308
 20
2188.7867
 11
829.47796
 21
2188.1631
  0
LINE
  8
1-2
  6
CONTINUOUS
 62
    3
 10
829.47796
 20
2188.1631
 11
829.72267
 21
2187.5863
  0
LINE
  8
1-2
  6
CONTINUOUS
 62
    3
 10
829.72267
 20
2187.5863
 11
830.00377
 21
2187.0531
  0
LINE
  8
1-2
  6
CONTINUOUS
 62
    3
 10
830.00377
 20
2187.0531
 11
830.31826
 21
2186.5614
  0
LINE
  8
1-2
  6
CONTINUOUS
 62
    3
 10
830.31826
 20
2186.5614
 11
830.66245
 21
2186.1099
  0
LINE
  8
1-2
  6
CONTINUOUS
 62
    3
 10
830.66245
 20
2186.1099
 11
831.03386
 21
2185.6979
  0
LINE
  8
1-2
  6
CONTINUOUS
 62
    3
 10
831.03386
 20
2185.6979
 11
831.42976
 21
2185.3225
  0
LINE
  8
1-2
  6
CONTINUOUS
 62
    3
 10
831.42976
 20
2185.3225
 11
831.84694
 21
2184.9835
  0
LINE
  8
1-2
  6
CONTINUOUS
 62
    3
 10
831.84694
 20
2184.9835
 11
832.28343
 21
2184.6792
  0
LINE
  8
1-2
  6
CONTINUOUS
 62
    3
 10
832.28343
 20
2184.6792
 11
832.73699
 21
2184.4092
  0
LINE
  8
1-2
  6
CONTINUOUS
 62
    3
 10
832.73699
 20
2184.4092
 11
833.20564
 21
2184.1717
  0
LINE
  8
1-2
  6
CONTINUOUS
 62
    3
 10
833.20564
 20
2184.1717
 11
833.68715
 21
2183.9663
  0
LINE
  8
1-2
  6
CONTINUOUS
 62
    3
 10
833.68715
 20
2183.9663
 11
834.1803
 21
2183.7926
  0
LINE
  8
1-2
  6
CONTINUOUS
 62
    3
 10
834.1803
 20
2183.7926
 11
834.68359
 21
2183.6491
  0
LINE
  8
1-2
  6
CONTINUOUS
 62
    3
 10
834.68359
 20
2183.6491
 11
835.1953
 21
2183.536
  0
LINE
  8
1-2
  6
CONTINUOUS
 62
    3
 10
835.1953
 20
2183.536
 11
835.71492
 21
2183.4536
  0
LINE
  8
1-2
  6
CONTINUOUS
 62
    3
 10
835.71492
 20
2183.4536
 11
836.24098
 21
2183.4009
  0
LINE
  8
1-2
  6
CONTINUOUS
 62
    3
 10
836.37386
 20
2183.4066
 11
836.67004
 21
2183.4363
  0
LINE
  8
1-2
  6
CONTINUOUS
 62
    3
 10
836.67004
 20
2183.4363
 11
836.96128
 21
2183.4783
  0
LINE
  8
1-2
  6
CONTINUOUS
 62
    3
 10
836.96128
 20
2183.4783
 11
837.24732
 21
2183.5333
  0
LINE
  8
1-2
  6
CONTINUOUS
 62
    3
 10
837.24732
 20
2183.5333
 11
837.52816
 21
2183.6008
  0
LINE
  8
1-2
  6
CONTINUOUS
 62
    3
 10
837.52816
 20
2183.6008
 11
837.80406
 21
2183.6812
  0
LINE
  8
1-2
  6
CONTINUOUS
 62
    3
 10
837.80406
 20
2183.6812
 11
838.07501
 21
2183.7745
  0
LINE
  8
1-2
  6
CONTINUOUS
 62
    3
 10
838.07501
 20
2183.7745
 11
838.34051
 21
2183.8799
  0
LINE
  8
1-2
  6
CONTINUOUS
 62
    3
 10
838.34051
 20
2183.8799
 11
838.60106
 21
2183.9987
  0
LINE
  8
1-2
  6
CONTINUOUS
 62
    3
 10
838.60106
 20
2183.9987
 11
838.85642
 21
2184.1308
  0
LINE
  8
1-2
  6
CONTINUOUS
 62
    3
 10
716.6345
 20
2190.1773
 11
716.73595
 21
2189.4199
  0
LINE
  8
1-2
  6
CONTINUOUS
 62
    3
 10
716.73595
 20
2189.4199
 11
716.8431
 21
2188.7273
  0
LINE
  8
1-2
  6
CONTINUOUS
 62
    3
 10
716.8431
 20
2188.7273
 11
716.95642
 21
2188.1
  0
LINE
  8
1-2
  6
CONTINUOUS
 62
    3
 10
716.95642
 20
2188.1
 11
717.07544
 21
2187.5381
  0
LINE
  8
1-2
  6
CONTINUOUS
 62
    3
 10
717.07544
 20
2187.5381
 11
717.2004
 21
2187.042
  0
LINE
  8
1-2
  6
CONTINUOUS
 62
    3
 10
717.2004
 20
2187.042
 11
717.33129
 21
2186.6109
  0
LINE
  8
1-2
  6
CONTINUOUS
 62
    3
 10
717.33129
 20
2186.6109
 11
717.46813
 21
2186.2455
  0
LINE
  8
1-2
  6
CONTINUOUS
 62
    3
 10
717.46813
 20
2186.2455
 11
717.61065
 21
2185.9453
  0
LINE
  8
1-2
  6
CONTINUOUS
 62
    3
 10
717.61065
 20
2185.9453
 11
717.75912
 21
2185.711
  0
LINE
  8
1-2
  6
CONTINUOUS
 62
    3
 10
735.08065
 20
2190.1773
 11
735.13682
 21
2189.5772
  0
LINE
  8
1-2
  6
CONTINUOUS
 62
    3
 10
735.13682
 20
2189.5772
 11
735.22961
 21
2189.0099
  0
LINE
  8
1-2
  6
CONTINUOUS
 62
    3
 10
735.22961
 20
2189.0099
 11
735.35481
 21
2188.4749
  0
LINE
  8
1-2
  6
CONTINUOUS
 62
    3
 10
735.35481
 20
2188.4749
 11
735.50921
 21
2187.9731
  0
LINE
  8
1-2
  6
CONTINUOUS
 62
    3
 10
735.50921
 20
2187.9731
 11
735.68935
 21
2187.5042
  0
LINE
  8
1-2
  6
CONTINUOUS
 62
    3
 10
735.68935
 20
2187.5042
 11
735.89151
 21
2187.0692
  0
LINE
  8
1-2
  6
CONTINUOUS
 62
    3
 10
735.89151
 20
2187.0692
 11
736.11173
 21
2186.6671
  0
LINE
  8
1-2
  6
CONTINUOUS
 62
    3
 10
736.11173
 20
2186.6671
 11
736.3468
 21
2186.2984
  0
LINE
  8
1-2
  6
CONTINUOUS
 62
    3
 10
736.3468
 20
2186.2984
 11
736.593
 21
2185.9634
  0
LINE
  8
1-2
  6
CONTINUOUS
 62
    3
 10
736.593
 20
2185.9634
 11
736.84687
 21
2185.6625
  0
LINE
  8
1-2
  6
CONTINUOUS
 62
    3
 10
736.84687
 20
2185.6625
 11
737.10446
 21
2185.396
  0
LINE
  8
1-2
  6
CONTINUOUS
 62
    3
 10
737.10446
 20
2185.396
 11
737.36254
 21
2185.1634
  0
LINE
  8
1-2
  6
CONTINUOUS
 62
    3
 10
737.36254
 20
2185.1634
 11
737.6174
 21
2184.9655
  0
LINE
  8
1-2
  6
CONTINUOUS
 62
    3
 10
737.6174
 20
2184.9655
 11
737.86558
 21
2184.8021
  0
LINE
  8
1-2
  6
CONTINUOUS
 62
    3
 10
760.34426
 20
2190.1773
 11
760.51177
 21
2189.5092
  0
LINE
  8
1-2
  6
CONTINUOUS
 62
    3
 10
760.51177
 20
2189.5092
 11
760.71566
 21
2188.8842
  0
LINE
  8
1-2
  6
CONTINUOUS
 62
    3
 10
760.71566
 20
2188.8842
 11
760.95469
 21
2188.3009
  0
LINE
  8
1-2
  6
CONTINUOUS
 62
    3
 10
760.95469
 20
2188.3009
 11
761.22687
 21
2187.7595
  0
LINE
  8
1-2
  6
CONTINUOUS
 62
    3
 10
761.22687
 20
2187.7595
 11
761.53122
 21
2187.2592
  0
LINE
  8
1-2
  6
CONTINUOUS
 62
    3
 10
761.53122
 20
2187.2592
 11
761.86601
 21
2186.8007
  0
LINE
  8
1-2
  6
CONTINUOUS
 62
    3
 10
761.86601
 20
2186.8007
 11
762.22999
 21
2186.3828
  0
LINE
  8
1-2
  6
CONTINUOUS
 62
    3
 10
762.22999
 20
2186.3828
 11
762.62169
 21
2186.0054
  0
LINE
  8
1-2
  6
CONTINUOUS
 62
    3
 10
762.62169
 20
2186.0054
 11
763.03937
 21
2185.6687
  0
LINE
  8
1-2
  6
CONTINUOUS
 62
    3
 10
763.03937
 20
2185.6687
 11
763.48179
 21
2185.3713
  0
LINE
  8
1-2
  6
CONTINUOUS
 62
    3
 10
763.48179
 20
2185.3713
 11
763.94747
 21
2185.1139
  0
LINE
  8
1-2
  6
CONTINUOUS
 62
    3
 10
763.94747
 20
2185.1139
 11
764.43493
 21
2184.8954
  0
LINE
  8
1-2
  6
CONTINUOUS
 62
    3
 10
764.43493
 20
2184.8954
 11
764.94243
 21
2184.716
  0
LINE
  8
1-2
  6
CONTINUOUS
 62
    3
 10
764.94243
 20
2184.716
 11
765.46923
 21
2184.575
  0
LINE
  8
1-2
  6
CONTINUOUS
 62
    3
 10
791.86364
 20
2190.1773
 11
792.11701
 21
2189.4775
  0
LINE
  8
1-2
  6
CONTINUOUS
 62
    3
 10
792.11701
 20
2189.4775
 11
792.4137
 21
2188.8287
  0
LINE
  8
1-2
  6
CONTINUOUS
 62
    3
 10
792.4137
 20
2188.8287
 11
792.75021
 21
2188.2309
  0
LINE
  8
1-2
  6
CONTINUOUS
 62
    3
 10
792.75021
 20
2188.2309
 11
793.12311
 21
2187.6848
  0
LINE
  8
1-2
  6
CONTINUOUS
 62
    3
 10
793.12311
 20
2187.6848
 11
793.52841
 21
2187.1899
  0
LINE
  8
1-2
  6
CONTINUOUS
 62
    3
 10
793.52841
 20
2187.1899
 11
793.96242
 21
2186.7465
  0
LINE
  8
1-2
  6
CONTINUOUS
 62
    3
 10
793.96242
 20
2186.7465
 11
794.42167
 21
2186.3543
  0
LINE
  8
1-2
  6
CONTINUOUS
 62
    3
 10
794.42167
 20
2186.3543
 11
794.9017
 21
2186.0121
  0
LINE
  8
1-2
  6
CONTINUOUS
 62
    3
 10
794.9017
 20
2186.0121
 11
795.39881
 21
2185.7201
  0
LINE
  8
1-2
  6
CONTINUOUS
 62
    3
 10
795.39881
 20
2185.7201
 11
795.90878
 21
2185.4769
  0
LINE
  8
1-2
  6
CONTINUOUS
 62
    3
 10
795.90878
 20
2185.4769
 11
796.42742
 21
2185.2817
  0
LINE
  8
1-2
  6
CONTINUOUS
 62
    3
 10
796.42742
 20
2185.2817
 11
796.95001
 21
2185.133
  0
LINE
  8
1-2
  6
CONTINUOUS
 62
    3
 10
796.95001
 20
2185.133
 11
797.4726
 21
2185.0298
  0
LINE
  8
1-2
  6
CONTINUOUS
 62
    3
 10
797.4726
 20
2185.0298
 11
797.99049
 21
2184.9699
  0
LINE
  8
1-2
  6
CONTINUOUS
 62
    3
 10
797.99049
 20
2184.9699
 11
798.49874
 21
2184.9523
  0
LINE
  8
1-2
  6
CONTINUOUS
 62
    3
 10
798.49874
 20
2184.9523
 11
798.99312
 21
2184.9741
  0
LINE
  8
1-2
  6
CONTINUOUS
 62
    3
 10
798.99312
 20
2184.9741
 11
799.4687
 21
2185.0335
  0
LINE
  8
1-2
  6
CONTINUOUS
 62
    3
 10
799.4687
 20
2185.0335
 11
799.92028
 21
2185.1288
  0
LINE
  8
1-2
  6
CONTINUOUS
 62
    3
 10
799.92028
 20
2185.1288
 11
800.3429
 21
2185.2567
  0
LINE
  8
1-2
  6
CONTINUOUS
 62
    3
 10
716.6345
 20
2190.1773
 11
708.3329
 21
2190.1773
  0
LINE
  8
1-2
  6
CONTINUOUS
 62
    3
 10
635.32577
 20
2106.8445
 11
716.6345
 21
2190.1773
  0
LINE
  8
1-2
  6
CONTINUOUS
 62
    3
 10
721.99801
 20
2190.1773
 11
641.99749
 21
2106.8445
  0
LINE
  8
1-2
  6
CONTINUOUS
 62
    3
 10
658.27112
 20
2106.8445
 11
735.08065
 21
2190.1773
  0
LINE
  8
1-2
  6
CONTINUOUS
 62
    3
 10
735.08065
 20
2190.1773
 11
721.99801
 21
2190.1773
  0
LINE
  8
1-2
  6
CONTINUOUS
 62
    3
 10
742.7686
 20
2190.1773
 11
667.83392
 21
2106.8445
  0
LINE
  8
1-2
  6
CONTINUOUS
 62
    3
 10
760.34426
 20
2190.1773
 11
742.7686
 21
2190.1773
  0
LINE
  8
1-2
  6
CONTINUOUS
 62
    3
 10
689.69647
 20
2106.8445
 11
760.34426
 21
2190.1773
  0
LINE
  8
1-2
  6
CONTINUOUS
 62
    3
 10
770.18989
 20
2190.1773
 11
701.94326
 21
2106.8445
  0
LINE
  8
1-2
  6
CONTINUOUS
 62
    3
 10
791.87774
 20
2190.1773
 11
770.18989
 21
2190.1773
  0
LINE
  8
1-2
  6
CONTINUOUS
 62
    3
 10
728.92113
 20
2106.8445
 11
791.87774
 21
2190.1773
  0
LINE
  8
1-2
  6
CONTINUOUS
 62
    3
 10
803.668
 20
2190.1773
 11
743.58689
 21
2106.8445
  0
LINE
  8
1-2
  6
CONTINUOUS
 62
    3
 10
828.99891
 20
2190.1773
 11
803.668
 21
2190.1773
  0
LINE
  8
1-2
  6
CONTINUOUS
 62
    3
 10
775.09612
 20
2106.8445
 11
828.99891
 21
2190.1773
  0
LINE
  8
1-2
  6
CONTINUOUS
 62
    3
 10
842.47869
 20
2190.1773
 11
791.86364
 21
2106.8445
  0
LINE
  8
1-2
  6
CONTINUOUS
 62
    3
 10
870.90409
 20
2190.1773
 11
842.47869
 21
2190.1773
  0
LINE
  8
1-2
  6
CONTINUOUS
 62
    3
 10
827.22205
 20
2106.8445
 11
870.90409
 21
2190.1773
  0
LINE
  8
1-2
  6
CONTINUOUS
 62
    3
 10
885.78141
 20
2190.1773
 11
845.72807
 21
2106.8445
  0
LINE
  8
1-2
  6
CONTINUOUS
 62
    3
 10
916.68615
 20
2190.1773
 11
885.78141
 21
2190.1773
  0
LINE
  8
1-2
  6
CONTINUOUS
 62
    3
 10
884.17057
 20
2106.8445
 11
916.68615
 21
2190.1773
  0
LINE
  8
1-2
  6
CONTINUOUS
 62
    3
 10
904.01426
 20
2106.8445
 11
932.63909
 21
2190.1773
  0
LINE
  8
1-2
  6
CONTINUOUS
 62
    3
 10
965.35385
 20
2190.1773
 11
932.63909
 21
2190.1773
  0
LINE
  8
1-2
  6
CONTINUOUS
 62
    3
 10
965.35385
 20
2190.1773
 11
944.70846
 21
2106.8445
  0
LINE
  8
1-2
  6
CONTINUOUS
 62
    3
 10
965.46074
 20
2106.8445
 11
982.03723
 21
2190.1773
  0
LINE
  8
1-2
  6
CONTINUOUS
 62
    3
 10
1015.8543
 20
2190.1773
 11
982.03723
 21
2190.1773
  0
LINE
  8
1-2
  6
CONTINUOUS
 62
    3
 10
1015.8543
 20
2190.1773
 11
1007.526
 21
2106.8445
  0
LINE
  8
1-2
  6
CONTINUOUS
 62
    3
 10
1032.9064
 20
2190.1773
 11
1028.7373
 21
2106.8445
  0
LINE
  8
1-2
  6
CONTINUOUS
 62
    3
 10
1050
 20
2190.1773
 11
1032.9064
 21
2190.1773
  0
LINE
  8
1-2
  6
CONTINUOUS
 62
    3
 10
1383.3655
 20
2190.1773
 11
1383.2641
 21
2189.4199
  0
LINE
  8
1-2
  6
CONTINUOUS
 62
    3
 10
1383.2641
 20
2189.4199
 11
1383.1567
 21
2188.7273
  0
LINE
  8
1-2
  6
CONTINUOUS
 62
    3
 10
1383.1567
 20
2188.7273
 11
1383.0439
 21
2188.1
  0
LINE
  8
1-2
  6
CONTINUOUS
 62
    3
 10
1383.0439
 20
2188.1
 11
1382.9246
 21
2187.5381
  0
LINE
  8
1-2
  6
CONTINUOUS
 62
    3
 10
1382.9246
 20
2187.5381
 11
1382.7994
 21
2187.042
  0
LINE
  8
1-2
  6
CONTINUOUS
 62
    3
 10
1382.7994
 20
2187.042
 11
1382.6688
 21
2186.6109
  0
LINE
  8
1-2
  6
CONTINUOUS
 62
    3
 10
1382.6688
 20
2186.6109
 11
1382.5317
 21
2186.2455
  0
LINE
  8
1-2
  6
CONTINUOUS
 62
    3
 10
1382.5317
 20
2186.2455
 11
1382.3892
 21
2185.9453
  0
LINE
  8
1-2
  6
CONTINUOUS
 62
    3
 10
1382.3892
 20
2185.9453
 11
1382.2407
 21
2185.711
  0
LINE
  8
1-2
  6
CONTINUOUS
 62
    3
 10
1364.9189
 20
2190.1773
 11
1364.863
 21
2189.5772
  0
LINE
  8
1-2
  6
CONTINUOUS
 62
    3
 10
1364.863
 20
2189.5772
 11
1364.7704
 21
2189.0099
  0
LINE
  8
1-2
  6
CONTINUOUS
 62
    3
 10
1364.7704
 20
2189.0099
 11
1364.6447
 21
2188.4749
  0
LINE
  8
1-2
  6
CONTINUOUS
 62
    3
 10
1364.6447
 20
2188.4749
 11
1364.4908
 21
2187.9731
  0
LINE
  8
1-2
  6
CONTINUOUS
 62
    3
 10
1364.4908
 20
2187.9731
 11
1364.3102
 21
2187.5042
  0
LINE
  8
1-2
  6
CONTINUOUS
 62
    3
 10
1364.3102
 20
2187.5042
 11
1364.1083
 21
2187.0692
  0
LINE
  8
1-2
  6
CONTINUOUS
 62
    3
 10
1364.1083
 20
2187.0692
 11
1363.8881
 21
2186.6671
  0
LINE
  8
1-2
  6
CONTINUOUS
 62
    3
 10
1363.8881
 20
2186.6671
 11
1363.653
 21
2186.2984
  0
LINE
  8
1-2
  6
CONTINUOUS
 62
    3
 10
1363.653
 20
2186.2984
 11
1363.4071
 21
2185.9634
  0
LINE
  8
1-2
  6
CONTINUOUS
 62
    3
 10
1363.4071
 20
2185.9634
 11
1363.1532
 21
2185.6625
  0
LINE
  8
1-2
  6
CONTINUOUS
 62
    3
 10
1363.1532
 20
2185.6625
 11
1362.8953
 21
2185.396
  0
LINE
  8
1-2
  6
CONTINUOUS
 62
    3
 10
1362.8953
 20
2185.396
 11
1362.6375
 21
2185.1634
  0
LINE
  8
1-2
  6
CONTINUOUS
 62
    3
 10
1362.6375
 20
2185.1634
 11
1362.3827
 21
2184.9655
  0
LINE
  8
1-2
  6
CONTINUOUS
 62
    3
 10
1362.3827
 20
2184.9655
 11
1362.1342
 21
2184.8021
  0
LINE
  8
1-2
  6
CONTINUOUS
 62
    3
 10
1339.6558
 20
2190.1773
 11
1339.488
 21
2189.5092
  0
LINE
  8
1-2
  6
CONTINUOUS
 62
    3
 10
1339.488
 20
2189.5092
 11
1339.2841
 21
2188.8842
  0
LINE
  8
1-2
  6
CONTINUOUS
 62
    3
 10
1339.2841
 20
2188.8842
 11
1339.0451
 21
2188.3009
  0
LINE
  8
1-2
  6
CONTINUOUS
 62
    3
 10
1339.0451
 20
2188.3009
 11
1338.7729
 21
2187.7595
  0
LINE
  8
1-2
  6
CONTINUOUS
 62
    3
 10
1338.7729
 20
2187.7595
 11
1338.4686
 21
2187.2592
  0
LINE
  8
1-2
  6
CONTINUOUS
 62
    3
 10
1338.4686
 20
2187.2592
 11
1338.1335
 21
2186.8007
  0
LINE
  8
1-2
  6
CONTINUOUS
 62
    3
 10
1338.1335
 20
2186.8007
 11
1337.7698
 21
2186.3828
  0
LINE
  8
1-2
  6
CONTINUOUS
 62
    3
 10
1337.7698
 20
2186.3828
 11
1337.3784
 21
2186.0054
  0
LINE
  8
1-2
  6
CONTINUOUS
 62
    3
 10
1337.3784
 20
2186.0054
 11
1336.9607
 21
2185.6687
  0
LINE
  8
1-2
  6
CONTINUOUS
 62
    3
 10
1336.9607
 20
2185.6687
 11
1336.5183
 21
2185.3713
  0
LINE
  8
1-2
  6
CONTINUOUS
 62
    3
 10
1336.5183
 20
2185.3713
 11
1336.0526
 21
2185.1139
  0
LINE
  8
1-2
  6
CONTINUOUS
 62
    3
 10
1336.0526
 20
2185.1139
 11
1335.5651
 21
2184.8954
  0
LINE
  8
1-2
  6
CONTINUOUS
 62
    3
 10
1335.5651
 20
2184.8954
 11
1335.0574
 21
2184.716
  0
LINE
  8
1-2
  6
CONTINUOUS
 62
    3
 10
1335.0574
 20
2184.716
 11
1334.5308
 21
2184.575
  0
LINE
  8
1-2
  6
CONTINUOUS
 62
    3
 10
1308.1364
 20
2190.1773
 11
1307.883
 21
2189.4775
  0
LINE
  8
1-2
  6
CONTINUOUS
 62
    3
 10
1307.883
 20
2189.4775
 11
1307.5861
 21
2188.8287
  0
LINE
  8
1-2
  6
CONTINUOUS
 62
    3
 10
1307.5861
 20
2188.8287
 11
1307.2496
 21
2188.2309
  0
LINE
  8
1-2
  6
CONTINUOUS
 62
    3
 10
1307.2496
 20
2188.2309
 11
1306.8769
 21
2187.6848
  0
LINE
  8
1-2
  6
CONTINUOUS
 62
    3
 10
1306.8769
 20
2187.6848
 11
1306.4716
 21
2187.1899
  0
LINE
  8
1-2
  6
CONTINUOUS
 62
    3
 10
1306.4716
 20
2187.1899
 11
1306.0376
 21
2186.7465
  0
LINE
  8
1-2
  6
CONTINUOUS
 62
    3
 10
1306.0376
 20
2186.7465
 11
1305.5784
 21
2186.3543
  0
LINE
  8
1-2
  6
CONTINUOUS
 62
    3
 10
1305.5784
 20
2186.3543
 11
1305.0979
 21
2186.0121
  0
LINE
  8
1-2
  6
CONTINUOUS
 62
    3
 10
1305.0979
 20
2186.0121
 11
1304.601
 21
2185.7201
  0
LINE
  8
1-2
  6
CONTINUOUS
 62
    3
 10
1304.601
 20
2185.7201
 11
1304.0908
 21
2185.4769
  0
LINE
  8
1-2
  6
CONTINUOUS
 62
    3
 10
1304.0908
 20
2185.4769
 11
1303.5726
 21
2185.2817
  0
LINE
  8
1-2
  6
CONTINUOUS
 62
    3
 10
1303.5726
 20
2185.2817
 11
1303.0495
 21
2185.133
  0
LINE
  8
1-2
  6
CONTINUOUS
 62
    3
 10
1303.0495
 20
2185.133
 11
1302.527
 21
2185.0298
  0
LINE
  8
1-2
  6
CONTINUOUS
 62
    3
 10
1302.527
 20
2185.0298
 11
1302.0098
 21
2184.9699
  0
LINE
  8
1-2
  6
CONTINUOUS
 62
    3
 10
1302.0098
 20
2184.9699
 11
1301.5011
 21
2184.9523
  0
LINE
  8
1-2
  6
CONTINUOUS
 62
    3
 10
1301.5011
 20
2184.9523
 11
1301.0067
 21
2184.9741
  0
LINE
  8
1-2
  6
CONTINUOUS
 62
    3
 10
1301.0067
 20
2184.9741
 11
1300.5311
 21
2185.0335
  0
LINE
  8
1-2
  6
CONTINUOUS
 62
    3
 10
1300.5311
 20
2185.0335
 11
1300.0798
 21
2185.1288
  0
LINE
  8
1-2
  6
CONTINUOUS
 62
    3
 10
1300.0798
 20
2185.1288
 11
1299.6571
 21
2185.2567
  0
LINE
  8
1-2
  6
CONTINUOUS
 62
    3
 10
1383.3655
 20
2190.1773
 11
1391.6672
 21
2190.1773
  0
LINE
  8
1-2
  6
CONTINUOUS
 62
    3
 10
1464.6743
 20
2106.8445
 11
1383.3655
 21
2190.1773
  0
LINE
  8
1-2
  6
CONTINUOUS
 62
    3
 10
1441.7287
 20
2106.8445
 11
1364.9189
 21
2190.1773
  0
LINE
  8
1-2
  6
CONTINUOUS
 62
    3
 10
1364.9189
 20
2190.1773
 11
1378.002
 21
2190.1773
  0
LINE
  8
1-2
  6
CONTINUOUS
 62
    3
 10
1339.6558
 20
2190.1773
 11
1357.2314
 21
2190.1773
  0
LINE
  8
1-2
  6
CONTINUOUS
 62
    3
 10
1410.3033
 20
2106.8445
 11
1339.6558
 21
2190.1773
  0
LINE
  8
1-2
  6
CONTINUOUS
 62
    3
 10
1308.1221
 20
2190.1773
 11
1329.8102
 21
2190.1773
  0
LINE
  8
1-2
  6
CONTINUOUS
 62
    3
 10
1007.526
 20
1990.1776
 11
1007.526
 21
1756.8446
  0
LINE
  8
1-2
  6
CONTINUOUS
 62
    3
 10
965.46099
 20
1990.1776
 11
965.46099
 21
1756.8446
  0
LINE
  8
1-2
  6
CONTINUOUS
 62
    3
 10
884.17057
 20
1990.1776
 11
884.17057
 21
1756.8446
  0
LINE
  8
1-2
  6
CONTINUOUS
 62
    3
 10
845.72807
 20
1990.1776
 11
845.72807
 21
1756.8446
  0
LINE
  8
1-2
  6
CONTINUOUS
 62
    3
 10
775.09612
 20
1990.1776
 11
775.09612
 21
1756.8446
  0
LINE
  8
1-2
  6
CONTINUOUS
 62
    3
 10
743.58689
 20
1990.1776
 11
743.58689
 21
1756.8446
  0
LINE
  8
1-2
  6
CONTINUOUS
 62
    3
 10
689.69647
 20
1990.1776
 11
689.69647
 21
1756.8446
  0
LINE
  8
1-2
  6
CONTINUOUS
 62
    3
 10
965.46099
 20
1756.8446
 11
884.17057
 21
1777.0455
  0
LINE
  8
1-2
  6
CONTINUOUS
 62
    3
 10
743.58689
 20
1756.8446
 11
689.69647
 21
1777.0455
  0
LINE
  8
1-2
  6
CONTINUOUS
 62
    3
 10
789.35435
 20
1990.1776
 11
789.35435
 21
1756.8446
  0
LINE
  8
1-2
  6
CONTINUOUS
 62
    3
 10
806.02091
 20
1990.1776
 11
806.02091
 21
1756.8446
  0
LINE
  8
1-2
  6
CONTINUOUS
 62
    3
 10
845.72807
 20
1756.8446
 11
806.02091
 21
1768.2011
  0
LINE
  8
1-2
  6
CONTINUOUS
 62
    3
 10
789.35435
 20
1772.9677
 11
775.09637
 21
1777.0455
  0
LINE
  8
1-2
  6
CONTINUOUS
 62
    3
 10
624.99986
 20
1656.8442
 11
624.99986
 21
1740.1785
  0
LINE
  8
1-2
  6
CONTINUOUS
 62
    3
 10
624.99986
 20
1640.1774
 11
708.3329
 21
1556.8446
  0
LINE
  8
1-2
  6
CONTINUOUS
 62
    3
 10
975.96061
 20
1563.7326
 11
976.64651
 21
1563.549
  0
LINE
  8
1-2
  6
CONTINUOUS
 62
    3
 10
976.64651
 20
1563.549
 11
977.29084
 21
1563.2996
  0
LINE
  8
1-2
  6
CONTINUOUS
 62
    3
 10
977.29084
 20
1563.2996
 11
977.89385
 21
1562.9878
  0
LINE
  8
1-2
  6
CONTINUOUS
 62
    3
 10
977.89385
 20
1562.9878
 11
978.45678
 21
1562.6199
  0
LINE
  8
1-2
  6
CONTINUOUS
 62
    3
 10
978.45678
 20
1562.6199
 11
978.98011
 21
1562.2
  0
LINE
  8
1-2
  6
CONTINUOUS
 62
    3
 10
978.98011
 20
1562.2
 11
979.46485
 21
1561.7323
  0
LINE
  8
1-2
  6
CONTINUOUS
 62
    3
 10
979.46485
 20
1561.7323
 11
979.91148
 21
1561.2218
  0
LINE
  8
1-2
  6
CONTINUOUS
 62
    3
 10
979.91148
 20
1561.2218
 11
980.32099
 21
1560.6733
  0
LINE
  8
1-2
  6
CONTINUOUS
 62
    3
 10
980.32099
 20
1560.6733
 11
980.69364
 21
1560.0915
  0
LINE
  8
1-2
  6
CONTINUOUS
 62
    3
 10
980.69364
 20
1560.0915
 11
981.0309
 21
1559.4806
  0
LINE
  8
1-2
  6
CONTINUOUS
 62
    3
 10
981.0309
 20
1559.4806
 11
981.33302
 21
1558.8457
  0
LINE
  8
1-2
  6
CONTINUOUS
 62
    3
 10
981.33302
 20
1558.8457
 11
981.601
 21
1558.1919
  0
LINE
  8
1-2
  6
CONTINUOUS
 62
    3
 10
981.601
 20
1558.1919
 11
981.83557
 21
1557.5234
  0
LINE
  8
1-2
  6
CONTINUOUS
 62
    3
 10
981.83557
 20
1557.5234
 11
982.03723
 21
1556.8446
  0
LINE
  8
1-2
  6
CONTINUOUS
 62
    3
 10
972.19309
 20
1563.7697
 11
971.40004
 21
1563.5149
  0
LINE
  8
1-2
  6
CONTINUOUS
 62
    3
 10
971.40004
 20
1563.5149
 11
970.65574
 21
1563.213
  0
LINE
  8
1-2
  6
CONTINUOUS
 62
    3
 10
970.65574
 20
1563.213
 11
969.95994
 21
1562.8681
  0
LINE
  8
1-2
  6
CONTINUOUS
 62
    3
 10
969.95994
 20
1562.8681
 11
969.31215
 21
1562.4813
  0
LINE
  8
1-2
  6
CONTINUOUS
 62
    3
 10
969.31215
 20
1562.4813
 11
968.71161
 21
1562.0557
  0
LINE
  8
1-2
  6
CONTINUOUS
 62
    3
 10
968.71161
 20
1562.0557
 11
968.15809
 21
1561.5935
  0
LINE
  8
1-2
  6
CONTINUOUS
 62
    3
 10
968.15809
 20
1561.5935
 11
967.65083
 21
1561.0961
  0
LINE
  8
1-2
  6
CONTINUOUS
 62
    3
 10
967.65083
 20
1561.0961
 11
967.18961
 21
1560.5669
  0
LINE
  8
1-2
  6
CONTINUOUS
 62
    3
 10
967.18961
 20
1560.5669
 11
966.77341
 21
1560.0077
  0
LINE
  8
1-2
  6
CONTINUOUS
 62
    3
 10
966.77341
 20
1560.0077
 11
966.40201
 21
1559.421
  0
LINE
  8
1-2
  6
CONTINUOUS
 62
    3
 10
966.40201
 20
1559.421
 11
966.07489
 21
1558.8086
  0
LINE
  8
1-2
  6
CONTINUOUS
 62
    3
 10
966.07489
 20
1558.8086
 11
965.79157
 21
1558.1734
  0
LINE
  8
1-2
  6
CONTINUOUS
 62
    3
 10
965.79157
 20
1558.1734
 11
965.55155
 21
1557.5184
  0
LINE
  8
1-2
  6
CONTINUOUS
 62
    3
 10
965.55155
 20
1557.5184
 11
965.35385
 21
1556.8446
  0
LINE
  8
1-2
  6
CONTINUOUS
 62
    3
 10
932.63909
 20
1556.8446
 11
931.87079
 21
1557.9631
  0
LINE
  8
1-2
  6
CONTINUOUS
 62
    3
 10
931.87079
 20
1557.9631
 11
931.09358
 21
1558.9585
  0
LINE
  8
1-2
  6
CONTINUOUS
 62
    3
 10
931.09358
 20
1558.9585
 11
930.31043
 21
1559.8369
  0
LINE
  8
1-2
  6
CONTINUOUS
 62
    3
 10
930.31043
 20
1559.8369
 11
929.52456
 21
1560.6057
  0
LINE
  8
1-2
  6
CONTINUOUS
 62
    3
 10
929.52456
 20
1560.6057
 11
928.73919
 21
1561.2713
  0
LINE
  8
1-2
  6
CONTINUOUS
 62
    3
 10
928.73919
 20
1561.2713
 11
927.95678
 21
1561.8409
  0
LINE
  8
1-2
  6
CONTINUOUS
 62
    3
 10
927.95678
 20
1561.8409
 11
927.18081
 21
1562.3212
  0
LINE
  8
1-2
  6
CONTINUOUS
 62
    3
 10
927.18081
 20
1562.3212
 11
926.41424
 21
1562.7196
  0
LINE
  8
1-2
  6
CONTINUOUS
 62
    3
 10
926.41424
 20
1562.7196
 11
925.66029
 21
1563.043
  0
LINE
  8
1-2
  6
CONTINUOUS
 62
    3
 10
925.66029
 20
1563.043
 11
924.92169
 21
1563.2971
  0
LINE
  8
1-2
  6
CONTINUOUS
 62
    3
 10
924.92169
 20
1563.2971
 11
924.20164
 21
1563.4909
  0
LINE
  8
1-2
  6
CONTINUOUS
 62
    3
 10
924.20164
 20
1563.4909
 11
923.50336
 21
1563.6287
  0
LINE
  8
1-2
  6
CONTINUOUS
 62
    3
 10
923.50336
 20
1563.6287
 11
922.82958
 21
1563.7202
  0
LINE
  8
1-2
  6
CONTINUOUS
 62
    3
 10
922.82958
 20
1563.7202
 11
922.18352
 21
1563.7697
  0
LINE
  8
1-2
  6
CONTINUOUS
 62
    3
 10
916.68615
 20
1556.8446
 11
916.70916
 21
1557.6493
  0
LINE
  8
1-2
  6
CONTINUOUS
 62
    3
 10
916.70916
 20
1557.6493
 11
916.77869
 21
1558.3929
  0
LINE
  8
1-2
  6
CONTINUOUS
 62
    3
 10
916.77869
 20
1558.3929
 11
916.89696
 21
1559.079
  0
LINE
  8
1-2
  6
CONTINUOUS
 62
    3
 10
916.89696
 20
1559.079
 11
917.0672
 21
1559.71
  0
LINE
  8
1-2
  6
CONTINUOUS
 62
    3
 10
917.0672
 20
1559.71
 11
917.29188
 21
1560.2907
  0
LINE
  8
1-2
  6
CONTINUOUS
 62
    3
 10
917.29188
 20
1560.2907
 11
917.57322
 21
1560.8235
  0
LINE
  8
1-2
  6
CONTINUOUS
 62
    3
 10
917.57322
 20
1560.8235
 11
917.91419
 21
1561.3114
  0
LINE
  8
1-2
  6
CONTINUOUS
 62
    3
 10
917.91419
 20
1561.3114
 11
918.31702
 21
1561.7588
  0
LINE
  8
1-2
  6
CONTINUOUS
 62
    3
 10
918.31702
 20
1561.7588
 11
918.78468
 21
1562.1683
  0
LINE
  8
1-2
  6
CONTINUOUS
 62
    3
 10
918.78468
 20
1562.1683
 11
919.3194
 21
1562.5437
  0
LINE
  8
1-2
  6
CONTINUOUS
 62
    3
 10
919.3194
 20
1562.5437
 11
919.92439
 21
1562.8879
  0
LINE
  8
1-2
  6
CONTINUOUS
 62
    3
 10
919.92439
 20
1562.8879
 11
920.60139
 21
1563.2051
  0
LINE
  8
1-2
  6
CONTINUOUS
 62
    3
 10
920.60139
 20
1563.2051
 11
921.35385
 21
1563.4983
  0
LINE
  8
1-2
  6
CONTINUOUS
 62
    3
 10
921.35385
 20
1563.4983
 11
922.18352
 21
1563.7697
  0
LINE
  8
1-2
  6
CONTINUOUS
 62
    3
 10
870.90409
 20
1556.8446
 11
871.29578
 21
1557.7898
  0
LINE
  8
1-2
  6
CONTINUOUS
 62
    3
 10
871.29578
 20
1557.7898
 11
871.70381
 21
1558.6472
  0
LINE
  8
1-2
  6
CONTINUOUS
 62
    3
 10
871.70381
 20
1558.6472
 11
872.12792
 21
1559.421
  0
LINE
  8
1-2
  6
CONTINUOUS
 62
    3
 10
872.12792
 20
1559.421
 11
872.56738
 21
1560.115
  0
LINE
  8
1-2
  6
CONTINUOUS
 62
    3
 10
872.56738
 20
1560.115
 11
873.02168
 21
1560.7344
  0
LINE
  8
1-2
  6
CONTINUOUS
 62
    3
 10
873.02168
 20
1560.7344
 11
873.49082
 21
1561.283
  0
LINE
  8
1-2
  6
CONTINUOUS
 62
    3
 10
873.49082
 20
1561.283
 11
873.97407
 21
1561.7645
  0
LINE
  8
1-2
  6
CONTINUOUS
 62
    3
 10
873.97407
 20
1561.7645
 11
874.47143
 21
1562.1836
  0
LINE
  8
1-2
  6
CONTINUOUS
 62
    3
 10
874.47143
 20
1562.1836
 11
874.98189
 21
1562.5444
  0
LINE
  8
1-2
  6
CONTINUOUS
 62
    3
 10
874.98189
 20
1562.5444
 11
875.50548
 21
1562.8507
  0
LINE
  8
1-2
  6
CONTINUOUS
 62
    3
 10
875.50548
 20
1562.8507
 11
876.04168
 21
1563.1078
  0
LINE
  8
1-2
  6
CONTINUOUS
 62
    3
 10
876.04168
 20
1563.1078
 11
876.59025
 21
1563.3194
  0
LINE
  8
1-2
  6
CONTINUOUS
 62
    3
 10
876.59025
 20
1563.3194
 11
877.15021
 21
1563.4884
  0
LINE
  8
1-2
  6
CONTINUOUS
 62
    3
 10
877.15021
 20
1563.4884
 11
877.72204
 21
1563.6213
  0
LINE
  8
1-2
  6
CONTINUOUS
 62
    3
 10
878.97904
 20
1563.6213
 11
879.57512
 21
1563.5082
  0
LINE
  8
1-2
  6
CONTINUOUS
 62
    3
 10
879.57512
 20
1563.5082
 11
880.1665
 21
1563.3283
  0
LINE
  8
1-2
  6
CONTINUOUS
 62
    3
 10
880.1665
 20
1563.3283
 11
880.75293
 21
1563.0813
  0
LINE
  8
1-2
  6
CONTINUOUS
 62
    3
 10
880.75293
 20
1563.0813
 11
881.33466
 21
1562.7676
  0
LINE
  8
1-2
  6
CONTINUOUS
 62
    3
 10
881.33466
 20
1562.7676
 11
881.91145
 21
1562.3873
  0
LINE
  8
1-2
  6
CONTINUOUS
 62
    3
 10
881.91145
 20
1562.3873
 11
882.48353
 21
1561.9394
  0
LINE
  8
1-2
  6
CONTINUOUS
 62
    3
 10
882.48353
 20
1561.9394
 11
883.05066
 21
1561.4252
  0
LINE
  8
1-2
  6
CONTINUOUS
 62
    3
 10
883.05066
 20
1561.4252
 11
883.61309
 21
1560.844
  0
LINE
  8
1-2
  6
CONTINUOUS
 62
    3
 10
883.61309
 20
1560.844
 11
884.17057
 21
1560.1962
  0
LINE
  8
1-2
  6
CONTINUOUS
 62
    3
 10
828.99891
 20
1556.8446
 11
829.11224
 21
1557.5647
  0
LINE
  8
1-2
  6
CONTINUOUS
 62
    3
 10
829.11224
 20
1557.5647
 11
829.27308
 21
1558.2357
  0
LINE
  8
1-2
  6
CONTINUOUS
 62
    3
 10
829.27308
 20
1558.2357
 11
829.47796
 21
1558.8588
  0
LINE
  8
1-2
  6
CONTINUOUS
 62
    3
 10
829.47796
 20
1558.8588
 11
829.72267
 21
1559.4361
  0
LINE
  8
1-2
  6
CONTINUOUS
 62
    3
 10
829.72267
 20
1559.4361
 11
830.00377
 21
1559.969
  0
LINE
  8
1-2
  6
CONTINUOUS
 62
    3
 10
830.00377
 20
1559.969
 11
830.31826
 21
1560.461
  0
LINE
  8
1-2
  6
CONTINUOUS
 62
    3
 10
830.31826
 20
1560.461
 11
830.66245
 21
1560.9125
  0
LINE
  8
1-2
  6
CONTINUOUS
 62
    3
 10
830.66245
 20
1560.9125
 11
831.03386
 21
1561.3245
  0
LINE
  8
1-2
  6
CONTINUOUS
 62
    3
 10
831.03386
 20
1561.3245
 11
831.42976
 21
1561.6999
  0
LINE
  8
1-2
  6
CONTINUOUS
 62
    3
 10
831.42976
 20
1561.6999
 11
831.84694
 21
1562.0384
  0
LINE
  8
1-2
  6
CONTINUOUS
 62
    3
 10
831.84694
 20
1562.0384
 11
832.28343
 21
1562.3427
  0
LINE
  8
1-2
  6
CONTINUOUS
 62
    3
 10
832.28343
 20
1562.3427
 11
832.73699
 21
1562.6132
  0
LINE
  8
1-2
  6
CONTINUOUS
 62
    3
 10
832.73699
 20
1562.6132
 11
833.20564
 21
1562.8507
  0
LINE
  8
1-2
  6
CONTINUOUS
 62
    3
 10
833.20564
 20
1562.8507
 11
833.68715
 21
1563.0561
  0
LINE
  8
1-2
  6
CONTINUOUS
 62
    3
 10
833.68715
 20
1563.0561
 11
834.1803
 21
1563.2298
  0
LINE
  8
1-2
  6
CONTINUOUS
 62
    3
 10
834.1803
 20
1563.2298
 11
834.68359
 21
1563.3733
  0
LINE
  8
1-2
  6
CONTINUOUS
 62
    3
 10
834.68359
 20
1563.3733
 11
835.1953
 21
1563.4859
  0
LINE
  8
1-2
  6
CONTINUOUS
 62
    3
 10
835.1953
 20
1563.4859
 11
835.71492
 21
1563.5683
  0
LINE
  8
1-2
  6
CONTINUOUS
 62
    3
 10
835.71492
 20
1563.5683
 11
836.24098
 21
1563.6213
  0
LINE
  8
1-2
  6
CONTINUOUS
 62
    3
 10
836.37386
 20
1563.6153
 11
836.67004
 21
1563.5861
  0
LINE
  8
1-2
  6
CONTINUOUS
 62
    3
 10
836.67004
 20
1563.5861
 11
836.96128
 21
1563.5441
  0
LINE
  8
1-2
  6
CONTINUOUS
 62
    3
 10
836.96128
 20
1563.5441
 11
837.24732
 21
1563.4891
  0
LINE
  8
1-2
  6
CONTINUOUS
 62
    3
 10
837.24732
 20
1563.4891
 11
837.52816
 21
1563.4216
  0
LINE
  8
1-2
  6
CONTINUOUS
 62
    3
 10
837.52816
 20
1563.4216
 11
837.80406
 21
1563.3412
  0
LINE
  8
1-2
  6
CONTINUOUS
 62
    3
 10
837.80406
 20
1563.3412
 11
838.07501
 21
1563.2476
  0
LINE
  8
1-2
  6
CONTINUOUS
 62
    3
 10
838.07501
 20
1563.2476
 11
838.34051
 21
1563.142
  0
LINE
  8
1-2
  6
CONTINUOUS
 62
    3
 10
838.34051
 20
1563.142
 11
838.60106
 21
1563.0232
  0
LINE
  8
1-2
  6
CONTINUOUS
 62
    3
 10
838.60106
 20
1563.0232
 11
838.85642
 21
1562.8913
  0
LINE
  8
1-2
  6
CONTINUOUS
 62
    3
 10
716.6345
 20
1556.8446
 11
716.73595
 21
1557.6025
  0
LINE
  8
1-2
  6
CONTINUOUS
 62
    3
 10
716.73595
 20
1557.6025
 11
716.8431
 21
1558.2951
  0
LINE
  8
1-2
  6
CONTINUOUS
 62
    3
 10
716.8431
 20
1558.2951
 11
716.95642
 21
1558.9224
  0
LINE
  8
1-2
  6
CONTINUOUS
 62
    3
 10
716.95642
 20
1558.9224
 11
717.07544
 21
1559.4841
  0
LINE
  8
1-2
  6
CONTINUOUS
 62
    3
 10
717.07544
 20
1559.4841
 11
717.2004
 21
1559.9804
  0
LINE
  8
1-2
  6
CONTINUOUS
 62
    3
 10
717.2004
 20
1559.9804
 11
717.33129
 21
1560.411
  0
LINE
  8
1-2
  6
CONTINUOUS
 62
    3
 10
717.33129
 20
1560.411
 11
717.46813
 21
1560.7764
  0
LINE
  8
1-2
  6
CONTINUOUS
 62
    3
 10
717.46813
 20
1560.7764
 11
717.61065
 21
1561.0766
  0
LINE
  8
1-2
  6
CONTINUOUS
 62
    3
 10
717.61065
 20
1561.0766
 11
717.75912
 21
1561.3114
  0
LINE
  8
1-2
  6
CONTINUOUS
 62
    3
 10
735.08065
 20
1556.8446
 11
735.13682
 21
1557.4452
  0
LINE
  8
1-2
  6
CONTINUOUS
 62
    3
 10
735.13682
 20
1557.4452
 11
735.22961
 21
1558.0125
  0
LINE
  8
1-2
  6
CONTINUOUS
 62
    3
 10
735.22961
 20
1558.0125
 11
735.35481
 21
1558.547
  0
LINE
  8
1-2
  6
CONTINUOUS
 62
    3
 10
735.35481
 20
1558.547
 11
735.50921
 21
1559.0493
  0
LINE
  8
1-2
  6
CONTINUOUS
 62
    3
 10
735.50921
 20
1559.0493
 11
735.68935
 21
1559.5177
  0
LINE
  8
1-2
  6
CONTINUOUS
 62
    3
 10
735.68935
 20
1559.5177
 11
735.89151
 21
1559.9532
  0
LINE
  8
1-2
  6
CONTINUOUS
 62
    3
 10
735.89151
 20
1559.9532
 11
736.11173
 21
1560.3551
  0
LINE
  8
1-2
  6
CONTINUOUS
 62
    3
 10
736.11173
 20
1560.3551
 11
736.3468
 21
1560.7237
  0
LINE
  8
1-2
  6
CONTINUOUS
 62
    3
 10
736.3468
 20
1560.7237
 11
736.593
 21
1561.0585
  0
LINE
  8
1-2
  6
CONTINUOUS
 62
    3
 10
736.593
 20
1561.0585
 11
736.84687
 21
1561.3597
  0
LINE
  8
1-2
  6
CONTINUOUS
 62
    3
 10
736.84687
 20
1561.3597
 11
737.10446
 21
1561.6259
  0
LINE
  8
1-2
  6
CONTINUOUS
 62
    3
 10
737.10446
 20
1561.6259
 11
737.36254
 21
1561.8585
  0
LINE
  8
1-2
  6
CONTINUOUS
 62
    3
 10
737.36254
 20
1561.8585
 11
737.6174
 21
1562.0565
  0
LINE
  8
1-2
  6
CONTINUOUS
 62
    3
 10
737.6174
 20
1562.0565
 11
737.86558
 21
1562.2198
  0
LINE
  8
1-2
  6
CONTINUOUS
 62
    3
 10
760.34426
 20
1556.8446
 11
760.51177
 21
1557.5127
  0
LINE
  8
1-2
  6
CONTINUOUS
 62
    3
 10
760.51177
 20
1557.5127
 11
760.71566
 21
1558.138
  0
LINE
  8
1-2
  6
CONTINUOUS
 62
    3
 10
760.71566
 20
1558.138
 11
760.95469
 21
1558.7215
  0
LINE
  8
1-2
  6
CONTINUOUS
 62
    3
 10
760.95469
 20
1558.7215
 11
761.22687
 21
1559.2629
  0
LINE
  8
1-2
  6
CONTINUOUS
 62
    3
 10
761.22687
 20
1559.2629
 11
761.53122
 21
1559.7627
  0
LINE
  8
1-2
  6
CONTINUOUS
 62
    3
 10
761.53122
 20
1559.7627
 11
761.86601
 21
1560.2214
  0
LINE
  8
1-2
  6
CONTINUOUS
 62
    3
 10
761.86601
 20
1560.2214
 11
762.22999
 21
1560.6396
  0
LINE
  8
1-2
  6
CONTINUOUS
 62
    3
 10
762.22999
 20
1560.6396
 11
762.62169
 21
1561.0165
  0
LINE
  8
1-2
  6
CONTINUOUS
 62
    3
 10
762.62169
 20
1561.0165
 11
763.03937
 21
1561.3537
  0
LINE
  8
1-2
  6
CONTINUOUS
 62
    3
 10
763.03937
 20
1561.3537
 11
763.48179
 21
1561.6511
  0
LINE
  8
1-2
  6
CONTINUOUS
 62
    3
 10
763.48179
 20
1561.6511
 11
763.94747
 21
1561.9085
  0
LINE
  8
1-2
  6
CONTINUOUS
 62
    3
 10
763.94747
 20
1561.9085
 11
764.43493
 21
1562.1267
  0
LINE
  8
1-2
  6
CONTINUOUS
 62
    3
 10
764.43493
 20
1562.1267
 11
764.94243
 21
1562.3064
  0
LINE
  8
1-2
  6
CONTINUOUS
 62
    3
 10
764.94243
 20
1562.3064
 11
765.46923
 21
1562.4474
  0
LINE
  8
1-2
  6
CONTINUOUS
 62
    3
 10
791.86364
 20
1556.8446
 11
792.11701
 21
1557.5449
  0
LINE
  8
1-2
  6
CONTINUOUS
 62
    3
 10
792.11701
 20
1557.5449
 11
792.4137
 21
1558.1937
  0
LINE
  8
1-2
  6
CONTINUOUS
 62
    3
 10
792.4137
 20
1558.1937
 11
792.75021
 21
1558.7912
  0
LINE
  8
1-2
  6
CONTINUOUS
 62
    3
 10
792.75021
 20
1558.7912
 11
793.12311
 21
1559.3376
  0
LINE
  8
1-2
  6
CONTINUOUS
 62
    3
 10
793.12311
 20
1559.3376
 11
793.52841
 21
1559.832
  0
LINE
  8
1-2
  6
CONTINUOUS
 62
    3
 10
793.52841
 20
1559.832
 11
793.96242
 21
1560.2759
  0
LINE
  8
1-2
  6
CONTINUOUS
 62
    3
 10
793.96242
 20
1560.2759
 11
794.42167
 21
1560.6681
  0
LINE
  8
1-2
  6
CONTINUOUS
 62
    3
 10
794.42167
 20
1560.6681
 11
794.9017
 21
1561.0098
  0
LINE
  8
1-2
  6
CONTINUOUS
 62
    3
 10
794.9017
 20
1561.0098
 11
795.39881
 21
1561.3023
  0
LINE
  8
1-2
  6
CONTINUOUS
 62
    3
 10
795.39881
 20
1561.3023
 11
795.90878
 21
1561.5452
  0
LINE
  8
1-2
  6
CONTINUOUS
 62
    3
 10
795.90878
 20
1561.5452
 11
796.42742
 21
1561.7407
  0
LINE
  8
1-2
  6
CONTINUOUS
 62
    3
 10
796.42742
 20
1561.7407
 11
796.95001
 21
1561.8892
  0
LINE
  8
1-2
  6
CONTINUOUS
 62
    3
 10
796.95001
 20
1561.8892
 11
797.4726
 21
1561.9926
  0
LINE
  8
1-2
  6
CONTINUOUS
 62
    3
 10
797.4726
 20
1561.9926
 11
797.99049
 21
1562.0525
  0
LINE
  8
1-2
  6
CONTINUOUS
 62
    3
 10
797.99049
 20
1562.0525
 11
798.49874
 21
1562.0698
  0
LINE
  8
1-2
  6
CONTINUOUS
 62
    3
 10
798.49874
 20
1562.0698
 11
798.99312
 21
1562.0483
  0
LINE
  8
1-2
  6
CONTINUOUS
 62
    3
 10
798.99312
 20
1562.0483
 11
799.4687
 21
1561.9889
  0
LINE
  8
1-2
  6
CONTINUOUS
 62
    3
 10
799.4687
 20
1561.9889
 11
799.92028
 21
1561.8936
  0
LINE
  8
1-2
  6
CONTINUOUS
 62
    3
 10
799.92028
 20
1561.8936
 11
800.3429
 21
1561.7655
  0
LINE
  8
1-2
  6
CONTINUOUS
 62
    3
 10
716.6345
 20
1556.8446
 11
708.3329
 21
1556.8446
  0
LINE
  8
1-2
  6
CONTINUOUS
 62
    3
 10
635.32577
 20
1640.1779
 11
716.6345
 21
1556.8446
  0
LINE
  8
1-2
  6
CONTINUOUS
 62
    3
 10
721.99801
 20
1556.8446
 11
641.99749
 21
1640.1779
  0
LINE
  8
1-2
  6
CONTINUOUS
 62
    3
 10
658.27112
 20
1640.1779
 11
735.08065
 21
1556.8446
  0
LINE
  8
1-2
  6
CONTINUOUS
 62
    3
 10
735.08065
 20
1556.8446
 11
721.99801
 21
1556.8446
  0
LINE
  8
1-2
  6
CONTINUOUS
 62
    3
 10
742.7686
 20
1556.8446
 11
667.83392
 21
1640.1779
  0
LINE
  8
1-2
  6
CONTINUOUS
 62
    3
 10
760.34426
 20
1556.8446
 11
742.7686
 21
1556.8446
  0
LINE
  8
1-2
  6
CONTINUOUS
 62
    3
 10
689.69647
 20
1640.1779
 11
760.34426
 21
1556.8446
  0
LINE
  8
1-2
  6
CONTINUOUS
 62
    3
 10
770.18989
 20
1556.8446
 11
701.94326
 21
1640.1779
  0
LINE
  8
1-2
  6
CONTINUOUS
 62
    3
 10
791.87774
 20
1556.8446
 11
770.18989
 21
1556.8446
  0
LINE
  8
1-2
  6
CONTINUOUS
 62
    3
 10
728.92113
 20
1640.1779
 11
791.87774
 21
1556.8446
  0
LINE
  8
1-2
  6
CONTINUOUS
 62
    3
 10
803.668
 20
1556.8446
 11
743.58689
 21
1640.1779
  0
LINE
  8
1-2
  6
CONTINUOUS
 62
    3
 10
828.99891
 20
1556.8446
 11
803.668
 21
1556.8446
  0
LINE
  8
1-2
  6
CONTINUOUS
 62
    3
 10
775.09612
 20
1640.1779
 11
828.99891
 21
1556.8446
  0
LINE
  8
1-2
  6
CONTINUOUS
 62
    3
 10
842.47869
 20
1556.8446
 11
791.86364
 21
1640.1779
  0
LINE
  8
1-2
  6
CONTINUOUS
 62
    3
 10
870.90409
 20
1556.8446
 11
842.47869
 21
1556.8446
  0
LINE
  8
1-2
  6
CONTINUOUS
 62
    3
 10
885.78141
 20
1556.8446
 11
845.72807
 21
1640.1779
  0
LINE
  8
1-2
  6
CONTINUOUS
 62
    3
 10
916.68615
 20
1556.8446
 11
885.78141
 21
1556.8446
  0
LINE
  8
1-2
  6
CONTINUOUS
 62
    3
 10
884.17057
 20
1640.1779
 11
916.68615
 21
1556.8446
  0
LINE
  8
1-2
  6
CONTINUOUS
 62
    3
 10
904.01426
 20
1640.1779
 11
932.63909
 21
1556.8446
  0
LINE
  8
1-2
  6
CONTINUOUS
 62
    3
 10
965.35385
 20
1556.8446
 11
932.63909
 21
1556.8446
  0
LINE
  8
1-2
  6
CONTINUOUS
 62
    3
 10
965.35385
 20
1556.8446
 11
944.70846
 21
1640.1779
  0
LINE
  8
1-2
  6
CONTINUOUS
 62
    3
 10
965.46074
 20
1640.1779
 11
982.03723
 21
1556.8446
  0
LINE
  8
1-2
  6
CONTINUOUS
 62
    3
 10
1015.8543
 20
1556.8446
 11
982.03723
 21
1556.8446
  0
LINE
  8
1-2
  6
CONTINUOUS
 62
    3
 10
1015.8543
 20
1556.8446
 11
1007.526
 21
1640.1779
  0
LINE
  8
1-2
  6
CONTINUOUS
 62
    3
 10
1032.9064
 20
1556.8446
 11
1028.7373
 21
1640.1779
  0
LINE
  8
1-2
  6
CONTINUOUS
 62
    3
 10
827.22205
 20
1640.1779
 11
870.90409
 21
1556.8446
  0
LINE
  8
1-2
  6
CONTINUOUS
 62
    3
 10
878.27903
 20
1556.8446
 11
878.27903
 21
1431.8447
  0
LINE
  8
1-2
  6
CONTINUOUS
 62
    3
 10
844.94567
 20
1556.8446
 11
844.94567
 21
1431.8447
  0
LINE
  8
1-0
  6
CONTINUOUS
 62
    7
 10
266.6669
 20
1365.1777
 11
266.6669
 21
2315.1777
  0
LINE
  8
1-0
  6
CONTINUOUS
 62
    7
 10
624.99986
 20
2460.6179
 11
624.99986
 21
2239.5091
  0
LINE
  8
1-2
  6
CONTINUOUS
 62
    3
 10
1340.316
 20
2147.5642
 11
1308.1221
 21
2190.1773
  0
LINE
  8
1-2
  6
CONTINUOUS
 62
    3
 10
1050
 20
2098.5107
 11
1425.2784
 21
2098.5107
  0
LINE
  8
1-2
  6
CONTINUOUS
 62
    3
 10
1050
 20
2315.1777
 11
1425.2784
 21
2098.5107
  0
LINE
  8
1-2
  6
CONTINUOUS
 62
    3
 10
1425.2784
 20
2081.8449
 11
1050
 21
2081.8449
  0
LINE
  8
1-2
  6
CONTINUOUS
 62
    3
 10
1433.6112
 20
2090.1779
 11
1475.0014
 21
2090.1779
  0
LINE
  8
1-2
  6
CONTINUOUS
 62
    3
 10
1425.2784
 20
2006.8442
 11
1475.0014
 21
2006.8442
  0
LINE
  8
1-2
  6
CONTINUOUS
 62
    3
 10
1425.2784
 20
1990.1778
 11
1475.0014
 21
1990.1778
  0
LINE
  8
1-2
  6
CONTINUOUS
 62
    3
 10
624.99986
 20
2006.8442
 11
1050
 21
2006.8442
  0
LINE
  8
1-2
  6
CONTINUOUS
 62
    3
 10
624.99986
 20
1990.1778
 11
1050
 21
1990.1778
  0
LINE
  8
1-2
  6
CONTINUOUS
 62
    3
 10
1050
 20
1766.945
 11
1007.526
 21
1777.0455
  0
LINE
  8
1-2
  6
CONTINUOUS
 62
    3
 10
1425.2784
 20
1665.177
 11
1312.5013
 21
1665.177
  0
LINE
  8
1-2
  6
CONTINUOUS
 62
    3
 10
1425.2784
 20
1756.8446
 11
1475.0024
 21
1756.8446
  0
LINE
  8
1-2
  6
CONTINUOUS
 62
    3
 10
1425.2784
 20
1740.1782
 11
1475.0024
 21
1740.1782
  0
LINE
  8
1-2
  6
CONTINUOUS
 62
    3
 10
1425.2784
 20
2081.8449
 11
1425.2784
 21
1665.177
  0
LINE
  8
1-2
  6
CONTINUOUS
 62
    3
 10
625.0011
 20
1756.8446
 11
1050
 21
1756.8446
  0
LINE
  8
1-2
  6
CONTINUOUS
 62
    3
 10
625.0011
 20
1740.1782
 11
1050
 21
1740.1782
  0
LINE
  8
1-2
  6
CONTINUOUS
 62
    3
 10
624.99986
 20
1656.8442
 11
1050
 21
1656.8442
  0
LINE
  8
1-2
  6
CONTINUOUS
 62
    3
 10
624.99986
 20
1640.1774
 11
1050
 21
1640.1774
  0
LINE
  8
1-2
  6
CONTINUOUS
 62
    3
 10
1312.5013
 20
1656.8442
 11
1475.0014
 21
1656.8442
  0
LINE
  8
1-2
  6
CONTINUOUS
 62
    3
 10
624.99986
 20
1640.1779
 11
1050
 21
1640.1779
  0
LINE
  8
1-2
  6
CONTINUOUS
 62
    3
 10
1287.8394
 20
1684.1257
 11
1267.0339
 21
1717.4586
  0
LINE
  8
1-2
  6
CONTINUOUS
 62
    3
 10
1263.256
 20
1684.1257
 11
1244.6008
 21
1717.4586
  0
LINE
  8
1-2
  6
CONTINUOUS
 62
    3
 10
1238.7496
 20
1684.1257
 11
1222.2382
 21
1717.4586
  0
LINE
  8
1-2
  6
CONTINUOUS
 62
    3
 10
1214.3206
 20
1684.1257
 11
1199.9463
 21
1717.4586
  0
LINE
  8
1-2
  6
CONTINUOUS
 62
    3
 10
1189.9683
 20
1684.1257
 11
1177.7242
 21
1717.4586
  0
LINE
  8
1-2
  6
CONTINUOUS
 62
    3
 10
1165.6925
 20
1684.1257
 11
1155.5724
 21
1717.4586
  0
LINE
  8
1-2
  6
CONTINUOUS
 62
    3
 10
1141.4929
 20
1684.1257
 11
1133.4894
 21
1717.4586
  0
LINE
  8
1-2
  6
CONTINUOUS
 62
    3
 10
1117.3687
 20
1684.1257
 11
1111.4757
 21
1717.4586
  0
LINE
  8
1-2
  6
CONTINUOUS
 62
    3
 10
1093.3205
 20
1684.1257
 11
1089.531
 21
1717.4586
  0
LINE
  8
1-2
  6
CONTINUOUS
 62
    3
 10
1067.6543
 20
1717.4586
 11
1069.3468
 21
1684.1257
  0
LINE
  8
1-2
  6
CONTINUOUS
 62
    3
 10
1289.5383
 20
1717.4586
 11
1050
 21
1717.4586
  0
LINE
  8
1-2
  6
CONTINUOUS
 62
    3
 10
1312.5013
 20
1684.1257
 11
1050
 21
1684.1257
  0
LINE
  8
1-2
  6
CONTINUOUS
 62
    3
 10
1289.5383
 20
1717.4586
 11
1312.5013
 21
1684.1257
  0
LINE
  8
1-2
  6
CONTINUOUS
 62
    3
 10
1296.3321
 20
2190.1773
 11
1296.3499
 21
2189.7344
  0
LINE
  8
1-2
  6
CONTINUOUS
 62
    3
 10
1296.3499
 20
2189.7344
 11
1296.4063
 21
2189.29
  0
LINE
  8
1-2
  6
CONTINUOUS
 62
    3
 10
1296.4063
 20
2189.29
 11
1296.4998
 21
2188.8473
  0
LINE
  8
1-2
  6
CONTINUOUS
 62
    3
 10
1296.4998
 20
2188.8473
 11
1296.6295
 21
2188.4111
  0
LINE
  8
1-2
  6
CONTINUOUS
 62
    3
 10
1296.6295
 20
2188.4111
 11
1296.7938
 21
2187.9847
  0
LINE
  8
1-2
  6
CONTINUOUS
 62
    3
 10
1296.7938
 20
2187.9847
 11
1296.9922
 21
2187.5727
  0
LINE
  8
1-2
  6
CONTINUOUS
 62
    3
 10
1296.9922
 20
2187.5727
 11
1297.2233
 21
2187.1783
  0
LINE
  8
1-2
  6
CONTINUOUS
 62
    3
 10
1297.2233
 20
2187.1783
 11
1297.4856
 21
2186.8057
  0
LINE
  8
1-2
  6
CONTINUOUS
 62
    3
 10
1297.4856
 20
2186.8057
 11
1297.7786
 21
2186.4592
  0
LINE
  8
1-2
  6
CONTINUOUS
 62
    3
 10
1297.7786
 20
2186.4592
 11
1298.1003
 21
2186.1433
  0
LINE
  8
1-2
  6
CONTINUOUS
 62
    3
 10
1298.1003
 20
2186.1433
 11
1298.4501
 21
2185.8604
  0
LINE
  8
1-2
  6
CONTINUOUS
 62
    3
 10
1298.4501
 20
2185.8604
 11
1298.8272
 21
2185.6157
  0
LINE
  8
1-2
  6
CONTINUOUS
 62
    3
 10
1298.8272
 20
2185.6157
 11
1299.2301
 21
2185.4133
  0
LINE
  8
1-2
  6
CONTINUOUS
 62
    3
 10
1299.2301
 20
2185.4133
 11
1299.6571
 21
2185.2567
  0
LINE
  8
1-2
  6
CONTINUOUS
 62
    3
 10
1329.8102
 20
2190.1773
 11
1329.822
 21
2189.6438
  0
LINE
  8
1-2
  6
CONTINUOUS
 62
    3
 10
1329.822
 20
2189.6438
 11
1329.878
 21
2189.1257
  0
LINE
  8
1-2
  6
CONTINUOUS
 62
    3
 10
1329.878
 20
2189.1257
 11
1329.9735
 21
2188.6276
  0
LINE
  8
1-2
  6
CONTINUOUS
 62
    3
 10
1329.9735
 20
2188.6276
 11
1330.1046
 21
2188.1517
  0
LINE
  8
1-2
  6
CONTINUOUS
 62
    3
 10
1330.1046
 20
2188.1517
 11
1330.2674
 21
2187.7004
  0
LINE
  8
1-2
  6
CONTINUOUS
 62
    3
 10
1330.2674
 20
2187.7004
 11
1330.459
 21
2187.2753
  0
LINE
  8
1-2
  6
CONTINUOUS
 62
    3
 10
1330.459
 20
2187.2753
 11
1330.6752
 21
2186.8789
  0
LINE
  8
1-2
  6
CONTINUOUS
 62
    3
 10
1330.6752
 20
2186.8789
 11
1330.9137
 21
2186.5132
  0
LINE
  8
1-2
  6
CONTINUOUS
 62
    3
 10
1330.9137
 20
2186.5132
 11
1331.1721
 21
2186.1784
  0
LINE
  8
1-2
  6
CONTINUOUS
 62
    3
 10
1331.1721
 20
2186.1784
 11
1331.4482
 21
2185.8753
  0
LINE
  8
1-2
  6
CONTINUOUS
 62
    3
 10
1331.4482
 20
2185.8753
 11
1331.7402
 21
2185.6056
  0
LINE
  8
1-2
  6
CONTINUOUS
 62
    3
 10
1331.7402
 20
2185.6056
 11
1332.0465
 21
2185.368
  0
LINE
  8
1-2
  6
CONTINUOUS
 62
    3
 10
1332.0465
 20
2185.368
 11
1332.3657
 21
2185.1634
  0
LINE
  8
1-2
  6
CONTINUOUS
 62
    3
 10
1332.3657
 20
2185.1634
 11
1332.6973
 21
2184.9909
  0
LINE
  8
1-2
  6
CONTINUOUS
 62
    3
 10
1332.6973
 20
2184.9909
 11
1333.0407
 21
2184.8499
  0
LINE
  8
1-2
  6
CONTINUOUS
 62
    3
 10
1333.0407
 20
2184.8499
 11
1333.3951
 21
2184.7395
  0
LINE
  8
1-2
  6
CONTINUOUS
 62
    3
 10
1333.3951
 20
2184.7395
 11
1333.7618
 21
2184.6579
  0
LINE
  8
1-2
  6
CONTINUOUS
 62
    3
 10
1333.7618
 20
2184.6579
 11
1334.1399
 21
2184.6034
  0
LINE
  8
1-2
  6
CONTINUOUS
 62
    3
 10
1334.1399
 20
2184.6034
 11
1334.5308
 21
2184.575
  0
LINE
  8
1-2
  6
CONTINUOUS
 62
    3
 10
1357.2314
 20
2190.1773
 11
1357.3042
 21
2189.5394
  0
LINE
  8
1-2
  6
CONTINUOUS
 62
    3
 10
1357.3042
 20
2189.5394
 11
1357.4175
 21
2188.9487
  0
LINE
  8
1-2
  6
CONTINUOUS
 62
    3
 10
1357.4175
 20
2188.9487
 11
1357.5655
 21
2188.4049
  0
LINE
  8
1-2
  6
CONTINUOUS
 62
    3
 10
1357.5655
 20
2188.4049
 11
1357.7441
 21
2187.9058
  0
LINE
  8
1-2
  6
CONTINUOUS
 62
    3
 10
1357.7441
 20
2187.9058
 11
1357.949
 21
2187.4505
  0
LINE
  8
1-2
  6
CONTINUOUS
 62
    3
 10
1357.949
 20
2187.4505
 11
1358.1772
 21
2187.0373
  0
LINE
  8
1-2
  6
CONTINUOUS
 62
    3
 10
1358.1772
 20
2187.0373
 11
1358.4241
 21
2186.6641
  0
LINE
  8
1-2
  6
CONTINUOUS
 62
    3
 10
1358.4241
 20
2186.6641
 11
1358.6869
 21
2186.3308
  0
LINE
  8
1-2
  6
CONTINUOUS
 62
    3
 10
1358.6869
 20
2186.3308
 11
1358.9635
 21
2186.0351
  0
LINE
  8
1-2
  6
CONTINUOUS
 62
    3
 10
1358.9635
 20
2186.0351
 11
1359.2515
 21
2185.7753
  0
LINE
  8
1-2
  6
CONTINUOUS
 62
    3
 10
1359.2515
 20
2185.7753
 11
1359.548
 21
2185.5502
  0
LINE
  8
1-2
  6
CONTINUOUS
 62
    3
 10
1359.548
 20
2185.5502
 11
1359.8523
 21
2185.3581
  0
LINE
  8
1-2
  6
CONTINUOUS
 62
    3
 10
1359.8523
 20
2185.3581
 11
1360.1631
 21
2185.1973
  0
LINE
  8
1-2
  6
CONTINUOUS
 62
    3
 10
1360.1631
 20
2185.1973
 11
1360.4788
 21
2185.0664
  0
LINE
  8
1-2
  6
CONTINUOUS
 62
    3
 10
1360.4788
 20
2185.0664
 11
1360.8
 21
2184.9637
  0
LINE
  8
1-2
  6
CONTINUOUS
 62
    3
 10
1360.8
 20
2184.9637
 11
1361.1257
 21
2184.888
  0
LINE
  8
1-2
  6
CONTINUOUS
 62
    3
 10
1361.1257
 20
2184.888
 11
1361.4557
 21
2184.8368
  0
LINE
  8
1-2
  6
CONTINUOUS
 62
    3
 10
1361.4557
 20
2184.8368
 11
1361.7918
 21
2184.8088
  0
LINE
  8
1-2
  6
CONTINUOUS
 62
    3
 10
1361.7918
 20
2184.8088
 11
1362.1342
 21
2184.8021
  0
LINE
  8
1-2
  6
CONTINUOUS
 62
    3
 10
1378.002
 20
2190.1773
 11
1378.0862
 21
2189.6552
  0
LINE
  8
1-2
  6
CONTINUOUS
 62
    3
 10
1378.0862
 20
2189.6552
 11
1378.1871
 21
2189.1724
  0
LINE
  8
1-2
  6
CONTINUOUS
 62
    3
 10
1378.1871
 20
2189.1724
 11
1378.3029
 21
2188.7273
  0
LINE
  8
1-2
  6
CONTINUOUS
 62
    3
 10
1378.3029
 20
2188.7273
 11
1378.4326
 21
2188.319
  0
LINE
  8
1-2
  6
CONTINUOUS
 62
    3
 10
1378.4326
 20
2188.319
 11
1378.5741
 21
2187.9454
  0
LINE
  8
1-2
  6
CONTINUOUS
 62
    3
 10
1378.5741
 20
2187.9454
 11
1378.7261
 21
2187.6039
  0
LINE
  8
1-2
  6
CONTINUOUS
 62
    3
 10
1378.7261
 20
2187.6039
 11
1378.8879
 21
2187.2951
  0
LINE
  8
1-2
  6
CONTINUOUS
 62
    3
 10
1378.8879
 20
2187.2951
 11
1379.0586
 21
2187.016
  0
LINE
  8
1-2
  6
CONTINUOUS
 62
    3
 10
1379.0586
 20
2187.016
 11
1379.2373
 21
2186.7661
  0
LINE
  8
1-2
  6
CONTINUOUS
 62
    3
 10
1379.2373
 20
2186.7661
 11
1379.4238
 21
2186.5424
  0
LINE
  8
1-2
  6
CONTINUOUS
 62
    3
 10
1379.4238
 20
2186.5424
 11
1379.6163
 21
2186.3469
  0
LINE
  8
1-2
  6
CONTINUOUS
 62
    3
 10
1379.6163
 20
2186.3469
 11
1379.8153
 21
2186.1754
  0
LINE
  8
1-2
  6
CONTINUOUS
 62
    3
 10
1379.8153
 20
2186.1754
 11
1380.0197
 21
2186.0287
  0
LINE
  8
1-2
  6
CONTINUOUS
 62
    3
 10
1380.0197
 20
2186.0287
 11
1380.228
 21
2185.905
  0
LINE
  8
1-2
  6
CONTINUOUS
 62
    3
 10
1380.228
 20
2185.905
 11
1380.4408
 21
2185.803
  0
LINE
  8
1-2
  6
CONTINUOUS
 62
    3
 10
1380.4408
 20
2185.803
 11
1380.6556
 21
2185.7226
  0
LINE
  8
1-2
  6
CONTINUOUS
 62
    3
 10
1380.6556
 20
2185.7226
 11
1380.8714
 21
2185.6625
  0
LINE
  8
1-2
  6
CONTINUOUS
 62
    3
 10
1380.8714
 20
2185.6625
 11
1381.0876
 21
2185.6224
  0
LINE
  8
1-2
  6
CONTINUOUS
 62
    3
 10
1381.0876
 20
2185.6224
 11
1381.3019
 21
2185.5996
  0
LINE
  8
1-2
  6
CONTINUOUS
 62
    3
 10
1381.3019
 20
2185.5996
 11
1381.5117
 21
2185.5959
  0
LINE
  8
1-2
  6
CONTINUOUS
 62
    3
 10
1381.5117
 20
2185.5959
 11
1381.7151
 21
2185.6088
  0
LINE
  8
1-2
  6
CONTINUOUS
 62
    3
 10
1381.7151
 20
2185.6088
 11
1381.9106
 21
2185.638
  0
LINE
  8
1-2
  6
CONTINUOUS
 62
    3
 10
1381.9106
 20
2185.638
 11
1382.0932
 21
2185.6825
  0
LINE
  8
1-2
  6
CONTINUOUS
 62
    3
 10
1382.0932
 20
2185.6825
 11
1382.2605
 21
2185.7417
  0
LINE
  8
1-2
  6
CONTINUOUS
 62
    3
 10
1410.8447
 20
2106.8445
 11
1475.0014
 21
2106.8445
  0
LINE
  8
1-2
  6
CONTINUOUS
 62
    3
 10
1474.9999
 20
2106.8445
 11
1391.6672
 21
2190.1773
  0
LINE
  8
1-2
  6
CONTINUOUS
 62
    3
 10
1379.4421
 20
2186.4781
 11
1455.4042
 21
2106.8445
  0
LINE
  8
1-2
  6
CONTINUOUS
 62
    3
 10
1358.8561
 20
2186.1564
 11
1429.718
 21
2106.8445
  0
LINE
  8
1-2
  6
CONTINUOUS
 62
    3
 10
624.99986
 20
2106.8445
 11
708.3329
 21
2190.1773
  0
LINE
  8
1-2
  6
CONTINUOUS
 62
    3
 10
1050
 20
2315.1777
 11
833.49291
 21
2190.1773
  0
LINE
  8
1-2
  6
CONTINUOUS
 62
    3
 10
1266.5069
 20
2190.1773
 11
1296.3321
 21
2190.1773
  0
LINE
  8
1-2
  6
CONTINUOUS
 62
    3
 10
1297.5594
 20
2186.6488
 11
1315.1835
 21
2162.0741
  0
LINE
  8
1-2
  6
CONTINUOUS
 62
    3
 10
1331.2349
 20
2186.0599
 11
1382.2224
 21
2123.3695
  0
LINE
  8
1-2
  6
CONTINUOUS
 62
    3
 10
1383.3655
 20
1556.8446
 11
1383.2641
 21
1557.6025
  0
LINE
  8
1-2
  6
CONTINUOUS
 62
    3
 10
1383.2641
 20
1557.6025
 11
1383.1567
 21
1558.2954
  0
LINE
  8
1-2
  6
CONTINUOUS
 62
    3
 10
1383.1567
 20
1558.2954
 11
1383.0439
 21
1558.9224
  0
LINE
  8
1-2
  6
CONTINUOUS
 62
    3
 10
1383.0439
 20
1558.9224
 11
1382.9246
 21
1559.4841
  0
LINE
  8
1-2
  6
CONTINUOUS
 62
    3
 10
1382.9246
 20
1559.4841
 11
1382.7994
 21
1559.9804
  0
LINE
  8
1-2
  6
CONTINUOUS
 62
    3
 10
1382.7994
 20
1559.9804
 11
1382.6688
 21
1560.411
  0
LINE
  8
1-2
  6
CONTINUOUS
 62
    3
 10
1382.6688
 20
1560.411
 11
1382.5317
 21
1560.7769
  0
LINE
  8
1-2
  6
CONTINUOUS
 62
    3
 10
1382.5317
 20
1560.7769
 11
1382.3892
 21
1561.0766
  0
LINE
  8
1-2
  6
CONTINUOUS
 62
    3
 10
1382.3892
 20
1561.0766
 11
1382.2407
 21
1561.3117
  0
LINE
  8
1-2
  6
CONTINUOUS
 62
    3
 10
1364.9189
 20
1556.8446
 11
1364.863
 21
1557.4452
  0
LINE
  8
1-2
  6
CONTINUOUS
 62
    3
 10
1364.863
 20
1557.4452
 11
1364.7704
 21
1558.0125
  0
LINE
  8
1-2
  6
CONTINUOUS
 62
    3
 10
1364.7704
 20
1558.0125
 11
1364.6447
 21
1558.547
  0
LINE
  8
1-2
  6
CONTINUOUS
 62
    3
 10
1364.6447
 20
1558.547
 11
1364.4908
 21
1559.0493
  0
LINE
  8
1-2
  6
CONTINUOUS
 62
    3
 10
1364.4908
 20
1559.0493
 11
1364.3102
 21
1559.5177
  0
LINE
  8
1-2
  6
CONTINUOUS
 62
    3
 10
1364.3102
 20
1559.5177
 11
1364.1083
 21
1559.9532
  0
LINE
  8
1-2
  6
CONTINUOUS
 62
    3
 10
1364.1083
 20
1559.9532
 11
1363.8881
 21
1560.3553
  0
LINE
  8
1-2
  6
CONTINUOUS
 62
    3
 10
1363.8881
 20
1560.3553
 11
1363.653
 21
1560.7237
  0
LINE
  8
1-2
  6
CONTINUOUS
 62
    3
 10
1363.653
 20
1560.7237
 11
1363.4071
 21
1561.059
  0
LINE
  8
1-2
  6
CONTINUOUS
 62
    3
 10
1363.4071
 20
1561.059
 11
1363.1532
 21
1561.3597
  0
LINE
  8
1-2
  6
CONTINUOUS
 62
    3
 10
1363.1532
 20
1561.3597
 11
1362.8953
 21
1561.6259
  0
LINE
  8
1-2
  6
CONTINUOUS
 62
    3
 10
1362.8953
 20
1561.6259
 11
1362.6375
 21
1561.8585
  0
LINE
  8
1-2
  6
CONTINUOUS
 62
    3
 10
1362.6375
 20
1561.8585
 11
1362.3827
 21
1562.0565
  0
LINE
  8
1-2
  6
CONTINUOUS
 62
    3
 10
1362.3827
 20
1562.0565
 11
1362.1342
 21
1562.2198
  0
LINE
  8
1-2
  6
CONTINUOUS
 62
    3
 10
1339.6558
 20
1556.8446
 11
1339.488
 21
1557.5127
  0
LINE
  8
1-2
  6
CONTINUOUS
 62
    3
 10
1339.488
 20
1557.5127
 11
1339.2841
 21
1558.138
  0
LINE
  8
1-2
  6
CONTINUOUS
 62
    3
 10
1339.2841
 20
1558.138
 11
1339.0451
 21
1558.7215
  0
LINE
  8
1-2
  6
CONTINUOUS
 62
    3
 10
1339.0451
 20
1558.7215
 11
1338.7729
 21
1559.2629
  0
LINE
  8
1-2
  6
CONTINUOUS
 62
    3
 10
1338.7729
 20
1559.2629
 11
1338.4686
 21
1559.7627
  0
LINE
  8
1-2
  6
CONTINUOUS
 62
    3
 10
1338.4686
 20
1559.7627
 11
1338.1335
 21
1560.2217
  0
LINE
  8
1-2
  6
CONTINUOUS
 62
    3
 10
1338.1335
 20
1560.2217
 11
1337.7698
 21
1560.6396
  0
LINE
  8
1-2
  6
CONTINUOUS
 62
    3
 10
1337.7698
 20
1560.6396
 11
1337.3784
 21
1561.017
  0
LINE
  8
1-2
  6
CONTINUOUS
 62
    3
 10
1337.3784
 20
1561.017
 11
1336.9607
 21
1561.3537
  0
LINE
  8
1-2
  6
CONTINUOUS
 62
    3
 10
1336.9607
 20
1561.3537
 11
1336.5183
 21
1561.6511
  0
LINE
  8
1-2
  6
CONTINUOUS
 62
    3
 10
1336.5183
 20
1561.6511
 11
1336.0526
 21
1561.9085
  0
LINE
  8
1-2
  6
CONTINUOUS
 62
    3
 10
1336.0526
 20
1561.9085
 11
1335.5651
 21
1562.127
  0
LINE
  8
1-2
  6
CONTINUOUS
 62
    3
 10
1335.5651
 20
1562.127
 11
1335.0574
 21
1562.3064
  0
LINE
  8
1-2
  6
CONTINUOUS
 62
    3
 10
1335.0574
 20
1562.3064
 11
1334.5308
 21
1562.4474
  0
LINE
  8
1-2
  6
CONTINUOUS
 62
    3
 10
1383.3655
 20
1556.8446
 11
1391.6672
 21
1556.8446
  0
LINE
  8
1-2
  6
CONTINUOUS
 62
    3
 10
1464.6743
 20
1640.1782
 11
1383.3655
 21
1556.8446
  0
LINE
  8
1-2
  6
CONTINUOUS
 62
    3
 10
1441.7287
 20
1640.1782
 11
1364.9189
 21
1556.8446
  0
LINE
  8
1-2
  6
CONTINUOUS
 62
    3
 10
1364.9189
 20
1556.8446
 11
1378.002
 21
1556.8446
  0
LINE
  8
1-2
  6
CONTINUOUS
 62
    3
 10
1339.6558
 20
1556.8446
 11
1357.2314
 21
1556.8446
  0
LINE
  8
1-2
  6
CONTINUOUS
 62
    3
 10
1410.3033
 20
1640.1782
 11
1339.6558
 21
1556.8446
  0
LINE
  8
1-2
  6
CONTINUOUS
 62
    3
 10
1329.8102
 20
1556.8446
 11
1329.822
 21
1557.3786
  0
LINE
  8
1-2
  6
CONTINUOUS
 62
    3
 10
1329.822
 20
1557.3786
 11
1329.878
 21
1557.8962
  0
LINE
  8
1-2
  6
CONTINUOUS
 62
    3
 10
1329.878
 20
1557.8962
 11
1329.9735
 21
1558.3943
  0
LINE
  8
1-2
  6
CONTINUOUS
 62
    3
 10
1329.9735
 20
1558.3943
 11
1330.1046
 21
1558.8707
  0
LINE
  8
1-2
  6
CONTINUOUS
 62
    3
 10
1330.1046
 20
1558.8707
 11
1330.2674
 21
1559.3222
  0
LINE
  8
1-2
  6
CONTINUOUS
 62
    3
 10
1330.2674
 20
1559.3222
 11
1330.459
 21
1559.7471
  0
LINE
  8
1-2
  6
CONTINUOUS
 62
    3
 10
1330.459
 20
1559.7471
 11
1330.6752
 21
1560.143
  0
LINE
  8
1-2
  6
CONTINUOUS
 62
    3
 10
1330.6752
 20
1560.143
 11
1330.9137
 21
1560.5092
  0
LINE
  8
1-2
  6
CONTINUOUS
 62
    3
 10
1330.9137
 20
1560.5092
 11
1331.1721
 21
1560.844
  0
LINE
  8
1-2
  6
CONTINUOUS
 62
    3
 10
1331.1721
 20
1560.844
 11
1331.4482
 21
1561.1469
  0
LINE
  8
1-2
  6
CONTINUOUS
 62
    3
 10
1331.4482
 20
1561.1469
 11
1331.7402
 21
1561.4168
  0
LINE
  8
1-2
  6
CONTINUOUS
 62
    3
 10
1331.7402
 20
1561.4168
 11
1332.0465
 21
1561.6541
  0
LINE
  8
1-2
  6
CONTINUOUS
 62
    3
 10
1332.0465
 20
1561.6541
 11
1332.3657
 21
1561.859
  0
LINE
  8
1-2
  6
CONTINUOUS
 62
    3
 10
1332.3657
 20
1561.859
 11
1332.6973
 21
1562.0317
  0
LINE
  8
1-2
  6
CONTINUOUS
 62
    3
 10
1332.6973
 20
1562.0317
 11
1333.0407
 21
1562.1725
  0
LINE
  8
1-2
  6
CONTINUOUS
 62
    3
 10
1333.0407
 20
1562.1725
 11
1333.3951
 21
1562.2829
  0
LINE
  8
1-2
  6
CONTINUOUS
 62
    3
 10
1333.3951
 20
1562.2829
 11
1333.7618
 21
1562.3643
  0
LINE
  8
1-2
  6
CONTINUOUS
 62
    3
 10
1333.7618
 20
1562.3643
 11
1334.1399
 21
1562.4187
  0
LINE
  8
1-2
  6
CONTINUOUS
 62
    3
 10
1334.1399
 20
1562.4187
 11
1334.5308
 21
1562.4474
  0
LINE
  8
1-2
  6
CONTINUOUS
 62
    3
 10
1357.2314
 20
1556.8446
 11
1357.3042
 21
1557.483
  0
LINE
  8
1-2
  6
CONTINUOUS
 62
    3
 10
1357.3042
 20
1557.483
 11
1357.4175
 21
1558.0737
  0
LINE
  8
1-2
  6
CONTINUOUS
 62
    3
 10
1357.4175
 20
1558.0737
 11
1357.5655
 21
1558.617
  0
LINE
  8
1-2
  6
CONTINUOUS
 62
    3
 10
1357.5655
 20
1558.617
 11
1357.7441
 21
1559.1166
  0
LINE
  8
1-2
  6
CONTINUOUS
 62
    3
 10
1357.7441
 20
1559.1166
 11
1357.949
 21
1559.5719
  0
LINE
  8
1-2
  6
CONTINUOUS
 62
    3
 10
1357.949
 20
1559.5719
 11
1358.1772
 21
1559.9854
  0
LINE
  8
1-2
  6
CONTINUOUS
 62
    3
 10
1358.1772
 20
1559.9854
 11
1358.4241
 21
1560.3583
  0
LINE
  8
1-2
  6
CONTINUOUS
 62
    3
 10
1358.4241
 20
1560.3583
 11
1358.6869
 21
1560.6916
  0
LINE
  8
1-2
  6
CONTINUOUS
 62
    3
 10
1358.6869
 20
1560.6916
 11
1358.9635
 21
1560.9873
  0
LINE
  8
1-2
  6
CONTINUOUS
 62
    3
 10
1358.9635
 20
1560.9873
 11
1359.2515
 21
1561.2466
  0
LINE
  8
1-2
  6
CONTINUOUS
 62
    3
 10
1359.2515
 20
1561.2466
 11
1359.548
 21
1561.4722
  0
LINE
  8
1-2
  6
CONTINUOUS
 62
    3
 10
1359.548
 20
1561.4722
 11
1359.8523
 21
1561.6643
  0
LINE
  8
1-2
  6
CONTINUOUS
 62
    3
 10
1359.8523
 20
1561.6643
 11
1360.1631
 21
1561.8248
  0
LINE
  8
1-2
  6
CONTINUOUS
 62
    3
 10
1360.1631
 20
1561.8248
 11
1360.4788
 21
1561.956
  0
LINE
  8
1-2
  6
CONTINUOUS
 62
    3
 10
1360.4788
 20
1561.956
 11
1360.8
 21
1562.0587
  0
LINE
  8
1-2
  6
CONTINUOUS
 62
    3
 10
1360.8
 20
1562.0587
 11
1361.1257
 21
1562.1344
  0
LINE
  8
1-2
  6
CONTINUOUS
 62
    3
 10
1361.1257
 20
1562.1344
 11
1361.4557
 21
1562.1856
  0
LINE
  8
1-2
  6
CONTINUOUS
 62
    3
 10
1361.4557
 20
1562.1856
 11
1361.7918
 21
1562.2136
  0
LINE
  8
1-2
  6
CONTINUOUS
 62
    3
 10
1361.7918
 20
1562.2136
 11
1362.1342
 21
1562.2198
  0
LINE
  8
1-2
  6
CONTINUOUS
 62
    3
 10
1378.002
 20
1556.8446
 11
1378.0862
 21
1557.3675
  0
LINE
  8
1-2
  6
CONTINUOUS
 62
    3
 10
1378.0862
 20
1557.3675
 11
1378.1871
 21
1557.85
  0
LINE
  8
1-2
  6
CONTINUOUS
 62
    3
 10
1378.1871
 20
1557.85
 11
1378.3029
 21
1558.2946
  0
LINE
  8
1-2
  6
CONTINUOUS
 62
    3
 10
1378.3029
 20
1558.2946
 11
1378.4326
 21
1558.7034
  0
LINE
  8
1-2
  6
CONTINUOUS
 62
    3
 10
1378.4326
 20
1558.7034
 11
1378.5741
 21
1559.0773
  0
LINE
  8
1-2
  6
CONTINUOUS
 62
    3
 10
1378.5741
 20
1559.0773
 11
1378.7261
 21
1559.418
  0
LINE
  8
1-2
  6
CONTINUOUS
 62
    3
 10
1378.7261
 20
1559.418
 11
1378.8879
 21
1559.7273
  0
LINE
  8
1-2
  6
CONTINUOUS
 62
    3
 10
1378.8879
 20
1559.7273
 11
1379.0586
 21
1560.0062
  0
LINE
  8
1-2
  6
CONTINUOUS
 62
    3
 10
1379.0586
 20
1560.0062
 11
1379.2373
 21
1560.2563
  0
LINE
  8
1-2
  6
CONTINUOUS
 62
    3
 10
1379.2373
 20
1560.2563
 11
1379.4238
 21
1560.4795
  0
LINE
  8
1-2
  6
CONTINUOUS
 62
    3
 10
1379.4238
 20
1560.4795
 11
1379.6163
 21
1560.6757
  0
LINE
  8
1-2
  6
CONTINUOUS
 62
    3
 10
1379.6163
 20
1560.6757
 11
1379.8153
 21
1560.8465
  0
LINE
  8
1-2
  6
CONTINUOUS
 62
    3
 10
1379.8153
 20
1560.8465
 11
1380.0197
 21
1560.9937
  0
LINE
  8
1-2
  6
CONTINUOUS
 62
    3
 10
1380.0197
 20
1560.9937
 11
1380.228
 21
1561.1174
  0
LINE
  8
1-2
  6
CONTINUOUS
 62
    3
 10
1380.228
 20
1561.1174
 11
1380.4408
 21
1561.2194
  0
LINE
  8
1-2
  6
CONTINUOUS
 62
    3
 10
1380.4408
 20
1561.2194
 11
1380.6556
 21
1561.2993
  0
LINE
  8
1-2
  6
CONTINUOUS
 62
    3
 10
1380.6556
 20
1561.2993
 11
1380.8714
 21
1561.3597
  0
LINE
  8
1-2
  6
CONTINUOUS
 62
    3
 10
1380.8714
 20
1561.3597
 11
1381.0876
 21
1561.4
  0
LINE
  8
1-2
  6
CONTINUOUS
 62
    3
 10
1381.0876
 20
1561.4
 11
1381.3019
 21
1561.4223
  0
LINE
  8
1-2
  6
CONTINUOUS
 62
    3
 10
1381.3019
 20
1561.4223
 11
1381.5117
 21
1561.4265
  0
LINE
  8
1-2
  6
CONTINUOUS
 62
    3
 10
1381.5117
 20
1561.4265
 11
1381.7151
 21
1561.4131
  0
LINE
  8
1-2
  6
CONTINUOUS
 62
    3
 10
1381.7151
 20
1561.4131
 11
1381.9106
 21
1561.3844
  0
LINE
  8
1-2
  6
CONTINUOUS
 62
    3
 10
1381.9106
 20
1561.3844
 11
1382.0932
 21
1561.3399
  0
LINE
  8
1-2
  6
CONTINUOUS
 62
    3
 10
1382.0932
 20
1561.3399
 11
1382.2605
 21
1561.2805
  0
LINE
  8
1-2
  6
CONTINUOUS
 62
    3
 10
1474.9999
 20
1640.1779
 11
1391.6672
 21
1556.8446
  0
LINE
  8
1-2
  6
CONTINUOUS
 62
    3
 10
1379.4421
 20
1560.5446
 11
1455.4042
 21
1640.1782
  0
LINE
  8
1-2
  6
CONTINUOUS
 62
    3
 10
1358.8561
 20
1560.8663
 11
1429.718
 21
1640.1782
  0
LINE
  8
1-2
  6
CONTINUOUS
 62
    3
 10
1312.5008
 20
1640.1782
 11
1475.0014
 21
1640.1782
  0
LINE
  8
1-2
  6
CONTINUOUS
 62
    3
 10
1331.5096
 20
1561.301
 11
1395.6623
 21
1640.1782
  0
LINE
  8
1-2
  6
CONTINUOUS
 62
    3
 10
1312.5003
 20
1581.2063
 11
1354.7922
 21
1640.1782
  0
LINE
  8
1-2
  6
CONTINUOUS
 62
    3
 10
1371.0792
 20
1640.1782
 11
1312.4998
 21
1562.6397
  0
LINE
  8
1-2
  6
CONTINUOUS
 62
    3
 10
1312.4998
 20
1556.8446
 11
1329.8102
 21
1556.8446
  0
LINE
  8
1-2
  6
CONTINUOUS
 62
    3
 10
1339.6558
 20
1556.8446
 11
1339.488
 21
1557.5127
  0
LINE
  8
1-2
  6
CONTINUOUS
 62
    3
 10
1339.488
 20
1557.5127
 11
1339.2841
 21
1558.138
  0
LINE
  8
1-2
  6
CONTINUOUS
 62
    3
 10
1339.2841
 20
1558.138
 11
1339.0451
 21
1558.7215
  0
LINE
  8
1-2
  6
CONTINUOUS
 62
    3
 10
1339.0451
 20
1558.7215
 11
1338.7729
 21
1559.2629
  0
LINE
  8
1-2
  6
CONTINUOUS
 62
    3
 10
1338.7729
 20
1559.2629
 11
1338.4686
 21
1559.7627
  0
LINE
  8
1-2
  6
CONTINUOUS
 62
    3
 10
1338.4686
 20
1559.7627
 11
1338.1335
 21
1560.2214
  0
LINE
  8
1-2
  6
CONTINUOUS
 62
    3
 10
1338.1335
 20
1560.2214
 11
1337.7698
 21
1560.6396
  0
LINE
  8
1-2
  6
CONTINUOUS
 62
    3
 10
1337.7698
 20
1560.6396
 11
1337.3784
 21
1561.0165
  0
LINE
  8
1-2
  6
CONTINUOUS
 62
    3
 10
1337.3784
 20
1561.0165
 11
1336.9607
 21
1561.3537
  0
LINE
  8
1-2
  6
CONTINUOUS
 62
    3
 10
1336.9607
 20
1561.3537
 11
1336.5183
 21
1561.6511
  0
LINE
  8
1-2
  6
CONTINUOUS
 62
    3
 10
1336.5183
 20
1561.6511
 11
1336.0526
 21
1561.9085
  0
LINE
  8
1-2
  6
CONTINUOUS
 62
    3
 10
1336.0526
 20
1561.9085
 11
1335.5651
 21
1562.1267
  0
LINE
  8
1-2
  6
CONTINUOUS
 62
    3
 10
1335.5651
 20
1562.1267
 11
1335.0574
 21
1562.3064
  0
LINE
  8
1-2
  6
CONTINUOUS
 62
    3
 10
1335.0574
 20
1562.3064
 11
1334.5308
 21
1562.4474
  0
LINE
  8
1-2
  6
CONTINUOUS
 62
    3
 10
1339.6558
 20
1556.8446
 11
1357.2314
 21
1556.8446
  0
LINE
  8
1-2
  6
CONTINUOUS
 62
    3
 10
1324.9034
 20
1640.1779
 11
1312.5008
 21
1621.0026
  0
LINE
  8
1-2
  6
CONTINUOUS
 62
    3
 10
1312.5013
 20
1684.1252
 11
1312.4998
 21
1546.0877
  0
LINE
  8
1-2
  6
CONTINUOUS
 62
    3
 10
1312.4998
 20
1546.0877
 11
1312.4988
 21
1431.8447
  0
LINE
  8
1-2
  6
CONTINUOUS
 62
    3
 10
1312.4998
 20
1556.8446
 11
1329.8102
 21
1556.8446
  0
LINE
  8
1-2
  6
CONTINUOUS
 62
    3
 10
1050
 20
1556.8446
 11
1032.9064
 21
1556.8446
  0
LINE
  8
1-2
  6
CONTINUOUS
 62
    3
 10
624.99986
 20
2106.8445
 11
1050
 21
2106.8445
  0
LINE
  8
1-2
  6
CONTINUOUS
 62
    3
 10
624.99986
 20
2090.1787
 11
1050
 21
2090.1787
  0
LINE
  8
1-2
  6
CONTINUOUS
 62
    3
 10
972.19309
 20
1563.7697
 11
972.59938
 21
1563.7866
  0
LINE
  8
1-2
  6
CONTINUOUS
 62
    3
 10
972.59938
 20
1563.7866
 11
973.00865
 21
1563.7984
  0
LINE
  8
1-2
  6
CONTINUOUS
 62
    3
 10
973.00865
 20
1563.7984
 11
973.42113
 21
1563.8046
  0
LINE
  8
1-2
  6
CONTINUOUS
 62
    3
 10
973.42113
 20
1563.8046
 11
973.83658
 21
1563.8059
  0
LINE
  8
1-2
  6
CONTINUOUS
 62
    3
 10
973.83658
 20
1563.8059
 11
974.25525
 21
1563.8019
  0
LINE
  8
1-2
  6
CONTINUOUS
 62
    3
 10
974.25525
 20
1563.8019
 11
974.67689
 21
1563.7927
  0
LINE
  8
1-2
  6
CONTINUOUS
 62
    3
 10
974.67689
 20
1563.7927
 11
975.10174
 21
1563.7779
  0
LINE
  8
1-2
  6
CONTINUOUS
 62
    3
 10
975.10174
 20
1563.7779
 11
975.52957
 21
1563.7581
  0
LINE
  8
1-2
  6
CONTINUOUS
 62
    3
 10
975.52957
 20
1563.7581
 11
975.96061
 21
1563.7326
  0
LINE
  8
1-2
  6
CONTINUOUS
 62
    3
 10
877.72204
 20
1563.6213
 11
877.85343
 21
1563.6351
  0
LINE
  8
1-2
  6
CONTINUOUS
 62
    3
 10
877.85343
 20
1563.6351
 11
877.98705
 21
1563.645
  0
LINE
  8
1-2
  6
CONTINUOUS
 62
    3
 10
877.98705
 20
1563.645
 11
878.12265
 21
1563.6522
  0
LINE
  8
1-2
  6
CONTINUOUS
 62
    3
 10
878.12265
 20
1563.6522
 11
878.26022
 21
1563.6554
  0
LINE
  8
1-2
  6
CONTINUOUS
 62
    3
 10
878.26022
 20
1563.6554
 11
878.39978
 21
1563.6554
  0
LINE
  8
1-2
  6
CONTINUOUS
 62
    3
 10
878.39978
 20
1563.6554
 11
878.54156
 21
1563.6522
  0
LINE
  8
1-2
  6
CONTINUOUS
 62
    3
 10
878.54156
 20
1563.6522
 11
878.68533
 21
1563.645
  0
LINE
  8
1-2
  6
CONTINUOUS
 62
    3
 10
878.68533
 20
1563.645
 11
878.83107
 21
1563.6351
  0
LINE
  8
1-2
  6
CONTINUOUS
 62
    3
 10
878.83107
 20
1563.6351
 11
878.97904
 21
1563.6213
  0
LINE
  8
1-2
  6
CONTINUOUS
 62
    3
 10
877.72204
 20
2183.4009
 11
877.87447
 21
2183.39
  0
LINE
  8
1-2
  6
CONTINUOUS
 62
    3
 10
877.87447
 20
2183.39
 11
878.02367
 21
2183.3818
  0
LINE
  8
1-2
  6
CONTINUOUS
 62
    3
 10
878.02367
 20
2183.3818
 11
878.16966
 21
2183.3764
  0
LINE
  8
1-2
  6
CONTINUOUS
 62
    3
 10
878.16966
 20
2183.3764
 11
878.31243
 21
2183.3737
  0
LINE
  8
1-2
  6
CONTINUOUS
 62
    3
 10
878.31243
 20
2183.3737
 11
878.45224
 21
2183.3737
  0
LINE
  8
1-2
  6
CONTINUOUS
 62
    3
 10
878.45224
 20
2183.3737
 11
878.58858
 21
2183.3764
  0
LINE
  8
1-2
  6
CONTINUOUS
 62
    3
 10
878.58858
 20
2183.3764
 11
878.72195
 21
2183.3818
  0
LINE
  8
1-2
  6
CONTINUOUS
 62
    3
 10
878.72195
 20
2183.3818
 11
878.8521
 21
2183.39
  0
LINE
  8
1-2
  6
CONTINUOUS
 62
    3
 10
878.8521
 20
2183.39
 11
878.97904
 21
2183.4009
  0
LINE
  8
1-2
  6
CONTINUOUS
 62
    3
 10
972.19309
 20
2183.2527
 11
972.60136
 21
2183.2277
  0
LINE
  8
1-2
  6
CONTINUOUS
 62
    3
 10
972.60136
 20
2183.2277
 11
973.01211
 21
2183.2104
  0
LINE
  8
1-2
  6
CONTINUOUS
 62
    3
 10
973.01211
 20
2183.2104
 11
973.42534
 21
2183.1995
  0
LINE
  8
1-2
  6
CONTINUOUS
 62
    3
 10
973.42534
 20
2183.1995
 11
973.84153
 21
2183.1968
  0
LINE
  8
1-2
  6
CONTINUOUS
 62
    3
 10
973.84153
 20
2183.1968
 11
974.2602
 21
2183.2007
  0
LINE
  8
1-2
  6
CONTINUOUS
 62
    3
 10
974.2602
 20
2183.2007
 11
974.68134
 21
2183.2118
  0
LINE
  8
1-2
  6
CONTINUOUS
 62
    3
 10
974.68134
 20
2183.2118
 11
975.10496
 21
2183.2309
  0
LINE
  8
1-2
  6
CONTINUOUS
 62
    3
 10
975.10496
 20
2183.2309
 11
975.53155
 21
2183.2564
  0
LINE
  8
1-2
  6
CONTINUOUS
 62
    3
 10
975.53155
 20
2183.2564
 11
975.96061
 21
2183.2895
  0
LINE
  8
1-2
  6
CONTINUOUS
 62
    3
 10
1374.2509
 20
1756.8446
 11
1336.3545
 21
1756.8446
  0
LINE
  8
1-2
  6
CONTINUOUS
 62
    3
 10
1374.2509
 20
1990.1778
 11
1374.2509
 21
1756.8446
  0
LINE
  8
1-2
  6
CONTINUOUS
 62
    3
 10
1374.2509
 20
1990.1778
 11
1336.3545
 21
1990.1778
  0
LINE
  8
1-2
  6
CONTINUOUS
 62
    3
 10
1285.3267
 20
1756.8446
 11
1247.43
 21
1756.8446
  0
LINE
  8
1-2
  6
CONTINUOUS
 62
    3
 10
1285.3267
 20
1990.1778
 11
1285.3267
 21
1756.8446
  0
LINE
  8
1-2
  6
CONTINUOUS
 62
    3
 10
1285.3267
 20
1990.1778
 11
1247.43
 21
1990.1778
  0
LINE
  8
1-2
  6
CONTINUOUS
 62
    3
 10
1196.4027
 20
1756.8446
 11
1158.5061
 21
1756.8446
  0
LINE
  8
1-2
  6
CONTINUOUS
 62
    3
 10
1196.4027
 20
1990.1778
 11
1196.4027
 21
1756.8446
  0
LINE
  8
1-2
  6
CONTINUOUS
 62
    3
 10
1196.4027
 20
1990.1778
 11
1158.5061
 21
1990.1778
  0
LINE
  8
1-0
  6
CONTINUOUS
 62
    7
 10
616.66658
 20
1108.7172
 11
1483.3332
 21
1108.717
  0
LINE
  8
1-0
  6
CONTINUOUS
 62
    7
 10
497.71978
 20
1365.1777
 11
266.6669
 21
1365.1777
  0
LINE
  8
1-2
  6
CONTINUOUS
 62
    3
 10
616.66658
 20
1365.1782
 11
1483.3332
 21
1365.1782
  0
LINE
  8
1-2
  6
CONTINUOUS
 62
    3
 10
1483.3332
 20
1365.1782
 11
1483.3332
 21
1265.1779
  0
LINE
  8
1-2
  6
CONTINUOUS
 62
    3
 10
616.66658
 20
1265.1781
 11
1483.3332
 21
1265.1779
  0
LINE
  8
1-2
  6
CONTINUOUS
 62
    3
 10
616.66658
 20
1365.1782
 11
616.66658
 21
1265.1781
  0
LINE
  8
1-0
  6
CONTINUOUS
 62
    7
 10
266.6669
 20
1265.1781
 11
266.6669
 21
1365.1782
  0
LINE
  8
1-0
  6
CONTINUOUS
 62
    7
 10
497.71978
 20
1265.1781
 11
266.6669
 21
1265.1781
  0
LINE
  8
1-0
  6
CONTINUOUS
 62
    7
 10
497.71978
 20
1365.1782
 11
266.6669
 21
1365.1782
  0
LINE
  8
1-0
  6
CONTINUOUS
 62
    7
 10
1483.3332
 20
1247.355
 11
1483.3332
 21
1108.717
  0
LINE
  8
1-0
  6
CONTINUOUS
 62
    7
 10
616.66658
 20
1108.7172
 11
616.66658
 21
1247.355
  0
LINE
  8
1-2
  6
DASHED1
 62
    3
 10
1050
 20
1548.5113
 11
1312.4998
 21
1548.5113
  0
LINE
  8
1-2
  6
CONTINUOUS
 62
    4
 10
1180.2526
 20
1551.4645
 11
1180.2526
 21
1501.1707
  0
LINE
  8
1-2
  6
CONTINUOUS
 62
    4
 10
1180.2526
 20
1501.1707
 11
1338.5314
 21
1501.1707
  0
LINE
  8
1-0
  6
CENTER2
 62
    7
 10
1050
 20
2397.5737
 11
1050
 21
1210
  0
ARC
  8
1-2
  6
CONTINUOUS
 62
    3
 10
787.50004
 20
1373.511
 40
8.3329482
 50
90
 51
270
  0
ARC
  8
1-2
  6
CONTINUOUS
 62
    3
 10
787.4988
 20
1423.5117
 40
8.3329482
 50
90
 51
270
  0
ARC
  8
1-2
  6
CONTINUOUS
 62
    3
 10
1312.4998
 20
1373.5108
 40
8.3329482
 50
270
 51
90
  0
ARC
  8
1-2
  6
CONTINUOUS
 62
    3
 10
1312.4988
 20
1423.5112
 40
8.3329482
 50
270
 51
90
  0
ARC
  8
1-2
  6
CONTINUOUS
 62
    3
 10
625.0011
 20
1748.5115
 40
8.3329482
 50
90
 51
270
  0
ARC
  8
1-2
  6
CONTINUOUS
 62
    3
 10
624.99986
 20
1648.5104
 40
8.3329482
 50
90
 51
270
  0
ARC
  8
1-2
  6
CONTINUOUS
 62
    3
 10
1475.0014
 20
1748.5115
 40
8.3329482
 50
270
 51
90
  0
ARC
  8
1-2
  6
CONTINUOUS
 62
    3
 10
1474.9999
 20
1648.5104
 40
8.3329482
 50
270
 51
90
  0
ARC
  8
1-2
  6
CONTINUOUS
 62
    3
 10
624.99986
 20
2098.5117
 40
8.3329482
 50
90
 51
270
  0
ARC
  8
1-2
  6
CONTINUOUS
 62
    3
 10
624.99986
 20
1998.5104
 40
8.3329482
 50
90
 51
270
  0
ARC
  8
1-2
  6
CONTINUOUS
 62
    3
 10
1474.9999
 20
2098.5117
 40
8.3329482
 50
270
 51
90
  0
ARC
  8
1-2
  6
CONTINUOUS
 62
    3
 10
1474.9999
 20
1998.5104
 40
8.3329482
 50
270
 51
90
  0
ARC
  8
1-2
  6
CONTINUOUS
 62
    3
 10
1024.3803
 20
2191.9457
 40
8.7075721
 50
191.71624
 51
348.28375
  0
CIRCLE
  8
1-2
  6
CONTINUOUS
 62
    3
 10
797.68763
 20
2014.5111
 40
5.0000003
  0
CIRCLE
  8
1-2
  6
CONTINUOUS
 62
    3
 10
797.68763
 20
2074.2417
 40
5.0000003
  0
CIRCLE
  8
1-2
  6
CONTINUOUS
 62
    3
 10
797.68763
 20
1732.5113
 40
5.0000003
  0
CIRCLE
  8
1-2
  6
CONTINUOUS
 62
    3
 10
797.68763
 20
1672.7801
 40
5.0000003
  0
ARC
  8
1-2
  6
CONTINUOUS
 62
    3
 10
1024.3803
 20
1555.0762
 40
8.7075721
 50
11.716247
 51
168.28375
  0
CIRCLE
  8
1-2
  6
CONTINUOUS
 62
    3
 10
861.61247
 20
1542.1702
 40
5.0000003
  0
CIRCLE
  8
1-2
  6
CONTINUOUS
 62
    3
 10
861.61247
 20
1445.9322
 40
5.0000003
  0
ARC
  8
1-2
  6
CONTINUOUS
 62
    3
 10
1425.2784
 20
2090.1779
 40
8.3329482
 50
270
 51
90
  0
ARC
  8
1-2
  6
CONTINUOUS
 62
    3
 10
1425.2784
 20
1656.8442
 40
8.3329482
 50
359.99745
 51
90
  0
TEXT
  8
1-d
 10
254.99986
 20
37.49994
 40
25
 41
1
 50
0
  1
番
  0
TEXT
  8
1-d
 10
655.00021
 20
97.499924
 40
25
 41
1
 50
0
  1
承
  0
TEXT
  8
1-d
 10
655.00021
 20
37.49994
 40
25
 41
1
 50
0
  1
認
  0
TEXT
  8
1-d
 10
1020.0002
 20
177.49997
 40
25
 41
1
 50
0
  1
尺
  0
TEXT
  8
1-d
 10
1020.0002
 20
137.49996
 40
25
 41
1
 50
0
  1
度
  0
TEXT
  8
1-d
 10
855.00014
 20
97.499924
 40
25
 41
1
 50
0
  1
製
  0
TEXT
  8
1-d
 10
855.00014
 20
37.49994
 40
25
 41
1
 50
0
  1
図
  0
TEXT
  8
1-d
 10
1555.0002
 20
177.49997
 40
25
 41
1
 50
0
  1
日
  0
TEXT
  8
1-d
 10
1555.0002
 20
137.49996
 40
25
 41
1
 50
0
  1
付
  0
TEXT
  8
1-d
 10
1111.4262
 20
103.48221
 40
20
 41
1
 50
0
  1
株式
  0
TEXT
  8
1-d
 10
1111.4262
 20
81.851798
 40
20
 41
1
 50
0
  1
会社
  0
TEXT
  8
1-d
 10
1174.2245
 20
83.247297
 40
40
 41
1
 50
0
  1
スズキベンチレーター
  0
TEXT
  8
1-d
 10
1237.9179
 20
34.024276
 40
20
 41
1
 50
0
  1
TEL(054)296-7000  FAX(054)296-7001
  0
TEXT
  8
1-d
 10
254.99986
 20
97.499924
 40
25
 41
1
 50
0
  1
図
  0
TEXT
  8
1-d
 10
1084.3491
 20
150.10071
 40
40
 41
1
 50
0
  1
１／６
  0
TEXT
  8
1-0
 10
256.66699
 20
1818.9275
 40
30
 41
1
 50
90
  1
570
  0
TEXT
  8
1-0
 10
1006.4597
 20
2473.8559
 40
30
 41
1
 50
0
  1
510φ
  0
TEXT
  8
1-0
 10
256.66699
 20
1301.4283
 40
30
 41
1
 50
90
  1
60
  0
TEXT
  8
1-0
 10
989.61533
 20
1117.2675
 40
30
 41
1
 50
0
  1
520*520
  0
TEXT
  8
1-2
 10
1355.7399
 20
1474.0023
 40
30
 41
1
 50
0
  1
網、水平付け
  0
TEXT
  8
1-d
 10
245.33786
 20
2780.4054
 40
50
 41
1
 50
0
  1
ＡＳ－３００　自然回転  架台型（網付）断面
  0
TEXT
  8
1-d
 10
261.37484
 20
154.91192
 40
30
 41
1
 50
0
  1
ＡＳ－３００ 自然回転 架台型（網付）断面
  0
TEXT
  8
1-d
 10
302.5895
 20
84.985422
 40
30
 41
1
 50
0
  1
30-A09c
  0
TEXT
  8
1-d
 10
1235.6794
 20
58.646024
 40
20
 41
1
 50
0
  1
〒421-2114　静岡市葵区安倍口新田１５２番地
  0
POINT
  8
1-0
 62
    2
 10
266.6669
 20
1365.1777
  0
POINT
  8
1-0
 62
    2
 10
266.6669
 20
2315.1777
  0
POINT
  8
1-0
 62
    2
 10
624.99986
 20
2460.6179
  0
POINT
  8
1-0
 62
    2
 10
1475.0014
 20
2460.6179
  0
POINT
  8
1-0
 62
    2
 10
266.6669
 20
1365.1777
  0
POINT
  8
1-0
 62
    2
 10
616.66658
 20
1108.7172
  0
POINT
  8
1-0
 62
    2
 10
1483.3332
 20
1108.717
  0
POINT
  8
1-0
 62
    2
 10
266.6669
 20
1265.1781
  0
POINT
  8
1-0
 62
    2
 10
266.6669
 20
1365.1782
  0
POINT
  8
1-2
 62
    2
 10
1180.2526
 20
1551.4645
  0
ENDSEC
  0
EOF
